  0
SECTION
  2
HEADER
  9
$ACADVER
  1
AC1014
  9
$HANDSEED
  5
FFFF
  9
$INSUNITS
 70
     4
  9
$MEASUREMENT
 70
     1
  0
ENDSEC
  0
SECTION
  2
TABLES
  0
TABLE
  2
VPORT
  5
8
330
0
100
AcDbSymbolTable
 70
     4
  0
VPORT
  5
2E
330
8
100
AcDbSymbolTableRecord
100
AcDbViewportTableRecord
  2
*ACTIVE
 70
     0
 10
0.0
 20
0.0
 11
1.0
 21
1.0
 12
210.0
 22
148.5
 13
0.0
 23
0.0
 14
10.0
 24
10.0
 15
10.0
 25
10.0
 16
0.0
 26
0.0
 36
1.0
 17
0.0
 27
0.0
 37
0.0
 40
341.0
 41
1.24
 42
50.0
 43
0.0
 44
0.0
 50
0.0
 51
0.0
 71
     0
 72
   100
 73
     1
 74
     3
 75
     0
 76
     0
 77
     0
 78
     0
  0
ENDTAB
  0
TABLE
  2
LTYPE
  5
5
330
0
100
AcDbSymbolTable
 70
     1
  0
LTYPE
  5
14
330
5
100
AcDbSymbolTableRecord
100
AcDbLinetypeTableRecord
  2
BYBLOCK
 70
     0
  3

 72
    65
 73
     0
 40
0.0
  0
LTYPE
  5
15
330
5
100
AcDbSymbolTableRecord
100
AcDbLinetypeTableRecord
  2
BYLAYER
 70
     0
  3

 72
    65
 73
     0
 40
0.0
  0
LTYPE
  5
16
330
5
100
AcDbSymbolTableRecord
100
AcDbLinetypeTableRecord
  2
CONTINUOUS
 70
     0
  3
Solid line
 72
    65
 73
     0
 40
0.0
  0
ENDTAB
  0
TABLE
  2
LAYER
  5
2
100
AcDbSymbolTable
 70
2
  0
LAYER
  5
50
100
AcDbSymbolTableRecord
100
AcDbLayerTableRecord
  2
0
 70
0
  6
CONTINUOUS
  0
LAYER
  5
51
100
AcDbSymbolTableRecord
100
AcDbLayerTableRecord
  2
Layer_1
 70
0
  6
CONTINUOUS
  0
ENDTAB
  0
TABLE
  2
STYLE
  5
3
330
0
100
AcDbSymbolTable
 70
     1
  0
STYLE
  5
11
330
3
100
AcDbSymbolTableRecord
100
AcDbTextStyleTableRecord
  2
STANDARD
 70
     0
 40
0.0
 41
1.0
 50
0.0
 71
     0
 42
2.5
  3
txt
  4

  0
ENDTAB
  0
TABLE
  2
VIEW
  5
6
330
0
100
AcDbSymbolTable
 70
     0
  0
ENDTAB
  0
TABLE
  2
UCS
  5
7
330
0
100
AcDbSymbolTable
 70
     0
  0
ENDTAB
  0
TABLE
  2
APPID
  5
9
330
0
100
AcDbSymbolTable
 70
     2
  0
APPID
  5
12
330
9
100
AcDbSymbolTableRecord
100
AcDbRegAppTableRecord
  2
ACAD
 70
     0
  0
ENDTAB
  0
TABLE
  2
DIMSTYLE
  5
A
330
0
100
AcDbSymbolTable
 70
     1
  0
DIMSTYLE
105
27
330
A
100
AcDbSymbolTableRecord
100
AcDbDimStyleTableRecord
  2
ISO-25
 70
     0
  3

  4

  5

  6

  7

 40
1.0
 41
2.5
 42
0.625
 43
3.75
 44
1.25
 45
0.0
 46
0.0
 47
0.0
 48
0.0
140
2.5
141
2.5
142
0.0
143
0.03937007874016
144
1.0
145
0.0
146
1.0
147
0.625
 71
     0
 72
     0
 73
     0
 74
     0
 75
     0
 76
     0
 77
     1
 78
     8
170
     0
171
     3
172
     1
173
     0
174
     0
175
     0
176
     0
177
     0
178
     0
270
     2
271
     2
272
     2
273
     2
274
     3
340
11
275
     0
280
     0
281
     0
282
     0
283
     0
284
     8
285
     0
286
     0
287
     3
288
     0
  0
ENDTAB
  0
TABLE
  2
BLOCK_RECORD
  5
1
330
0
100
AcDbSymbolTable
 70
     1
  0
BLOCK_RECORD
  5
1F
330
1
100
AcDbSymbolTableRecord
100
AcDbBlockTableRecord
  2
*MODEL_SPACE
  0
BLOCK_RECORD
  5
1B
330
1
100
AcDbSymbolTableRecord
100
AcDbBlockTableRecord
  2
*PAPER_SPACE
  0
ENDTAB
  0
ENDSEC
  0
SECTION
  2
BLOCKS
  0
BLOCK
  5
20
330
1F
100
AcDbEntity
  8
0
100
AcDbBlockBegin
  2
*MODEL_SPACE
 70
     0
 10
0.0
 20
0.0
 30
0.0
  3
*MODEL_SPACE
  1

  0
ENDBLK
  5
21
330
1F
100
AcDbEntity
  8
0
100
AcDbBlockEnd
  0
BLOCK
  5
1C
330
1B
100
AcDbEntity
 67
     1
  8
0
100
AcDbBlockBegin
  2
*PAPER_SPACE
  1

  0
ENDBLK
  5
1D
330
1B
100
AcDbEntity
 67
     1
  8
0
100
AcDbBlockEnd
  0
ENDSEC
  0
SECTION
  2
ENTITIES
  0
SPLINE
  5
100
100
AcDbEntity
  8
Layer_1
 62
7
100
AcDbSpline
 70
8
 71
3
 72
8
 73
4
 74
0
 40
0
 40
0
 40
0
 40
0
 40
1
 40
1
 40
1
 40
1
 10
263.855930
 20
515.974579
 30
0.0
 10
263.988538
 20
515.974579
 30
0.0
 10
264.115715
 20
515.921901
 30
0.0
 10
264.209483
 20
515.828132
 30
0.0
  0
SPLINE
  5
101
100
AcDbEntity
  8
Layer_1
 62
7
100
AcDbSpline
 70
8
 71
3
 72
8
 73
4
 74
0
 40
0
 40
0
 40
0
 40
0
 40
1
 40
1
 40
1
 40
1
 10
264.209483
 20
515.828132
 30
0.0
 10
264.303252
 20
515.734364
 30
0.0
 10
264.355930
 20
515.607187
 30
0.0
 10
264.355930
 20
515.474579
 30
0.0
  0
LWPOLYLINE
  5
102
100
AcDbEntity
  8
Layer_1
 62
7
100
AcDbPolyline
 90
2
 70
0
 10
53.355930
 20
515.974579
 30
0.0
 10
263.855930
 20
515.974579
 30
0.0
  0
SPLINE
  5
103
100
AcDbEntity
  8
Layer_1
 62
7
100
AcDbSpline
 70
8
 71
3
 72
8
 73
4
 74
0
 40
0
 40
0
 40
0
 40
0
 40
1
 40
1
 40
1
 40
1
 10
264.355930
 20
218.974579
 30
0.0
 10
264.355930
 20
218.841971
 30
0.0
 10
264.303252
 20
218.714794
 30
0.0
 10
264.209483
 20
218.621026
 30
0.0
  0
SPLINE
  5
104
100
AcDbEntity
  8
Layer_1
 62
7
100
AcDbSpline
 70
8
 71
3
 72
8
 73
4
 74
0
 40
0
 40
0
 40
0
 40
0
 40
1
 40
1
 40
1
 40
1
 10
264.209483
 20
218.621026
 30
0.0
 10
264.115715
 20
218.527257
 30
0.0
 10
263.988538
 20
218.474579
 30
0.0
 10
263.855930
 20
218.474579
 30
0.0
  0
LWPOLYLINE
  5
105
100
AcDbEntity
  8
Layer_1
 62
7
100
AcDbPolyline
 90
2
 70
0
 10
264.355930
 20
515.474579
 30
0.0
 10
264.355930
 20
218.974579
 30
0.0
  0
SPLINE
  5
106
100
AcDbEntity
  8
Layer_1
 62
7
100
AcDbSpline
 70
8
 71
3
 72
8
 73
4
 74
0
 40
0
 40
0
 40
0
 40
0
 40
1
 40
1
 40
1
 40
1
 10
53.355930
 20
218.474579
 30
0.0
 10
53.223322
 20
218.474579
 30
0.0
 10
53.096145
 20
218.527257
 30
0.0
 10
53.002377
 20
218.621026
 30
0.0
  0
SPLINE
  5
107
100
AcDbEntity
  8
Layer_1
 62
7
100
AcDbSpline
 70
8
 71
3
 72
8
 73
4
 74
0
 40
0
 40
0
 40
0
 40
0
 40
1
 40
1
 40
1
 40
1
 10
53.002377
 20
218.621026
 30
0.0
 10
52.908608
 20
218.714794
 30
0.0
 10
52.855930
 20
218.841971
 30
0.0
 10
52.855930
 20
218.974579
 30
0.0
  0
LWPOLYLINE
  5
108
100
AcDbEntity
  8
Layer_1
 62
7
100
AcDbPolyline
 90
2
 70
0
 10
263.855930
 20
218.474579
 30
0.0
 10
53.355930
 20
218.474579
 30
0.0
  0
SPLINE
  5
109
100
AcDbEntity
  8
Layer_1
 62
7
100
AcDbSpline
 70
8
 71
3
 72
8
 73
4
 74
0
 40
0
 40
0
 40
0
 40
0
 40
1
 40
1
 40
1
 40
1
 10
52.855930
 20
515.474579
 30
0.0
 10
52.855930
 20
515.607187
 30
0.0
 10
52.908608
 20
515.734364
 30
0.0
 10
53.002377
 20
515.828132
 30
0.0
  0
SPLINE
  5
10a
100
AcDbEntity
  8
Layer_1
 62
7
100
AcDbSpline
 70
8
 71
3
 72
8
 73
4
 74
0
 40
0
 40
0
 40
0
 40
0
 40
1
 40
1
 40
1
 40
1
 10
53.002377
 20
515.828132
 30
0.0
 10
53.096145
 20
515.921901
 30
0.0
 10
53.223322
 20
515.974579
 30
0.0
 10
53.355930
 20
515.974579
 30
0.0
  0
LWPOLYLINE
  5
10b
100
AcDbEntity
  8
Layer_1
 62
7
100
AcDbPolyline
 90
2
 70
0
 10
52.855930
 20
218.974579
 30
0.0
 10
52.855930
 20
515.474579
 30
0.0
  0
SPLINE
  5
10c
100
AcDbEntity
  8
Layer_1
 62
7
100
AcDbSpline
 70
8
 71
3
 72
8
 73
4
 74
0
 40
0
 40
0
 40
0
 40
0
 40
1
 40
1
 40
1
 40
1
 10
73.119049
 20
443.706070
 30
0.0
 10
73.119049
 20
442.379988
 30
0.0
 10
72.592265
 20
441.108218
 30
0.0
 10
71.654583
 20
440.170536
 30
0.0
  0
SPLINE
  5
10d
100
AcDbEntity
  8
Layer_1
 62
7
100
AcDbSpline
 70
8
 71
3
 72
8
 73
4
 74
0
 40
0
 40
0
 40
0
 40
0
 40
1
 40
1
 40
1
 40
1
 10
71.654583
 20
440.170536
 30
0.0
 10
70.716901
 20
439.232854
 30
0.0
 10
69.445131
 20
438.706070
 30
0.0
 10
68.119049
 20
438.706070
 30
0.0
  0
SPLINE
  5
10e
100
AcDbEntity
  8
Layer_1
 62
7
100
AcDbSpline
 70
8
 71
3
 72
8
 73
4
 74
0
 40
0
 40
0
 40
0
 40
0
 40
1
 40
1
 40
1
 40
1
 10
68.119049
 20
438.706070
 30
0.0
 10
66.792967
 20
438.706070
 30
0.0
 10
65.521197
 20
439.232854
 30
0.0
 10
64.583515
 20
440.170536
 30
0.0
  0
SPLINE
  5
10f
100
AcDbEntity
  8
Layer_1
 62
7
100
AcDbSpline
 70
8
 71
3
 72
8
 73
4
 74
0
 40
0
 40
0
 40
0
 40
0
 40
1
 40
1
 40
1
 40
1
 10
64.583515
 20
440.170536
 30
0.0
 10
63.645833
 20
441.108218
 30
0.0
 10
63.119049
 20
442.379988
 30
0.0
 10
63.119049
 20
443.706070
 30
0.0
  0
SPLINE
  5
110
100
AcDbEntity
  8
Layer_1
 62
7
100
AcDbSpline
 70
8
 71
3
 72
8
 73
4
 74
0
 40
0
 40
0
 40
0
 40
0
 40
1
 40
1
 40
1
 40
1
 10
63.119049
 20
443.706070
 30
0.0
 10
63.119049
 20
445.032152
 30
0.0
 10
63.645833
 20
446.303922
 30
0.0
 10
64.583515
 20
447.241604
 30
0.0
  0
SPLINE
  5
111
100
AcDbEntity
  8
Layer_1
 62
7
100
AcDbSpline
 70
8
 71
3
 72
8
 73
4
 74
0
 40
0
 40
0
 40
0
 40
0
 40
1
 40
1
 40
1
 40
1
 10
64.583515
 20
447.241604
 30
0.0
 10
65.521197
 20
448.179286
 30
0.0
 10
66.792967
 20
448.706070
 30
0.0
 10
68.119049
 20
448.706070
 30
0.0
  0
SPLINE
  5
112
100
AcDbEntity
  8
Layer_1
 62
7
100
AcDbSpline
 70
8
 71
3
 72
8
 73
4
 74
0
 40
0
 40
0
 40
0
 40
0
 40
1
 40
1
 40
1
 40
1
 10
68.119049
 20
448.706070
 30
0.0
 10
69.445131
 20
448.706070
 30
0.0
 10
70.716901
 20
448.179286
 30
0.0
 10
71.654583
 20
447.241604
 30
0.0
  0
SPLINE
  5
113
100
AcDbEntity
  8
Layer_1
 62
7
100
AcDbSpline
 70
8
 71
3
 72
8
 73
4
 74
0
 40
0
 40
0
 40
0
 40
0
 40
1
 40
1
 40
1
 40
1
 10
71.654583
 20
447.241604
 30
0.0
 10
72.592265
 20
446.303922
 30
0.0
 10
73.119049
 20
445.032152
 30
0.0
 10
73.119049
 20
443.706070
 30
0.0
  0
LWPOLYLINE
  5
114
100
AcDbEntity
  8
Layer_1
 62
7
100
AcDbPolyline
 90
1
 70
1
 10
53.355930
 20
515.974579
 30
0.0
  0
SPLINE
  5
115
100
AcDbEntity
  8
Layer_1
 62
7
100
AcDbSpline
 70
8
 71
3
 72
8
 73
4
 74
0
 40
0
 40
0
 40
0
 40
0
 40
1
 40
1
 40
1
 40
1
 10
88.994042
 20
443.706070
 30
0.0
 10
88.994042
 20
442.379988
 30
0.0
 10
88.467258
 20
441.108218
 30
0.0
 10
87.529576
 20
440.170536
 30
0.0
  0
SPLINE
  5
116
100
AcDbEntity
  8
Layer_1
 62
7
100
AcDbSpline
 70
8
 71
3
 72
8
 73
4
 74
0
 40
0
 40
0
 40
0
 40
0
 40
1
 40
1
 40
1
 40
1
 10
87.529576
 20
440.170536
 30
0.0
 10
86.591894
 20
439.232854
 30
0.0
 10
85.320124
 20
438.706070
 30
0.0
 10
83.994042
 20
438.706070
 30
0.0
  0
SPLINE
  5
117
100
AcDbEntity
  8
Layer_1
 62
7
100
AcDbSpline
 70
8
 71
3
 72
8
 73
4
 74
0
 40
0
 40
0
 40
0
 40
0
 40
1
 40
1
 40
1
 40
1
 10
83.994042
 20
438.706070
 30
0.0
 10
82.667960
 20
438.706070
 30
0.0
 10
81.396190
 20
439.232854
 30
0.0
 10
80.458508
 20
440.170536
 30
0.0
  0
SPLINE
  5
118
100
AcDbEntity
  8
Layer_1
 62
7
100
AcDbSpline
 70
8
 71
3
 72
8
 73
4
 74
0
 40
0
 40
0
 40
0
 40
0
 40
1
 40
1
 40
1
 40
1
 10
80.458508
 20
440.170536
 30
0.0
 10
79.520826
 20
441.108218
 30
0.0
 10
78.994042
 20
442.379988
 30
0.0
 10
78.994042
 20
443.706070
 30
0.0
  0
SPLINE
  5
119
100
AcDbEntity
  8
Layer_1
 62
7
100
AcDbSpline
 70
8
 71
3
 72
8
 73
4
 74
0
 40
0
 40
0
 40
0
 40
0
 40
1
 40
1
 40
1
 40
1
 10
78.994042
 20
443.706070
 30
0.0
 10
78.994042
 20
445.032152
 30
0.0
 10
79.520826
 20
446.303922
 30
0.0
 10
80.458508
 20
447.241604
 30
0.0
  0
SPLINE
  5
11a
100
AcDbEntity
  8
Layer_1
 62
7
100
AcDbSpline
 70
8
 71
3
 72
8
 73
4
 74
0
 40
0
 40
0
 40
0
 40
0
 40
1
 40
1
 40
1
 40
1
 10
80.458508
 20
447.241604
 30
0.0
 10
81.396190
 20
448.179286
 30
0.0
 10
82.667960
 20
448.706070
 30
0.0
 10
83.994042
 20
448.706070
 30
0.0
  0
SPLINE
  5
11b
100
AcDbEntity
  8
Layer_1
 62
7
100
AcDbSpline
 70
8
 71
3
 72
8
 73
4
 74
0
 40
0
 40
0
 40
0
 40
0
 40
1
 40
1
 40
1
 40
1
 10
83.994042
 20
448.706070
 30
0.0
 10
85.320124
 20
448.706070
 30
0.0
 10
86.591894
 20
448.179286
 30
0.0
 10
87.529576
 20
447.241604
 30
0.0
  0
SPLINE
  5
11c
100
AcDbEntity
  8
Layer_1
 62
7
100
AcDbSpline
 70
8
 71
3
 72
8
 73
4
 74
0
 40
0
 40
0
 40
0
 40
0
 40
1
 40
1
 40
1
 40
1
 10
87.529576
 20
447.241604
 30
0.0
 10
88.467258
 20
446.303922
 30
0.0
 10
88.994042
 20
445.032152
 30
0.0
 10
88.994042
 20
443.706070
 30
0.0
  0
LWPOLYLINE
  5
11d
100
AcDbEntity
  8
Layer_1
 62
7
100
AcDbPolyline
 90
1
 70
1
 10
73.119049
 20
443.706070
 30
0.0
  0
SPLINE
  5
11e
100
AcDbEntity
  8
Layer_1
 62
1
100
AcDbSpline
 70
8
 71
3
 72
8
 73
4
 74
0
 40
0
 40
0
 40
0
 40
0
 40
1
 40
1
 40
1
 40
1
 10
68.903322
 20
448.644160
 30
0.0
 10
71.331594
 20
448.258519
 30
0.0
 10
73.119127
 20
446.164664
 30
0.0
 10
73.119085
 20
443.705960
 30
0.0
  0
SPLINE
  5
11f
100
AcDbEntity
  8
Layer_1
 62
1
100
AcDbSpline
 70
8
 71
3
 72
8
 73
4
 74
0
 40
0
 40
0
 40
0
 40
0
 40
1
 40
1
 40
1
 40
1
 10
73.119085
 20
443.705960
 30
0.0
 10
73.118914
 20
440.944575
 30
0.0
 10
70.880258
 20
438.706153
 30
0.0
 10
68.118873
 20
438.706270
 30
0.0
  0
SPLINE
  5
120
100
AcDbEntity
  8
Layer_1
 62
1
100
AcDbSpline
 70
8
 71
3
 72
8
 73
4
 74
0
 40
0
 40
0
 40
0
 40
0
 40
1
 40
1
 40
1
 40
1
 10
68.118873
 20
438.706270
 30
0.0
 10
68.040093
 20
438.707409
 30
0.0
 10
67.961350
 20
438.710410
 30
0.0
 10
67.882712
 20
438.715270
 30
0.0
  0
LWPOLYLINE
  5
121
100
AcDbEntity
  8
Layer_1
 62
7
100
AcDbPolyline
 90
1
 70
1
 10
88.994042
 20
443.706070
 30
0.0
  0
SPLINE
  5
122
100
AcDbEntity
  8
Layer_1
 62
1
100
AcDbSpline
 70
8
 71
3
 72
8
 73
4
 74
0
 40
0
 40
0
 40
0
 40
0
 40
1
 40
1
 40
1
 40
1
 10
84.649130
 20
438.751960
 30
0.0
 10
84.431944
 20
438.722448
 30
0.0
 10
84.213053
 20
438.707248
 30
0.0
 10
83.993873
 20
438.706460
 30
0.0
  0
SPLINE
  5
123
100
AcDbEntity
  8
Layer_1
 62
1
100
AcDbSpline
 70
8
 71
3
 72
8
 73
4
 74
0
 40
0
 40
0
 40
0
 40
0
 40
1
 40
1
 40
1
 40
1
 10
83.993873
 20
438.706460
 30
0.0
 10
81.232689
 20
438.706628
 30
0.0
 10
78.994349
 20
440.944966
 30
0.0
 10
78.994178
 20
443.706150
 30
0.0
  0
SPLINE
  5
124
100
AcDbEntity
  8
Layer_1
 62
1
100
AcDbSpline
 70
8
 71
3
 72
8
 73
4
 74
0
 40
0
 40
0
 40
0
 40
0
 40
1
 40
1
 40
1
 40
1
 10
78.994178
 20
443.706150
 30
0.0
 10
78.994619
 20
446.166860
 30
0.0
 10
80.785406
 20
448.261446
 30
0.0
 10
83.216143
 20
448.644350
 30
0.0
  0
LWPOLYLINE
  5
125
100
AcDbEntity
  8
Layer_1
 62
1
100
AcDbPolyline
 90
4
 70
0
 10
67.882712
 20
438.715270
 30
0.0
 10
67.882712
 20
438.644470
 30
0.0
 10
84.649130
 20
438.644470
 30
0.0
 10
84.649130
 20
438.751960
 30
0.0
  0
SPLINE
  5
126
100
AcDbEntity
  8
Layer_1
 62
7
100
AcDbSpline
 70
8
 71
3
 72
8
 73
4
 74
0
 40
0
 40
0
 40
0
 40
0
 40
1
 40
1
 40
1
 40
1
 10
238.218049
 20
443.706070
 30
0.0
 10
238.218049
 20
442.379988
 30
0.0
 10
237.691265
 20
441.108218
 30
0.0
 10
236.753583
 20
440.170536
 30
0.0
  0
SPLINE
  5
127
100
AcDbEntity
  8
Layer_1
 62
7
100
AcDbSpline
 70
8
 71
3
 72
8
 73
4
 74
0
 40
0
 40
0
 40
0
 40
0
 40
1
 40
1
 40
1
 40
1
 10
236.753583
 20
440.170536
 30
0.0
 10
235.815901
 20
439.232854
 30
0.0
 10
234.544131
 20
438.706070
 30
0.0
 10
233.218049
 20
438.706070
 30
0.0
  0
SPLINE
  5
128
100
AcDbEntity
  8
Layer_1
 62
7
100
AcDbSpline
 70
8
 71
3
 72
8
 73
4
 74
0
 40
0
 40
0
 40
0
 40
0
 40
1
 40
1
 40
1
 40
1
 10
233.218049
 20
438.706070
 30
0.0
 10
231.891967
 20
438.706070
 30
0.0
 10
230.620197
 20
439.232854
 30
0.0
 10
229.682515
 20
440.170536
 30
0.0
  0
SPLINE
  5
129
100
AcDbEntity
  8
Layer_1
 62
7
100
AcDbSpline
 70
8
 71
3
 72
8
 73
4
 74
0
 40
0
 40
0
 40
0
 40
0
 40
1
 40
1
 40
1
 40
1
 10
229.682515
 20
440.170536
 30
0.0
 10
228.744833
 20
441.108218
 30
0.0
 10
228.218049
 20
442.379988
 30
0.0
 10
228.218049
 20
443.706070
 30
0.0
  0
SPLINE
  5
12a
100
AcDbEntity
  8
Layer_1
 62
7
100
AcDbSpline
 70
8
 71
3
 72
8
 73
4
 74
0
 40
0
 40
0
 40
0
 40
0
 40
1
 40
1
 40
1
 40
1
 10
228.218049
 20
443.706070
 30
0.0
 10
228.218049
 20
445.032152
 30
0.0
 10
228.744833
 20
446.303922
 30
0.0
 10
229.682515
 20
447.241604
 30
0.0
  0
SPLINE
  5
12b
100
AcDbEntity
  8
Layer_1
 62
7
100
AcDbSpline
 70
8
 71
3
 72
8
 73
4
 74
0
 40
0
 40
0
 40
0
 40
0
 40
1
 40
1
 40
1
 40
1
 10
229.682515
 20
447.241604
 30
0.0
 10
230.620197
 20
448.179286
 30
0.0
 10
231.891967
 20
448.706070
 30
0.0
 10
233.218049
 20
448.706070
 30
0.0
  0
SPLINE
  5
12c
100
AcDbEntity
  8
Layer_1
 62
7
100
AcDbSpline
 70
8
 71
3
 72
8
 73
4
 74
0
 40
0
 40
0
 40
0
 40
0
 40
1
 40
1
 40
1
 40
1
 10
233.218049
 20
448.706070
 30
0.0
 10
234.544131
 20
448.706070
 30
0.0
 10
235.815901
 20
448.179286
 30
0.0
 10
236.753583
 20
447.241604
 30
0.0
  0
SPLINE
  5
12d
100
AcDbEntity
  8
Layer_1
 62
7
100
AcDbSpline
 70
8
 71
3
 72
8
 73
4
 74
0
 40
0
 40
0
 40
0
 40
0
 40
1
 40
1
 40
1
 40
1
 10
236.753583
 20
447.241604
 30
0.0
 10
237.691265
 20
446.303922
 30
0.0
 10
238.218049
 20
445.032152
 30
0.0
 10
238.218049
 20
443.706070
 30
0.0
  0
LWPOLYLINE
  5
12e
100
AcDbEntity
  8
Layer_1
 62
1
100
AcDbPolyline
 90
2
 70
0
 10
83.216143
 20
448.644350
 30
0.0
 10
68.903322
 20
448.644160
 30
0.0
  0
SPLINE
  5
12f
100
AcDbEntity
  8
Layer_1
 62
7
100
AcDbSpline
 70
8
 71
3
 72
8
 73
4
 74
0
 40
0
 40
0
 40
0
 40
0
 40
1
 40
1
 40
1
 40
1
 10
254.093042
 20
443.706070
 30
0.0
 10
254.093042
 20
442.379988
 30
0.0
 10
253.566258
 20
441.108218
 30
0.0
 10
252.628576
 20
440.170536
 30
0.0
  0
SPLINE
  5
130
100
AcDbEntity
  8
Layer_1
 62
7
100
AcDbSpline
 70
8
 71
3
 72
8
 73
4
 74
0
 40
0
 40
0
 40
0
 40
0
 40
1
 40
1
 40
1
 40
1
 10
252.628576
 20
440.170536
 30
0.0
 10
251.690894
 20
439.232854
 30
0.0
 10
250.419124
 20
438.706070
 30
0.0
 10
249.093042
 20
438.706070
 30
0.0
  0
SPLINE
  5
131
100
AcDbEntity
  8
Layer_1
 62
7
100
AcDbSpline
 70
8
 71
3
 72
8
 73
4
 74
0
 40
0
 40
0
 40
0
 40
0
 40
1
 40
1
 40
1
 40
1
 10
249.093042
 20
438.706070
 30
0.0
 10
247.766960
 20
438.706070
 30
0.0
 10
246.495190
 20
439.232854
 30
0.0
 10
245.557508
 20
440.170536
 30
0.0
  0
SPLINE
  5
132
100
AcDbEntity
  8
Layer_1
 62
7
100
AcDbSpline
 70
8
 71
3
 72
8
 73
4
 74
0
 40
0
 40
0
 40
0
 40
0
 40
1
 40
1
 40
1
 40
1
 10
245.557508
 20
440.170536
 30
0.0
 10
244.619826
 20
441.108218
 30
0.0
 10
244.093042
 20
442.379988
 30
0.0
 10
244.093042
 20
443.706070
 30
0.0
  0
SPLINE
  5
133
100
AcDbEntity
  8
Layer_1
 62
7
100
AcDbSpline
 70
8
 71
3
 72
8
 73
4
 74
0
 40
0
 40
0
 40
0
 40
0
 40
1
 40
1
 40
1
 40
1
 10
244.093042
 20
443.706070
 30
0.0
 10
244.093042
 20
445.032152
 30
0.0
 10
244.619826
 20
446.303922
 30
0.0
 10
245.557508
 20
447.241604
 30
0.0
  0
SPLINE
  5
134
100
AcDbEntity
  8
Layer_1
 62
7
100
AcDbSpline
 70
8
 71
3
 72
8
 73
4
 74
0
 40
0
 40
0
 40
0
 40
0
 40
1
 40
1
 40
1
 40
1
 10
245.557508
 20
447.241604
 30
0.0
 10
246.495190
 20
448.179286
 30
0.0
 10
247.766960
 20
448.706070
 30
0.0
 10
249.093042
 20
448.706070
 30
0.0
  0
SPLINE
  5
135
100
AcDbEntity
  8
Layer_1
 62
7
100
AcDbSpline
 70
8
 71
3
 72
8
 73
4
 74
0
 40
0
 40
0
 40
0
 40
0
 40
1
 40
1
 40
1
 40
1
 10
249.093042
 20
448.706070
 30
0.0
 10
250.419124
 20
448.706070
 30
0.0
 10
251.690894
 20
448.179286
 30
0.0
 10
252.628576
 20
447.241604
 30
0.0
  0
SPLINE
  5
136
100
AcDbEntity
  8
Layer_1
 62
7
100
AcDbSpline
 70
8
 71
3
 72
8
 73
4
 74
0
 40
0
 40
0
 40
0
 40
0
 40
1
 40
1
 40
1
 40
1
 10
252.628576
 20
447.241604
 30
0.0
 10
253.566258
 20
446.303922
 30
0.0
 10
254.093042
 20
445.032152
 30
0.0
 10
254.093042
 20
443.706070
 30
0.0
  0
LWPOLYLINE
  5
137
100
AcDbEntity
  8
Layer_1
 62
7
100
AcDbPolyline
 90
1
 70
1
 10
238.218049
 20
443.706070
 30
0.0
  0
SPLINE
  5
138
100
AcDbEntity
  8
Layer_1
 62
1
100
AcDbSpline
 70
8
 71
3
 72
8
 73
4
 74
0
 40
0
 40
0
 40
0
 40
0
 40
1
 40
1
 40
1
 40
1
 10
234.002322
 20
448.644160
 30
0.0
 10
236.430594
 20
448.258519
 30
0.0
 10
238.218127
 20
446.164664
 30
0.0
 10
238.218085
 20
443.705960
 30
0.0
  0
SPLINE
  5
139
100
AcDbEntity
  8
Layer_1
 62
1
100
AcDbSpline
 70
8
 71
3
 72
8
 73
4
 74
0
 40
0
 40
0
 40
0
 40
0
 40
1
 40
1
 40
1
 40
1
 10
238.218085
 20
443.705960
 30
0.0
 10
238.217914
 20
440.944575
 30
0.0
 10
235.979258
 20
438.706153
 30
0.0
 10
233.217873
 20
438.706270
 30
0.0
  0
SPLINE
  5
13a
100
AcDbEntity
  8
Layer_1
 62
1
100
AcDbSpline
 70
8
 71
3
 72
8
 73
4
 74
0
 40
0
 40
0
 40
0
 40
0
 40
1
 40
1
 40
1
 40
1
 10
233.217873
 20
438.706270
 30
0.0
 10
233.139093
 20
438.707409
 30
0.0
 10
233.060350
 20
438.710410
 30
0.0
 10
232.981712
 20
438.715270
 30
0.0
  0
LWPOLYLINE
  5
13b
100
AcDbEntity
  8
Layer_1
 62
7
100
AcDbPolyline
 90
1
 70
1
 10
254.093042
 20
443.706070
 30
0.0
  0
SPLINE
  5
13c
100
AcDbEntity
  8
Layer_1
 62
1
100
AcDbSpline
 70
8
 71
3
 72
8
 73
4
 74
0
 40
0
 40
0
 40
0
 40
0
 40
1
 40
1
 40
1
 40
1
 10
249.748130
 20
438.751960
 30
0.0
 10
249.530944
 20
438.722448
 30
0.0
 10
249.312053
 20
438.707248
 30
0.0
 10
249.092873
 20
438.706460
 30
0.0
  0
SPLINE
  5
13d
100
AcDbEntity
  8
Layer_1
 62
1
100
AcDbSpline
 70
8
 71
3
 72
8
 73
4
 74
0
 40
0
 40
0
 40
0
 40
0
 40
1
 40
1
 40
1
 40
1
 10
249.092873
 20
438.706460
 30
0.0
 10
246.331689
 20
438.706628
 30
0.0
 10
244.093349
 20
440.944966
 30
0.0
 10
244.093178
 20
443.706150
 30
0.0
  0
SPLINE
  5
13e
100
AcDbEntity
  8
Layer_1
 62
1
100
AcDbSpline
 70
8
 71
3
 72
8
 73
4
 74
0
 40
0
 40
0
 40
0
 40
0
 40
1
 40
1
 40
1
 40
1
 10
244.093178
 20
443.706150
 30
0.0
 10
244.093619
 20
446.166860
 30
0.0
 10
245.884406
 20
448.261446
 30
0.0
 10
248.315143
 20
448.644350
 30
0.0
  0
LWPOLYLINE
  5
13f
100
AcDbEntity
  8
Layer_1
 62
1
100
AcDbPolyline
 90
4
 70
0
 10
232.981712
 20
438.715270
 30
0.0
 10
232.981712
 20
438.644470
 30
0.0
 10
249.748130
 20
438.644470
 30
0.0
 10
249.748130
 20
438.751960
 30
0.0
  0
LWPOLYLINE
  5
140
100
AcDbEntity
  8
Layer_1
 62
1
100
AcDbPolyline
 90
2
 70
0
 10
248.315143
 20
448.644350
 30
0.0
 10
234.002322
 20
448.644160
 30
0.0
  0
LWPOLYLINE
  5
141
100
AcDbEntity
  8
Layer_1
 62
7
100
AcDbPolyline
 90
6
 70
1
 10
179.064680
 20
438.644470
 30
0.0
 10
158.605940
 20
438.644470
 30
0.0
 10
138.147190
 20
438.644470
 30
0.0
 10
148.376560
 20
456.362260
 30
0.0
 10
158.605940
 20
474.080060
 30
0.0
 10
168.835310
 20
456.362260
 30
0.0
  0
SPLINE
  5
142
100
AcDbEntity
  8
Layer_1
 62
1
100
AcDbSpline
 70
8
 71
3
 72
8
 73
4
 74
0
 40
0
 40
0
 40
0
 40
0
 40
1
 40
1
 40
1
 40
1
 10
169.813000
 20
482.374450
 30
0.0
 10
170.090000
 20
482.374450
 30
0.0
 10
170.313000
 20
482.151450
 30
0.0
 10
170.313000
 20
481.874450
 30
0.0
  0
LWPOLYLINE
  5
143
100
AcDbEntity
  8
Layer_1
 62
1
100
AcDbPolyline
 90
2
 70
0
 10
147.398860
 20
482.374450
 30
0.0
 10
169.813000
 20
482.374450
 30
0.0
  0
SPLINE
  5
144
100
AcDbEntity
  8
Layer_1
 62
1
100
AcDbSpline
 70
8
 71
3
 72
8
 73
4
 74
0
 40
0
 40
0
 40
0
 40
0
 40
1
 40
1
 40
1
 40
1
 10
170.313000
 20
457.826770
 30
0.0
 10
170.313000
 20
457.549770
 30
0.0
 10
170.090000
 20
457.326770
 30
0.0
 10
169.813000
 20
457.326770
 30
0.0
  0
LWPOLYLINE
  5
145
100
AcDbEntity
  8
Layer_1
 62
1
100
AcDbPolyline
 90
2
 70
0
 10
170.313000
 20
481.874450
 30
0.0
 10
170.313000
 20
457.826770
 30
0.0
  0
SPLINE
  5
146
100
AcDbEntity
  8
Layer_1
 62
1
100
AcDbSpline
 70
8
 71
3
 72
8
 73
4
 74
0
 40
0
 40
0
 40
0
 40
0
 40
1
 40
1
 40
1
 40
1
 10
147.398860
 20
457.326770
 30
0.0
 10
147.121870
 20
457.326770
 30
0.0
 10
146.898860
 20
457.549770
 30
0.0
 10
146.898860
 20
457.826770
 30
0.0
  0
LWPOLYLINE
  5
147
100
AcDbEntity
  8
Layer_1
 62
1
100
AcDbPolyline
 90
2
 70
0
 10
169.813000
 20
457.326770
 30
0.0
 10
147.398860
 20
457.326770
 30
0.0
  0
SPLINE
  5
148
100
AcDbEntity
  8
Layer_1
 62
1
100
AcDbSpline
 70
8
 71
3
 72
8
 73
4
 74
0
 40
0
 40
0
 40
0
 40
0
 40
1
 40
1
 40
1
 40
1
 10
146.898860
 20
481.874450
 30
0.0
 10
146.898860
 20
482.151450
 30
0.0
 10
147.121870
 20
482.374450
 30
0.0
 10
147.398860
 20
482.374450
 30
0.0
  0
LWPOLYLINE
  5
149
100
AcDbEntity
  8
Layer_1
 62
1
100
AcDbPolyline
 90
2
 70
0
 10
146.898860
 20
457.826770
 30
0.0
 10
146.898860
 20
481.874450
 30
0.0
  0
LWPOLYLINE
  5
14a
100
AcDbEntity
  8
Layer_1
 62
1
100
AcDbPolyline
 90
1
 70
1
 10
147.398860
 20
482.374450
 30
0.0
  0
LWPOLYLINE
  5
14b
100
AcDbEntity
  8
Layer_1
 62
5
100
AcDbPolyline
 90
2
 70
0
 10
52.855930
 20
485.905514
 30
0.0
 10
62.855930
 20
485.905514
 30
0.0
  0
LWPOLYLINE
  5
14c
100
AcDbEntity
  8
Layer_1
 62
5
100
AcDbPolyline
 90
2
 70
0
 10
254.355930
 20
485.905514
 30
0.0
 10
264.355930
 20
485.905514
 30
0.0
  0
LWPOLYLINE
  5
14d
100
AcDbEntity
  8
Layer_1
 62
5
100
AcDbPolyline
 90
2
 70
0
 10
52.855930
 20
248.543514
 30
0.0
 10
62.855930
 20
248.543514
 30
0.0
  0
LWPOLYLINE
  5
14e
100
AcDbEntity
  8
Layer_1
 62
5
100
AcDbPolyline
 90
2
 70
0
 10
254.355930
 20
248.543514
 30
0.0
 10
264.355930
 20
248.543514
 30
0.0
  0
ENDSEC
  0
SECTION
  2
OBJECTS
  0
DICTIONARY
  5
C
330
0
100
AcDbDictionary
  3
ACAD_GROUP
350
D
  3
ACAD_MLINESTYLE
350
17
  0
DICTIONARY
  5
D
330
C
100
AcDbDictionary
  0
DICTIONARY
  5
1A
330
C
100
AcDbDictionary
  0
DICTIONARY
  5
17
330
C
100
AcDbDictionary
  3
STANDARD
350
18
  0
DICTIONARY
  5
19
330
C
100
AcDbDictionary
  0
ENDSEC
  0
EOF
