  0
SECTION
  2
HEADER
  9
$ACADVER
  1
AC1009
  9
$DWGCODEPAGE
  3
ansi_1252
  9
$INSBASE
 10
0.0
 20
0.0
 30
0.0
  9
$EXTMIN
 10
203.4015148439445
 20
-177.9293614453642
 30
-0.0000000000003356
  9
$EXTMAX
 10
479.1224512558919
 20
105.0066195087178
 30
0.0984545733122246
  9
$LIMMIN
 10
0.0
 20
0.0
  9
$LIMMAX
 10
12.0
 20
9.0
  9
$ORTHOMODE
 70
     0
  9
$REGENMODE
 70
     1
  9
$FILLMODE
 70
     1
  9
$QTEXTMODE
 70
     0
  9
$MIRRTEXT
 70
     1
  9
$DRAGMODE
 70
     2
  9
$LTSCALE
 40
1.0
  9
$OSMODE
 70
    37
  9
$ATTMODE
 70
     1
  9
$TEXTSIZE
 40
0.2
  9
$TRACEWID
 40
0.05
  9
$TEXTSTYLE
  7
STANDARD
  9
$CLAYER
  8
LAYER_01
  9
$CELTYPE
  6
BYLAYER
  9
$CECOLOR
 62
   256
  9
$DIMSCALE
 40
1.0
  9
$DIMASZ
 40
0.18
  9
$DIMEXO
 40
0.0625
  9
$DIMDLI
 40
0.38
  9
$DIMRND
 40
0.0
  9
$DIMDLE
 40
0.0
  9
$DIMEXE
 40
0.18
  9
$DIMTP
 40
0.0
  9
$DIMTM
 40
0.0
  9
$DIMTXT
 40
0.18
  9
$DIMCEN
 40
0.09
  9
$DIMTSZ
 40
0.0
  9
$DIMTOL
 70
     0
  9
$DIMLIM
 70
     0
  9
$DIMTIH
 70
     1
  9
$DIMTOH
 70
     1
  9
$DIMSE1
 70
     0
  9
$DIMSE2
 70
     0
  9
$DIMTAD
 70
     0
  9
$DIMZIN
 70
     0
  9
$DIMBLK
  1

  9
$DIMASO
 70
     1
  9
$DIMSHO
 70
     1
  9
$DIMPOST
  1

  9
$DIMAPOST
  1

  9
$DIMALT
 70
     0
  9
$DIMALTD
 70
     2
  9
$DIMALTF
 40
25.4
  9
$DIMLFAC
 40
1.0
  9
$DIMTOFL
 70
     0
  9
$DIMTVP
 40
0.0
  9
$DIMTIX
 70
     0
  9
$DIMSOXD
 70
     0
  9
$DIMSAH
 70
     0
  9
$DIMBLK1
  1

  9
$DIMBLK2
  1

  9
$DIMSTYLE
  2
STANDARD_ACAD
  9
$DIMCLRD
 70
     0
  9
$DIMCLRE
 70
     0
  9
$DIMCLRT
 70
     0
  9
$DIMTFAC
 40
1.0
  9
$DIMGAP
 40
0.09
  9
$LUNITS
 70
     2
  9
$LUPREC
 70
     3
  9
$SKETCHINC
 40
0.1
  9
$FILLETRAD
 40
0.0
  9
$AUNITS
 70
     0
  9
$AUPREC
 70
     0
  9
$MENU
  1
.
  9
$ELEVATION
 40
0.0
  9
$PELEVATION
 40
0.0
  9
$THICKNESS
 40
0.0
  9
$LIMCHECK
 70
     0
  9
$CHAMFERA
 40
0.0
  9
$CHAMFERB
 40
0.0
  9
$SKPOLY
 70
     0
  9
$TDCREATE
 40
2459925.644559884
  9
$TDUPDATE
 40
2459925.644647535
  9
$TDINDWG
 40
0.0000000116
  9
$TDUSRTIMER
 40
0.0000000116
  9
$USRTIMER
 70
     1
  9
$ANGBASE
 50
0.0
  9
$ANGDIR
 70
     0
  9
$PDMODE
 70
     0
  9
$PDSIZE
 40
0.0
  9
$PLINEWID
 40
0.0
  9
$COORDS
 70
     1
  9
$SPLFRAME
 70
     0
  9
$SPLINETYPE
 70
     6
  9
$SPLINESEGS
 70
     8
  9
$ATTDIA
 70
     0
  9
$ATTREQ
 70
     1
  9
$HANDLING
 70
     1
  9
$HANDSEED
  5
768
  9
$SURFTAB1
 70
     6
  9
$SURFTAB2
 70
     6
  9
$SURFTYPE
 70
     6
  9
$SURFU
 70
     6
  9
$SURFV
 70
     6
  9
$UCSNAME
  2

  9
$UCSORG
 10
0.0
 20
0.0
 30
0.0
  9
$UCSXDIR
 10
1.0
 20
0.0
 30
0.0
  9
$UCSYDIR
 10
0.0
 20
1.0
 30
0.0
  9
$PUCSNAME
  2

  9
$PUCSORG
 10
0.0
 20
0.0
 30
0.0
  9
$PUCSXDIR
 10
1.0
 20
0.0
 30
0.0
  9
$PUCSYDIR
 10
0.0
 20
1.0
 30
0.0
  9
$USERI1
 70
     0
  9
$USERI2
 70
     0
  9
$USERI3
 70
     0
  9
$USERI4
 70
     0
  9
$USERI5
 70
     0
  9
$USERR1
 40
0.0
  9
$USERR2
 40
0.0
  9
$USERR3
 40
0.0
  9
$USERR4
 40
0.0
  9
$USERR5
 40
0.0
  9
$WORLDVIEW
 70
     1
  9
$SHADEDGE
 70
     3
  9
$SHADEDIF
 70
    70
  9
$TILEMODE
 70
     1
  9
$MAXACTVP
 70
    64
  9
$PLIMCHECK
 70
     0
  9
$PEXTMIN
 10
1.000000000000000E+20
 20
1.000000000000000E+20
 30
1.000000000000000E+20
  9
$PEXTMAX
 10
-1.000000000000000E+20
 20
-1.000000000000000E+20
 30
-1.000000000000000E+20
  9
$PLIMMIN
 10
0.0
 20
0.0
  9
$PLIMMAX
 10
12.0
 20
9.0
  9
$UNITMODE
 70
     0
  9
$VISRETAIN
 70
     1
  9
$PLINEGEN
 70
     0
  9
$PSLTSCALE
 70
     1
  0
ENDSEC
  0
SECTION
  2
TABLES
  0
TABLE
  2
VPORT
 70
     1
  0
VPORT
  2
*ACTIVE
 70
     0
 10
0.0
 20
0.0
 11
1.0
 21
1.0
 12
10.42990654205607
 22
4.5
 13
0.0
 23
0.0
 14
0.5
 24
0.5
 15
0.5
 25
0.5
 16
0.0
 26
0.0
 36
1.0
 17
0.0
 27
0.0
 37
0.0
 40
9.0
 41
1.972972972850329
 42
50.0
 43
0.0
 44
0.0
 50
0.0
 51
0.0
 71
     0
 72
   100
 73
     1
 74
     3
 75
     0
 76
     0
 77
     0
 78
     0
  0
ENDTAB
  0
TABLE
  2
LTYPE
 70
     1
  0
LTYPE
  2
CONTINUOUS
 70
     0
  3
Solid line
 72
    65
 73
     0
 40
0.0
  0
ENDTAB
  0
TABLE
  2
LAYER
 70
     2
  0
LAYER
  2
0
 70
     0
 62
     7
  6
CONTINUOUS
  0
LAYER
  2
LAYER_01
 70
     0
 62
    12
  6
CONTINUOUS
  0
ENDTAB
  0
TABLE
  2
STYLE
 70
     1
  0
STYLE
  2
STANDARD
 70
     0
 40
0.0
 41
1.0
 50
0.0
 71
     0
 42
0.2
  3
txt
  4

  0
ENDTAB
  0
TABLE
  2
VIEW
 70
     0
  0
ENDTAB
  0
TABLE
  2
UCS
 70
     0
  0
ENDTAB
  0
TABLE
  2
APPID
 70
     2
  0
APPID
  2
ACAD
 70
     0
  0
APPID
  2
RHINO
 70
     0
  0
ENDTAB
  0
TABLE
  2
DIMSTYLE
 70
     1
  0
DIMSTYLE
  2
STANDARD_ACAD
 70
     0
  3

  4

  5

  6

  7

 40
1.0
 41
0.18
 42
0.0625
 43
0.38
 44
0.18
 45
0.0
 46
0.0
 47
0.0
 48
0.0
140
0.18
141
0.09
142
0.0
143
25.4
144
1.0
145
0.0
146
1.0
147
0.09
 71
     0
 72
     0
 73
     1
 74
     1
 75
     0
 76
     0
 77
     0
 78
     0
170
     0
171
     2
172
     0
173
     0
174
     0
175
     0
176
     0
177
     0
178
     0
  0
ENDTAB
  0
ENDSEC
  0
SECTION
  2
BLOCKS
  0
BLOCK
  8
0
  2
$MODEL_SPACE
 70
     0
 10
0.0
 20
0.0
 30
0.0
  3
$MODEL_SPACE
  1

  0
ENDBLK
  5
21
  8
0
  0
BLOCK
 67
     1
  8
0
  2
$PAPER_SPACE
 70
     0
 10
0.0
 20
0.0
 30
0.0
  3
$PAPER_SPACE
  1

  0
ENDBLK
  5
1D
 67
     1
  8
0
  0
ENDSEC
  0
SECTION
  2
ENTITIES
  0
LINE
  5
60
  8
LAYER_01
 10
392.2514251292165
 20
-36.17348083820899
 30
0.0
 11
366.2514251292165
 21
-36.17348083820899
 31
0.0
  0
LINE
  5
61
  8
LAYER_01
 10
366.2514251292165
 20
-36.17348083820899
 30
0.0
 11
366.2868326078271
 21
-36.17432627545753
 31
0.0
  0
LINE
  5
62
  8
LAYER_01
 10
366.2868326078271
 20
-36.17432627545753
 30
0.0
 11
366.3227403780238
 21
-36.17685688502549
 31
0.0
  0
LINE
  5
63
  8
LAYER_01
 10
366.3227403780238
 20
-36.17685688502549
 30
0.0
 11
366.3591451913532
 21
-36.18106411364634
 31
0.0
  0
LINE
  5
64
  8
LAYER_01
 10
366.3591451913532
 20
-36.18106411364634
 30
0.0
 11
366.3960437993621
 21
-36.18693940805355
 31
0.0
  0
LINE
  5
65
  8
LAYER_01
 10
366.3960437993621
 20
-36.18693940805355
 30
0.0
 11
366.4334329535977
 21
-36.19447421498059
 31
0.0
  0
LINE
  5
66
  8
LAYER_01
 10
366.4334329535977
 20
-36.19447421498059
 30
0.0
 11
366.4713094056066
 21
-36.20365998116095
 31
0.0
  0
LINE
  5
67
  8
LAYER_01
 10
366.4713094056066
 20
-36.20365998116095
 30
0.0
 11
366.5096699069356
 21
-36.21448815332809
 31
0.0
  0
LINE
  5
68
  8
LAYER_01
 10
366.5096699069356
 20
-36.21448815332809
 30
0.0
 11
366.5485112091318
 21
-36.2269501782155
 31
0.0
  0
LINE
  5
69
  8
LAYER_01
 10
366.5485112091318
 20
-36.2269501782155
 30
0.0
 11
366.587830063742
 21
-36.24103750255664
 31
0.0
  0
LINE
  5
6A
  8
LAYER_01
 10
366.587830063742
 20
-36.24103750255664
 30
0.0
 11
366.6276232223129
 21
-36.25674157308498
 31
0.0
  0
LINE
  5
6B
  8
LAYER_01
 10
366.6276232223129
 20
-36.25674157308498
 30
0.0
 11
366.6678874363915
 21
-36.27405383653402
 31
0.0
  0
LINE
  5
6C
  8
LAYER_01
 10
366.6678874363915
 20
-36.27405383653402
 30
0.0
 11
366.7086194575246
 21
-36.29296573963721
 31
0.0
  0
LINE
  5
6D
  8
LAYER_01
 10
366.7086194575246
 20
-36.29296573963721
 30
0.0
 11
366.7498160372591
 21
-36.31346872912803
 31
0.0
  0
LINE
  5
6E
  8
LAYER_01
 10
366.7498160372591
 20
-36.31346872912803
 30
0.0
 11
366.7914739271418
 21
-36.33555425173997
 31
0.0
  0
LINE
  5
6F
  8
LAYER_01
 10
366.7914739271418
 20
-36.33555425173997
 30
0.0
 11
366.8335898787196
 21
-36.35921375420649
 31
0.0
  0
LINE
  5
70
  8
LAYER_01
 10
366.8335898787196
 20
-36.35921375420649
 30
0.0
 11
366.8761606435394
 21
-36.38443868326107
 31
0.0
  0
LINE
  5
71
  8
LAYER_01
 10
366.8761606435394
 20
-36.38443868326107
 30
0.0
 11
366.919182973148
 21
-36.41122048563718
 31
0.0
  0
LINE
  5
72
  8
LAYER_01
 10
366.919182973148
 20
-36.41122048563718
 30
0.0
 11
366.9626536190923
 21
-36.4395506080683
 31
0.0
  0
LINE
  5
73
  8
LAYER_01
 10
366.9626536190923
 20
-36.4395506080683
 30
0.0
 11
367.0065693329191
 21
-36.4694204972879
 31
0.0
  0
LINE
  5
74
  8
LAYER_01
 10
367.0065693329191
 20
-36.4694204972879
 30
0.0
 11
367.0509268661753
 21
-36.50082160002946
 31
0.0
  0
LINE
  5
75
  8
LAYER_01
 10
367.0509268661753
 20
-36.50082160002946
 30
0.0
 11
367.1409543971633
 21
-36.56818323301235
 31
0.0
  0
LINE
  5
76
  8
LAYER_01
 10
367.1409543971633
 20
-36.56818323301235
 30
0.0
 11
367.2327102244313
 21
-36.64156708088477
 31
0.0
  0
LINE
  5
77
  8
LAYER_01
 10
367.2327102244313
 20
-36.64156708088477
 30
0.0
 11
367.3261683603541
 21
-36.72090471751451
 31
0.0
  0
LINE
  5
78
  8
LAYER_01
 10
367.3261683603541
 20
-36.72090471751451
 30
0.0
 11
367.4213028173065
 21
-36.80612771676937
 31
0.0
  0
LINE
  5
79
  8
LAYER_01
 10
367.4213028173065
 20
-36.80612771676937
 30
0.0
 11
367.5180876076635
 21
-36.89716765251715
 31
0.0
  0
LINE
  5
7A
  8
LAYER_01
 10
367.5180876076635
 20
-36.89716765251715
 30
0.0
 11
367.6164967437998
 21
-36.99395609862565
 31
0.0
  0
LINE
  5
7B
  8
LAYER_01
 10
367.6164967437998
 20
-36.99395609862565
 30
0.0
 11
367.7165042380905
 21
-37.09642462896267
 31
0.0
  0
LINE
  5
7C
  8
LAYER_01
 10
367.7165042380905
 20
-37.09642462896267
 30
0.0
 11
367.8180841029103
 21
-37.204504817396
 31
0.0
  0
LINE
  5
7D
  8
LAYER_01
 10
367.8180841029103
 20
-37.204504817396
 30
0.0
 11
368.025856993637
 21
-37.43722646402279
 31
0.0
  0
LINE
  5
7E
  8
LAYER_01
 10
368.025856993637
 20
-37.43722646402279
 30
0.0
 11
368.239607514979
 21
-37.69157362944841
 31
0.0
  0
LINE
  5
7F
  8
LAYER_01
 10
368.239607514979
 20
-37.69157362944841
 30
0.0
 11
368.4591277659352
 21
-37.96699890461524
 31
0.0
  0
LINE
  5
80
  8
LAYER_01
 10
368.4591277659352
 20
-37.96699890461524
 30
0.0
 11
368.6842098455047
 21
-38.26295488046566
 31
0.0
  0
LINE
  5
81
  8
LAYER_01
 10
368.6842098455047
 20
-38.26295488046566
 30
0.0
 11
368.9146458526865
 21
-38.57889414794206
 31
0.0
  0
LINE
  5
82
  8
LAYER_01
 10
368.9146458526865
 20
-38.57889414794206
 30
0.0
 11
369.3907480458831
 21
-39.26853292154232
 31
0.0
  0
LINE
  5
83
  8
LAYER_01
 10
369.3907480458831
 20
-39.26853292154232
 30
0.0
 11
369.8857711375173
 21
-40.03153595295508
 31
0.0
  0
LINE
  5
84
  8
LAYER_01
 10
369.8857711375173
 20
-40.03153595295508
 30
0.0
 11
370.3980519195811
 21
-40.8635239697194
 31
0.0
  0
LINE
  5
85
  8
LAYER_01
 10
370.3980519195811
 20
-40.8635239697194
 30
0.0
 11
371.4677337229665
 21
-42.71693786945899
 31
0.0
  0
LINE
  5
86
  8
LAYER_01
 10
371.4677337229665
 20
-42.71693786945899
 30
0.0
 11
372.5864877919769
 21
-44.79374044107357
 31
0.0
  0
LINE
  5
87
  8
LAYER_01
 10
372.5864877919769
 20
-44.79374044107357
 30
0.0
 11
373.7410084625498
 21
-47.05889750487565
 31
0.0
  0
LINE
  5
88
  8
LAYER_01
 10
373.7410084625498
 20
-47.05889750487565
 30
0.0
 11
376.1041269521331
 21
-52.01413839029231
 31
0.0
  0
LINE
  5
89
  8
LAYER_01
 10
376.1041269521331
 20
-52.01413839029231
 30
0.0
 11
378.4506438792165
 21
-57.30238708820897
 31
0.0
  0
LINE
  5
8A
  8
LAYER_01
 10
378.4506438792165
 20
-57.30238708820897
 30
0.0
 11
380.6741139312998
 21
-62.64337016112562
 31
0.0
  0
LINE
  5
8B
  8
LAYER_01
 10
380.6741139312998
 20
-62.64337016112562
 30
0.0
 11
382.6680917958831
 21
-67.75681417154229
 31
0.0
  0
LINE
  5
8C
  8
LAYER_01
 10
382.6680917958831
 20
-67.75681417154229
 30
0.0
 11
384.350857437967
 21
-72.42169047362563
 31
0.0
  0
LINE
  5
8D
  8
LAYER_01
 10
384.350857437967
 20
-72.42169047362563
 30
0.0
 11
385.7395919325538
 21
-76.65394958820897
 31
0.0
  0
LINE
  5
8E
  8
LAYER_01
 10
385.7395919325538
 20
-76.65394958820897
 30
0.0
 11
386.8762016321467
 21
-80.52878682779232
 31
0.0
  0
LINE
  5
8F
  8
LAYER_01
 10
386.8762016321467
 20
-80.52878682779232
 30
0.0
 11
387.8025928892487
 21
-84.12139750487565
 31
0.0
  0
LINE
  5
90
  8
LAYER_01
 10
387.8025928892487
 20
-84.12139750487565
 30
0.0
 11
388.5606720563626
 21
-87.50697693195897
 31
0.0
  0
LINE
  5
91
  8
LAYER_01
 10
388.5606720563626
 20
-87.50697693195897
 30
0.0
 11
389.1923454859917
 21
-90.76072042154232
 31
0.0
  0
LINE
  5
92
  8
LAYER_01
 10
389.1923454859917
 20
-90.76072042154232
 30
0.0
 11
390.2441005428072
 21
-97.17348083820897
 31
0.0
  0
LINE
  5
93
  8
LAYER_01
 10
390.2441005428072
 20
-97.17348083820897
 30
0.0
 11
392.1053669432897
 21
-110.4229087335847
 31
0.0
  0
LINE
  5
94
  8
LAYER_01
 10
392.1053669432897
 20
-110.4229087335847
 30
0.0
 11
392.8026551634948
 21
-116.6715499851019
 31
0.0
  0
LINE
  5
95
  8
LAYER_01
 10
392.8026551634948
 20
-116.6715499851019
 30
0.0
 11
393.0528486710566
 21
-119.537602214988
 31
0.0
  0
LINE
  5
96
  8
LAYER_01
 10
393.0528486710566
 20
-119.537602214988
 30
0.0
 11
393.2221267835792
 21
-122.1689040012144
 31
0.0
  0
LINE
  5
97
  8
LAYER_01
 10
393.2221267835792
 20
-122.1689040012144
 30
0.0
 11
393.3059411189732
 21
-124.5335408934123
 31
0.0
  0
LINE
  5
98
  8
LAYER_01
 10
393.3059411189732
 20
-124.5335408934123
 30
0.0
 11
393.3177507102479
 21
-132.0384271141184
 31
0.0
  0
LINE
  5
99
  8
LAYER_01
 10
393.3177507102479
 20
-132.0384271141184
 30
0.0
 11
393.3447468980482
 21
-132.8457612131962
 31
0.0
  0
LINE
  5
9A
  8
LAYER_01
 10
393.3447468980482
 20
-132.8457612131962
 30
0.0
 11
393.3899208330363
 21
-133.6420156914229
 31
0.0
  0
LINE
  5
9B
  8
LAYER_01
 10
393.3899208330363
 20
-133.6420156914229
 30
0.0
 11
393.457024506776
 21
-134.4325851077774
 31
0.0
  0
LINE
  5
9C
  8
LAYER_01
 10
393.457024506776
 20
-134.4325851077774
 30
0.0
 11
393.5498099108308
 21
-135.2228640212383
 31
0.0
  0
LINE
  5
9D
  8
LAYER_01
 10
393.5498099108308
 20
-135.2228640212383
 30
0.0
 11
393.6070057590901
 21
-135.6195803390646
 31
0.0
  0
LINE
  5
9E
  8
LAYER_01
 10
393.6070057590901
 20
-135.6195803390646
 30
0.0
 11
393.6720290367645
 21
-136.0182469907844
 31
0.0
  0
LINE
  5
9F
  8
LAYER_01
 10
393.6720290367645
 20
-136.0182469907844
 30
0.0
 11
393.7453487427995
 21
-136.4195382962703
 31
0.0
  0
LINE
  5
A0
  8
LAYER_01
 10
393.7453487427995
 20
-136.4195382962703
 30
0.0
 11
393.8274338761405
 21
-136.8241285753945
 31
0.0
  0
LINE
  5
A1
  8
LAYER_01
 10
393.8274338761405
 20
-136.8241285753945
 30
0.0
 11
393.9186220821869
 21
-137.2324554288633
 31
0.0
  0
LINE
  5
A2
  8
LAYER_01
 10
393.9186220821869
 20
-137.2324554288633
 30
0.0
 11
394.0187255921537
 21
-137.6440095807189
 31
0.0
  0
LINE
  5
A3
  8
LAYER_01
 10
394.0187255921537
 20
-137.6440095807189
 30
0.0
 11
394.1274252837095
 21
-138.0580450358373
 31
0.0
  0
LINE
  5
A4
  8
LAYER_01
 10
394.1274252837095
 20
-138.0580450358373
 30
0.0
 11
394.2444020345233
 21
-138.4738157990948
 31
0.0
  0
LINE
  5
A5
  8
LAYER_01
 10
394.2444020345233
 20
-138.4738157990948
 30
0.0
 11
394.5019102245999
 21
-139.307579269531
 31
0.0
  0
LINE
  5
A6
  8
LAYER_01
 10
394.5019102245999
 20
-139.307579269531
 30
0.0
 11
394.7886971837338
 21
-140.1393320310365
 31
0.0
  0
LINE
  5
A7
  8
LAYER_01
 10
394.7886971837338
 20
-140.1393320310365
 30
0.0
 11
395.1022099332755
 21
-140.96310612262
 31
0.0
  0
LINE
  5
A8
  8
LAYER_01
 10
395.1022099332755
 20
-140.96310612262
 30
0.0
 11
395.4398954945754
 21
-141.7729335832904
 31
0.0
  0
LINE
  5
A9
  8
LAYER_01
 10
395.4398954945754
 20
-141.7729335832904
 30
0.0
 11
395.7992008889839
 21
-142.5628464520567
 31
0.0
  0
LINE
  5
AA
  8
LAYER_01
 10
395.7992008889839
 20
-142.5628464520567
 30
0.0
 11
396.1775731378516
 21
-143.3268767679276
 31
0.0
  0
LINE
  5
AB
  8
LAYER_01
 10
396.1775731378516
 20
-143.3268767679276
 30
0.0
 11
396.3731115268796
 21
-143.6973209807175
 31
0.0
  0
LINE
  5
AC
  8
LAYER_01
 10
396.3731115268796
 20
-143.6973209807175
 30
0.0
 11
396.5724592625288
 21
-144.0590565699119
 31
0.0
  0
LINE
  5
AD
  8
LAYER_01
 10
396.5724592625288
 20
-144.0590565699119
 30
0.0
 11
396.7752972224681
 21
-144.4113375403869
 31
0.0
  0
LINE
  5
AE
  8
LAYER_01
 10
396.7752972224681
 20
-144.4113375403869
 30
0.0
 11
396.981306284366
 21
-144.7534178970186
 31
0.0
  0
LINE
  5
AF
  8
LAYER_01
 10
396.981306284366
 20
-144.7534178970186
 30
0.0
 11
397.1901673258916
 21
-145.0845516446831
 31
0.0
  0
LINE
  5
B0
  8
LAYER_01
 10
397.1901673258916
 20
-145.0845516446831
 30
0.0
 11
397.4015612247136
 21
-145.4039927882565
 31
0.0
  0
LINE
  5
B1
  8
LAYER_01
 10
397.4015612247136
 20
-145.4039927882565
 30
0.0
 11
397.615168858501
 21
-145.7109953326149
 31
0.0
  0
LINE
  5
B2
  8
LAYER_01
 10
397.615168858501
 20
-145.7109953326149
 30
0.0
 11
397.8306711049222
 21
-146.0048132826345
 31
0.0
  0
LINE
  5
B3
  8
LAYER_01
 10
397.8306711049222
 20
-146.0048132826345
 30
0.0
 11
398.0477488416463
 21
-146.2847006431912
 31
0.0
  0
LINE
  5
B4
  8
LAYER_01
 10
398.0477488416463
 20
-146.2847006431912
 30
0.0
 11
398.266082946342
 21
-146.5499114191613
 31
0.0
  0
LINE
  5
B5
  8
LAYER_01
 10
398.266082946342
 20
-146.5499114191613
 30
0.0
 11
398.4853542966781
 21
-146.7996996154209
 31
0.0
  0
LINE
  5
B6
  8
LAYER_01
 10
398.4853542966781
 20
-146.7996996154209
 30
0.0
 11
398.5952417132329
 21
-146.918577122683
 31
0.0
  0
LINE
  5
B7
  8
LAYER_01
 10
398.5952417132329
 20
-146.918577122683
 30
0.0
 11
398.7052437703235
 21
-147.033319236846
 31
0.0
  0
LINE
  5
B8
  8
LAYER_01
 10
398.7052437703235
 20
-147.033319236846
 30
0.0
 11
398.8153205776587
 21
-147.1438327085194
 31
0.0
  0
LINE
  5
B9
  8
LAYER_01
 10
398.8153205776587
 20
-147.1438327085194
 30
0.0
 11
398.9254322449469
 21
-147.2500242883127
 31
0.0
  0
LINE
  5
BA
  8
LAYER_01
 10
398.9254322449469
 20
-147.2500242883127
 30
0.0
 11
399.0355388818969
 21
-147.3518007268354
 31
0.0
  0
LINE
  5
BB
  8
LAYER_01
 10
399.0355388818969
 20
-147.3518007268354
 30
0.0
 11
399.1456005982172
 21
-147.4490687746972
 31
0.0
  0
LINE
  5
BC
  8
LAYER_01
 10
399.1456005982172
 20
-147.4490687746972
 30
0.0
 11
399.2555775036164
 21
-147.5417351825074
 31
0.0
  0
LINE
  5
BD
  8
LAYER_01
 10
399.2555775036164
 20
-147.5417351825074
 30
0.0
 11
399.3654297078031
 21
-147.6297067008755
 31
0.0
  0
LINE
  5
BE
  8
LAYER_01
 10
399.3654297078031
 20
-147.6297067008755
 30
0.0
 11
399.4751173204859
 21
-147.7128900804112
 31
0.0
  0
LINE
  5
BF
  8
LAYER_01
 10
399.4751173204859
 20
-147.7128900804112
 30
0.0
 11
399.5846004513735
 21
-147.7911920717239
 31
0.0
  0
LINE
  5
C0
  8
LAYER_01
 10
399.5846004513735
 20
-147.7911920717239
 30
0.0
 11
399.7417784813596
 21
-148.1922657229711
 31
0.0
  0
LINE
  5
C1
  8
LAYER_01
 10
399.7417784813596
 20
-148.1922657229711
 30
0.0
 11
399.9004184233778
 21
-148.5744469725893
 31
0.0
  0
LINE
  5
C2
  8
LAYER_01
 10
399.9004184233778
 20
-148.5744469725893
 30
0.0
 11
400.0600321092865
 21
-148.9386602620708
 31
0.0
  0
LINE
  5
C3
  8
LAYER_01
 10
400.0600321092865
 20
-148.9386602620708
 30
0.0
 11
400.2201313709438
 21
-149.2858300329078
 31
0.0
  0
LINE
  5
C4
  8
LAYER_01
 10
400.2201313709438
 20
-149.2858300329078
 30
0.0
 11
400.5398339489376
 21
-149.9327367846168
 31
0.0
  0
LINE
  5
C5
  8
LAYER_01
 10
400.5398339489376
 20
-149.9327367846168
 30
0.0
 11
400.8556208122253
 21
-150.5225627596537
 31
0.0
  0
LINE
  5
C6
  8
LAYER_01
 10
400.8556208122253
 20
-150.5225627596537
 30
0.0
 11
401.163586615673
 21
-151.0627034899557
 31
0.0
  0
LINE
  5
C7
  8
LAYER_01
 10
401.163586615673
 20
-151.0627034899557
 30
0.0
 11
402.0015042156382
 21
-152.4589695318271
 31
0.0
  0
LINE
  5
C8
  8
LAYER_01
 10
402.0015042156382
 20
-152.4589695318271
 30
0.0
 11
402.2391323283878
 21
-152.8743246025639
 31
0.0
  0
LINE
  5
C9
  8
LAYER_01
 10
402.2391323283878
 20
-152.8743246025639
 30
0.0
 11
402.3479350492674
 21
-153.0767745727933
 31
0.0
  0
LINE
  5
CA
  8
LAYER_01
 10
402.3479350492674
 20
-153.0767745727933
 30
0.0
 11
402.4494126556282
 21
-153.2769720882529
 31
0.0
  0
LINE
  5
CB
  8
LAYER_01
 10
402.4494126556282
 20
-153.2769720882529
 30
0.0
 11
402.5430769793281
 21
-153.4758415904349
 31
0.0
  0
LINE
  5
CC
  8
LAYER_01
 10
402.5430769793281
 20
-153.4758415904349
 30
0.0
 11
402.586826607636
 21
-153.5750672245131
 31
0.0
  0
LINE
  5
CD
  8
LAYER_01
 10
402.586826607636
 20
-153.5750672245131
 30
0.0
 11
402.6284398522256
 21
-153.6743075208315
 31
0.0
  0
LINE
  5
CE
  8
LAYER_01
 10
402.6284398522256
 20
-153.6743075208315
 30
0.0
 11
402.6678556920791
 21
-153.7736780345765
 31
0.0
  0
LINE
  5
CF
  8
LAYER_01
 10
402.6678556920791
 20
-153.7736780345765
 30
0.0
 11
402.7050131061789
 21
-153.8732943209347
 31
0.0
  0
LINE
  5
D0
  8
LAYER_01
 10
402.7050131061789
 20
-153.8732943209347
 30
0.0
 11
402.7398510735071
 21
-153.9732719350927
 31
0.0
  0
LINE
  5
D1
  8
LAYER_01
 10
402.7398510735071
 20
-153.9732719350927
 30
0.0
 11
402.7723085730462
 21
-154.0737264322369
 31
0.0
  0
LINE
  5
D2
  8
LAYER_01
 10
402.7723085730462
 20
-154.0737264322369
 30
0.0
 11
402.8023245837784
 21
-154.1747733675539
 31
0.0
  0
LINE
  5
D3
  8
LAYER_01
 10
402.8023245837784
 20
-154.1747733675539
 30
0.0
 11
402.8298380846858
 21
-154.2765282962302
 31
0.0
  0
LINE
  5
D4
  8
LAYER_01
 10
402.8298380846858
 20
-154.2765282962302
 30
0.0
 11
402.854788054751
 21
-154.3791067734522
 31
0.0
  0
LINE
  5
D5
  8
LAYER_01
 10
402.854788054751
 20
-154.3791067734522
 30
0.0
 11
402.8771134729561
 21
-154.4826243544067
 31
0.0
  0
LINE
  5
D6
  8
LAYER_01
 10
402.8771134729561
 20
-154.4826243544067
 30
0.0
 11
402.8967533182835
 21
-154.5871965942799
 31
0.0
  0
LINE
  5
D7
  8
LAYER_01
 10
402.8967533182835
 20
-154.5871965942799
 30
0.0
 11
402.9136465697152
 21
-154.6929390482586
 31
0.0
  0
LINE
  5
D8
  8
LAYER_01
 10
402.9136465697152
 20
-154.6929390482586
 30
0.0
 11
402.9277322062338
 21
-154.7999672715291
 31
0.0
  0
LINE
  5
D9
  8
LAYER_01
 10
402.9277322062338
 20
-154.7999672715291
 30
0.0
 11
402.9389492068214
 21
-154.9083968192781
 31
0.0
  0
LINE
  5
DA
  8
LAYER_01
 10
402.9389492068214
 20
-154.9083968192781
 30
0.0
 11
402.9472365504605
 21
-155.018343246692
 31
0.0
  0
LINE
  5
DB
  8
LAYER_01
 10
402.9472365504605
 20
-155.018343246692
 30
0.0
 11
402.9525332161331
 21
-155.1299221089574
 31
0.0
  0
LINE
  5
DC
  8
LAYER_01
 10
402.9525332161331
 20
-155.1299221089574
 30
0.0
 11
402.9547781828217
 21
-155.2432489612607
 31
0.0
  0
LINE
  5
DD
  8
LAYER_01
 10
402.9547781828217
 20
-155.2432489612607
 30
0.0
 11
402.9539104295084
 21
-155.3584393587886
 31
0.0
  0
LINE
  5
DE
  8
LAYER_01
 10
402.9539104295084
 20
-155.3584393587886
 30
0.0
 11
402.9498689351757
 21
-155.4756088567275
 31
0.0
  0
LINE
  5
DF
  8
LAYER_01
 10
402.9498689351757
 20
-155.4756088567275
 30
0.0
 11
402.9425926788057
 21
-155.594873010264
 31
0.0
  0
LINE
  5
E0
  8
LAYER_01
 10
402.9425926788057
 20
-155.594873010264
 30
0.0
 11
402.9320206393808
 21
-155.7163473745845
 31
0.0
  0
LINE
  5
E1
  8
LAYER_01
 10
402.9320206393808
 20
-155.7163473745845
 30
0.0
 11
402.9180917958831
 21
-155.8401475048756
 31
0.0
  0
LINE
  5
E2
  8
LAYER_01
 10
402.9180917958831
 20
-155.8401475048756
 30
0.0
 11
402.90077214522
 21
-155.9663653320179
 31
0.0
  0
LINE
  5
E3
  8
LAYER_01
 10
402.90077214522
 20
-155.9663653320179
 30
0.0
 11
402.8801357559979
 21
-156.0949982896677
 31
0.0
  0
LINE
  5
E4
  8
LAYER_01
 10
402.8801357559979
 20
-156.0949982896677
 30
0.0
 11
402.8562837147481
 21
-156.2260201871755
 31
0.0
  0
LINE
  5
E5
  8
LAYER_01
 10
402.8562837147481
 20
-156.2260201871755
 30
0.0
 11
402.8293171080023
 21
-156.3594048338919
 31
0.0
  0
LINE
  5
E6
  8
LAYER_01
 10
402.8293171080023
 20
-156.3594048338919
 30
0.0
 11
402.7664445441475
 21
-156.6331576123522
 31
0.0
  0
LINE
  5
E7
  8
LAYER_01
 10
402.7664445441475
 20
-156.6331576123522
 30
0.0
 11
402.6923267566847
 21
-156.9160470998523
 31
0.0
  0
LINE
  5
E8
  8
LAYER_01
 10
402.6923267566847
 20
-156.9160470998523
 30
0.0
 11
402.6077724378649
 21
-157.2078637711959
 31
0.0
  0
LINE
  5
E9
  8
LAYER_01
 10
402.6077724378649
 20
-157.2078637711959
 30
0.0
 11
402.5135902799394
 21
-157.5083981011869
 31
0.0
  0
LINE
  5
EA
  8
LAYER_01
 10
402.5135902799394
 20
-157.5083981011869
 30
0.0
 11
402.2995772157758
 21
-158.1347816363259
 31
0.0
  0
LINE
  5
EB
  8
LAYER_01
 10
402.2995772157758
 20
-158.1347816363259
 30
0.0
 11
400.6369846235275
 21
-162.5138987691441
 31
0.0
  0
LINE
  5
EC
  8
LAYER_01
 10
400.6369846235275
 20
-162.5138987691441
 30
0.0
 11
400.3571825116945
 21
-163.3315763969596
 31
0.0
  0
LINE
  5
ED
  8
LAYER_01
 10
400.3571825116945
 20
-163.3315763969596
 30
0.0
 11
400.0938601165173
 21
-164.1698769460212
 31
0.0
  0
LINE
  5
EE
  8
LAYER_01
 10
400.0938601165173
 20
-164.1698769460212
 30
0.0
 11
399.853486976005
 21
-165.0271242147589
 31
0.0
  0
LINE
  5
EF
  8
LAYER_01
 10
399.853486976005
 20
-165.0271242147589
 30
0.0
 11
399.7439281068761
 21
-165.4623290560157
 31
0.0
  0
LINE
  5
F0
  8
LAYER_01
 10
399.7439281068761
 20
-165.4623290560157
 30
0.0
 11
399.6425326281668
 21
-165.901642001603
 31
0.0
  0
LINE
  5
F1
  8
LAYER_01
 10
399.6425326281668
 20
-165.901642001603
 30
0.0
 11
399.5501092321284
 21
-166.3448535263244
 31
0.0
  0
LINE
  5
F2
  8
LAYER_01
 10
399.5501092321284
 20
-166.3448535263244
 30
0.0
 11
399.467466611012
 21
-166.7917541049836
 31
0.0
  0
LINE
  5
F3
  8
LAYER_01
 10
399.467466611012
 20
-166.7917541049836
 30
0.0
 11
399.3954134570688
 21
-167.2421342123847
 31
0.0
  0
LINE
  5
F4
  8
LAYER_01
 10
399.3954134570688
 20
-167.2421342123847
 30
0.0
 11
399.3347584625498
 21
-167.6957843233311
 31
0.0
  0
LINE
  5
F5
  8
LAYER_01
 10
399.3347584625498
 20
-167.6957843233311
 30
0.0
 11
399.2863103253181
 21
-168.1523497713449
 31
0.0
  0
LINE
  5
F6
  8
LAYER_01
 10
399.2863103253181
 20
-168.1523497713449
 30
0.0
 11
399.2508777656832
 21
-168.6108953248201
 31
0.0
  0
LINE
  5
F7
  8
LAYER_01
 10
399.2508777656832
 20
-168.6108953248201
 30
0.0
 11
399.2292695095666
 21
-169.0703406108691
 31
0.0
  0
LINE
  5
F8
  8
LAYER_01
 10
399.2292695095666
 20
-169.0703406108691
 30
0.0
 11
399.2222942828896
 21
-169.529605256604
 31
0.0
  0
LINE
  5
F9
  8
LAYER_01
 10
399.2222942828896
 20
-169.529605256604
 30
0.0
 11
399.2307608115735
 21
-169.9876088891372
 31
0.0
  0
LINE
  5
FA
  8
LAYER_01
 10
399.2307608115735
 20
-169.9876088891372
 30
0.0
 11
399.2410374610263
 21
-170.2158002089256
 31
0.0
  0
LINE
  5
FB
  8
LAYER_01
 10
399.2410374610263
 20
-170.2158002089256
 30
0.0
 11
399.2554778215399
 21
-170.4432711355807
 31
0.0
  0
LINE
  5
FC
  8
LAYER_01
 10
399.2554778215399
 20
-170.4432711355807
 30
0.0
 11
399.2741829838544
 21
-170.6698866224915
 31
0.0
  0
LINE
  5
FD
  8
LAYER_01
 10
399.2741829838544
 20
-170.6698866224915
 30
0.0
 11
399.29725403871
 21
-170.895511623047
 31
0.0
  0
LINE
  5
FE
  8
LAYER_01
 10
399.29725403871
 20
-170.895511623047
 30
0.0
 11
399.3247920768468
 21
-171.1200110906362
 31
0.0
  0
LINE
  5
FF
  8
LAYER_01
 10
399.3247920768468
 20
-171.1200110906362
 30
0.0
 11
399.3568981890052
 21
-171.3432499786481
 31
0.0
  0
LINE
  5
100
  8
LAYER_01
 10
399.3568981890052
 20
-171.3432499786481
 30
0.0
 11
399.3936734659251
 21
-171.5650932404718
 31
0.0
  0
LINE
  5
101
  8
LAYER_01
 10
399.3936734659251
 20
-171.5650932404718
 30
0.0
 11
399.4352189983468
 21
-171.7854058294964
 31
0.0
  0
LINE
  5
102
  8
LAYER_01
 10
399.4352189983468
 20
-171.7854058294964
 30
0.0
 11
399.4816358770106
 21
-172.0040526991108
 31
0.0
  0
LINE
  5
103
  8
LAYER_01
 10
399.4816358770106
 20
-172.0040526991108
 30
0.0
 11
399.5330251926565
 21
-172.2208988027041
 31
0.0
  0
LINE
  5
104
  8
LAYER_01
 10
399.5330251926565
 20
-172.2208988027041
 30
0.0
 11
399.5894880360246
 21
-172.4358090936652
 31
0.0
  0
LINE
  5
105
  8
LAYER_01
 10
399.5894880360246
 20
-172.4358090936652
 30
0.0
 11
399.6511254978553
 21
-172.6486485253833
 31
0.0
  0
LINE
  5
106
  8
LAYER_01
 10
399.6511254978553
 20
-172.6486485253833
 30
0.0
 11
399.7180386688887
 21
-172.8592820512474
 31
0.0
  0
LINE
  5
107
  8
LAYER_01
 10
399.7180386688887
 20
-172.8592820512474
 30
0.0
 11
399.7903286398649
 21
-173.0675746246465
 31
0.0
  0
LINE
  5
108
  8
LAYER_01
 10
399.7903286398649
 20
-173.0675746246465
 30
0.0
 11
399.8680965015241
 21
-173.2733911989695
 31
0.0
  0
LINE
  5
109
  8
LAYER_01
 10
399.8680965015241
 20
-173.2733911989695
 30
0.0
 11
399.9514433446064
 21
-173.4765967276057
 31
0.0
  0
LINE
  5
10A
  8
LAYER_01
 10
399.9514433446064
 20
-173.4765967276057
 30
0.0
 11
400.0404702598522
 21
-173.6770561639439
 31
0.0
  0
LINE
  5
10B
  8
LAYER_01
 10
400.0404702598522
 20
-173.6770561639439
 30
0.0
 11
400.1352783380014
 21
-173.8746344613732
 31
0.0
  0
LINE
  5
10C
  8
LAYER_01
 10
400.1352783380014
 20
-173.8746344613732
 30
0.0
 11
400.2359686697944
 21
-174.0691965732827
 31
0.0
  0
LINE
  5
10D
  8
LAYER_01
 10
400.2359686697944
 20
-174.0691965732827
 30
0.0
 11
400.3426423459711
 21
-174.2606074530613
 31
0.0
  0
LINE
  5
10E
  8
LAYER_01
 10
400.3426423459711
 20
-174.2606074530613
 30
0.0
 11
400.455400457272
 21
-174.4487320540982
 31
0.0
  0
LINE
  5
10F
  8
LAYER_01
 10
400.455400457272
 20
-174.4487320540982
 30
0.0
 11
400.574344094437
 21
-174.6334353297822
 31
0.0
  0
LINE
  5
110
  8
LAYER_01
 10
400.574344094437
 20
-174.6334353297822
 30
0.0
 11
400.6995743482065
 21
-174.8145822335026
 31
0.0
  0
LINE
  5
111
  8
LAYER_01
 10
400.6995743482065
 20
-174.8145822335026
 30
0.0
 11
400.8311923093205
 21
-174.9920377186482
 31
0.0
  0
LINE
  5
112
  8
LAYER_01
 10
400.8311923093205
 20
-174.9920377186482
 30
0.0
 11
400.9692990685193
 21
-175.1656667386081
 31
0.0
  0
LINE
  5
113
  8
LAYER_01
 10
400.9692990685193
 20
-175.1656667386081
 30
0.0
 11
401.1139957165429
 21
-175.3353342467715
 31
0.0
  0
LINE
  5
114
  8
LAYER_01
 10
401.1139957165429
 20
-175.3353342467715
 30
0.0
 11
401.2653833441316
 21
-175.5009051965271
 31
0.0
  0
LINE
  5
115
  8
LAYER_01
 10
401.2653833441316
 20
-175.5009051965271
 30
0.0
 11
401.3436178661192
 21
-175.5821122599362
 31
0.0
  0
LINE
  5
116
  8
LAYER_01
 10
401.3436178661192
 20
-175.5821122599362
 30
0.0
 11
401.4235630420256
 21
-175.6622445412642
 31
0.0
  0
LINE
  5
117
  8
LAYER_01
 10
401.4235630420256
 20
-175.6622445412642
 30
0.0
 11
401.5052315081933
 21
-175.7412851596848
 31
0.0
  0
LINE
  5
118
  8
LAYER_01
 10
401.5052315081933
 20
-175.7412851596848
 30
0.0
 11
401.588635900965
 21
-175.8192172343717
 31
0.0
  0
LINE
  5
119
  8
LAYER_01
 10
401.588635900965
 20
-175.8192172343717
 30
0.0
 11
401.6737888566831
 21
-175.8960238844985
 31
0.0
  0
LINE
  5
11A
  8
LAYER_01
 10
401.6737888566831
 20
-175.8960238844985
 30
0.0
 11
401.76070301169
 21
-175.9716882292387
 31
0.0
  0
LINE
  5
11B
  8
LAYER_01
 10
401.76070301169
 20
-175.9716882292387
 30
0.0
 11
401.8493910023284
 21
-176.0461933877661
 31
0.0
  0
LINE
  5
11C
  8
LAYER_01
 10
401.8493910023284
 20
-176.0461933877661
 30
0.0
 11
401.9398654649407
 21
-176.1195224792542
 31
0.0
  0
LINE
  5
11D
  8
LAYER_01
 10
401.9398654649407
 20
-176.1195224792542
 30
0.0
 11
402.0321390358696
 21
-176.1916586228767
 31
0.0
  0
LINE
  5
11E
  8
LAYER_01
 10
402.0321390358696
 20
-176.1916586228767
 30
0.0
 11
402.1262243514574
 21
-176.2625849378072
 31
0.0
  0
LINE
  5
11F
  8
LAYER_01
 10
402.1262243514574
 20
-176.2625849378072
 30
0.0
 11
402.2221340480469
 21
-176.3322845432194
 31
0.0
  0
LINE
  5
120
  8
LAYER_01
 10
402.2221340480469
 20
-176.3322845432194
 30
0.0
 11
402.3198807619802
 21
-176.4007405582868
 31
0.0
  0
LINE
  5
121
  8
LAYER_01
 10
402.3198807619802
 20
-176.4007405582868
 30
0.0
 11
402.5209357872494
 21
-176.5338542940819
 31
0.0
  0
LINE
  5
122
  8
LAYER_01
 10
402.5209357872494
 20
-176.5338542940819
 30
0.0
 11
402.7294905180049
 21
-176.6617910985817
 31
0.0
  0
LINE
  5
123
  8
LAYER_01
 10
402.7294905180049
 20
-176.6617910985817
 30
0.0
 11
402.9456460449871
 21
-176.7844159251752
 31
0.0
  0
LINE
  5
124
  8
LAYER_01
 10
402.9456460449871
 20
-176.7844159251752
 30
0.0
 11
403.169503458936
 21
-176.9015937272513
 31
0.0
  0
LINE
  5
125
  8
LAYER_01
 10
403.169503458936
 20
-176.9015937272513
 30
0.0
 11
403.4011638505921
 21
-177.0131894581991
 31
0.0
  0
LINE
  5
126
  8
LAYER_01
 10
403.4011638505921
 20
-177.0131894581991
 30
0.0
 11
403.6407283106952
 21
-177.1190680714076
 31
0.0
  0
LINE
  5
127
  8
LAYER_01
 10
403.6407283106952
 20
-177.1190680714076
 30
0.0
 11
403.8882979299856
 21
-177.2190945202659
 31
0.0
  0
LINE
  5
128
  8
LAYER_01
 10
403.8882979299856
 20
-177.2190945202659
 30
0.0
 11
404.1439737992035
 21
-177.313133758163
 31
0.0
  0
LINE
  5
129
  8
LAYER_01
 10
404.1439737992035
 20
-177.313133758163
 30
0.0
 11
404.4078570090891
 21
-177.4010507384879
 31
0.0
  0
LINE
  5
12A
  8
LAYER_01
 10
404.4078570090891
 20
-177.4010507384879
 30
0.0
 11
404.6800486503825
 21
-177.4827104146297
 31
0.0
  0
LINE
  5
12B
  8
LAYER_01
 10
404.6800486503825
 20
-177.4827104146297
 30
0.0
 11
404.9606498138239
 21
-177.5579777399774
 31
0.0
  0
LINE
  5
12C
  8
LAYER_01
 10
404.9606498138239
 20
-177.5579777399774
 30
0.0
 11
405.2497615901535
 21
-177.62671766792
 31
0.0
  0
LINE
  5
12D
  8
LAYER_01
 10
405.2497615901535
 20
-177.62671766792
 30
0.0
 11
405.5474850701115
 21
-177.6887951518465
 31
0.0
  0
LINE
  5
12E
  8
LAYER_01
 10
405.5474850701115
 20
-177.6887951518465
 30
0.0
 11
405.8539213444379
 21
-177.744075145146
 31
0.0
  0
LINE
  5
12F
  8
LAYER_01
 10
405.8539213444379
 20
-177.744075145146
 30
0.0
 11
406.1691715038731
 21
-177.7924226012075
 31
0.0
  0
LINE
  5
130
  8
LAYER_01
 10
406.1691715038731
 20
-177.7924226012075
 30
0.0
 11
406.4933366391572
 21
-177.83370247342
 31
0.0
  0
LINE
  5
131
  8
LAYER_01
 10
406.4933366391572
 20
-177.83370247342
 30
0.0
 11
406.8265178410303
 21
-177.8677797151726
 31
0.0
  0
LINE
  5
132
  8
LAYER_01
 10
406.8265178410303
 20
-177.8677797151726
 30
0.0
 11
407.1688162002326
 21
-177.8945192798543
 31
0.0
  0
LINE
  5
133
  8
LAYER_01
 10
407.1688162002326
 20
-177.8945192798543
 30
0.0
 11
407.5203328075042
 21
-177.9137861208541
 31
0.0
  0
LINE
  5
134
  8
LAYER_01
 10
407.5203328075042
 20
-177.9137861208541
 30
0.0
 11
407.8811687535855
 21
-177.925445191561
 31
0.0
  0
LINE
  5
135
  8
LAYER_01
 10
407.8811687535855
 20
-177.925445191561
 30
0.0
 11
408.2514251292164
 21
-177.9293614453642
 31
0.0
  0
LINE
  5
136
  8
LAYER_01
 10
408.2514251292165
 20
-177.9293614453642
 30
0.0
 11
407.9740813792165
 21
-158.8337196717054
 31
0.0
  0
LINE
  5
137
  8
LAYER_01
 10
407.9740813792165
 20
-158.8337196717054
 30
0.0
 11
407.6317962229665
 21
-151.1773544210774
 31
0.0
  0
LINE
  5
138
  8
LAYER_01
 10
407.6317962229665
 20
-151.1773544210774
 30
0.0
 11
407.1576751292165
 21
-144.4038750381792
 31
0.0
  0
LINE
  5
139
  8
LAYER_01
 10
407.1576751292165
 20
-144.4038750381792
 30
0.0
 11
406.5546477854665
 21
-138.2297181057076
 31
0.0
  0
LINE
  5
13A
  8
LAYER_01
 10
406.5546477854665
 20
-138.2297181057076
 30
0.0
 11
405.8256438792165
 21
-132.3713202063594
 31
0.0
  0
LINE
  5
13B
  8
LAYER_01
 10
405.8256438792165
 20
-132.3713202063594
 30
0.0
 11
403.5415820053341
 21
-117.673480838209
 31
0.0
  0
LINE
  5
13C
  8
LAYER_01
 10
403.5415820053341
 20
-117.673480838209
 30
0.0
 11
398.7650963381694
 21
-117.673480838209
 31
0.0
  0
LINE
  5
13D
  8
LAYER_01
 10
398.7650963381694
 20
-117.673480838209
 30
0.0
 11
398.7650963381694
 21
-114.673480838209
 31
0.0
  0
LINE
  5
13E
  8
LAYER_01
 10
398.7650963381694
 20
-114.673480838209
 30
0.0
 11
403.0451499794331
 21
-114.6734808382085
 31
0.0
  0
ARC
  5
13F
  8
LAYER_01
 10
-1641.246987407224
 20
94.26903319300209
 30
0.0
 40
1255.707276549452
 50
350.4217591204559
 51
353.0041239105616
210
0.0
220
0.0
230
-1.0
  0
LINE
  5
140
  8
LAYER_01
 10
394.8885510892228
 20
-58.67348083820903
 30
0.0
 11
387.7831333984329
 21
-58.67348083820899
 31
0.0
  0
LINE
  5
141
  8
LAYER_01
 10
387.7831333984329
 20
-58.67348083820899
 30
0.0
 11
387.7831333984329
 21
-55.67348083820899
 31
0.0
  0
LINE
  5
142
  8
LAYER_01
 10
387.7831333984329
 20
-55.67348083820899
 30
0.0
 11
394.5197759690845
 21
-55.673480838209
 31
0.0
  0
LINE
  5
143
  8
LAYER_01
 10
394.5197759690845
 20
-55.673480838209
 30
0.0
 11
392.2514251292165
 21
-36.17348083820899
 31
0.0
  0
LINE
  5
144
  8
LAYER_01
 10
225.1201430482065
 20
14.56600231650086
 30
0.0
 11
225.7506784793606
 21
14.13696509660247
 31
0.0
  0
LINE
  5
145
  8
LAYER_01
 10
225.7506784793606
 20
14.13696509660247
 30
0.0
 11
226.3781022928633
 21
13.69201321310948
 31
0.0
  0
LINE
  5
146
  8
LAYER_01
 10
226.3781022928633
 20
13.69201321310948
 30
0.0
 11
227.0021762108604
 21
13.23142316408875
 31
0.0
  0
LINE
  5
147
  8
LAYER_01
 10
227.0021762108604
 20
13.23142316408875
 30
0.0
 11
227.6226619554976
 21
12.75547144760711
 31
0.0
  0
LINE
  5
148
  8
LAYER_01
 10
227.6226619554976
 20
12.75547144760711
 30
0.0
 11
228.2393212489205
 21
12.26443456173141
 31
0.0
  0
LINE
  5
149
  8
LAYER_01
 10
228.2393212489205
 20
12.26443456173141
 30
0.0
 11
228.8519158132749
 21
11.75858900452851
 31
0.0
  0
LINE
  5
14A
  8
LAYER_01
 10
228.8519158132749
 20
11.75858900452851
 30
0.0
 11
230.0639576433612
 21
10.70357786840846
 31
0.0
  0
LINE
  5
14B
  8
LAYER_01
 10
230.0639576433612
 20
10.70357786840846
 30
0.0
 11
231.2568812229219
 21
9.592650023781728
 31
0.0
  0
LINE
  5
14C
  8
LAYER_01
 10
231.2568812229219
 20
9.592650023781728
 30
0.0
 11
232.428780329123
 21
8.42801745518308
 31
0.0
  0
LINE
  5
14D
  8
LAYER_01
 10
232.428780329123
 20
8.42801745518308
 30
0.0
 11
233.57774873913
 21
7.211892147147289
 31
0.0
  0
LINE
  5
14E
  8
LAYER_01
 10
233.57774873913
 20
7.211892147147289
 30
0.0
 11
234.7018802301086
 21
5.946486084209125
 31
0.0
  0
LINE
  5
14F
  8
LAYER_01
 10
234.7018802301086
 20
5.946486084209125
 30
0.0
 11
235.7992685792246
 21
4.63401125090336
 31
0.0
  0
LINE
  5
150
  8
LAYER_01
 10
235.7992685792246
 20
4.63401125090336
 30
0.0
 11
236.8680075636437
 21
3.276679631764762
 31
0.0
  0
LINE
  5
151
  8
LAYER_01
 10
236.8680075636437
 20
3.276679631764762
 30
0.0
 11
237.9061909605315
 21
1.876703211328103
 31
0.0
  0
LINE
  5
152
  8
LAYER_01
 10
237.9061909605315
 20
1.876703211328103
 30
0.0
 11
238.9119125470538
 21
0.4362939741281535
 31
0.0
  0
LINE
  5
153
  8
LAYER_01
 10
238.9119125470538
 20
0.4362939741281535
 30
0.0
 11
239.8832661003763
 21
-1.042336095300317
 31
0.0
  0
LINE
  5
154
  8
LAYER_01
 10
239.8832661003763
 20
-1.042336095300317
 30
0.0
 11
240.8183453976646
 21
-2.556975012422538
 31
0.0
  0
LINE
  5
155
  8
LAYER_01
 10
240.8183453976646
 20
-2.556975012422538
 30
0.0
 11
241.7152442160845
 21
-4.105410792703738
 31
0.0
  0
LINE
  5
156
  8
LAYER_01
 10
241.7152442160845
 20
-4.105410792703738
 30
0.0
 11
242.5720563328017
 21
-5.685431451609148
 31
0.0
  0
LINE
  5
157
  8
LAYER_01
 10
242.5720563328017
 20
-5.685431451609148
 30
0.0
 11
243.4218281672972
 21
-7.306529872848969
 31
0.0
  0
LINE
  5
158
  8
LAYER_01
 10
243.4218281672972
 20
-7.306529872848969
 30
0.0
 11
242.6508301906533
 21
-8.42241062941531
 31
0.0
  0
LINE
  5
159
  8
LAYER_01
 10
242.6508301906533
 20
-8.42241062941531
 30
0.0
 11
241.2385519173891
 21
-10.74110015919874
 31
0.0
  0
ARC
  5
15A
  8
LAYER_01
 10
-238.1312598467663
 20
-9.475767979087323
 30
0.0
 40
3.355045385412917
 50
202.1568308953292
 51
224.8811411708964
210
0.0
220
0.0
230
-1.0
  0
LINE
  5
15B
  8
LAYER_01
 10
240.5085515219935
 20
-11.84321678087292
 30
0.0
 11
238.5253293985116
 21
-9.477062993331614
 31
0.0
  0
LINE
  5
15C
  8
LAYER_01
 10
238.5253293985116
 20
-9.477062993331614
 30
0.0
 11
235.9370223425728
 21
-6.323860102827809
 31
0.0
  0
LINE
  5
15D
  8
LAYER_01
 10
235.9370223425728
 20
-6.323860102827809
 30
0.0
 11
233.6097129481573
 21
-3.365487837496113
 31
0.0
  0
LINE
  5
15E
  8
LAYER_01
 10
233.6097129481573
 20
-3.365487837496113
 30
0.0
 11
231.5372739984493
 21
-0.5929051203104407
 31
0.0
  0
LINE
  5
15F
  8
LAYER_01
 10
231.5372739984493
 20
-0.5929051203104407
 30
0.0
 11
229.713578276633
 21
2.002929125755296
 31
0.0
  0
LINE
  5
160
  8
LAYER_01
 10
229.713578276633
 20
2.002929125755296
 30
0.0
 11
228.8930943709293
 21
3.237390908688841
 31
0.0
  0
LINE
  5
161
  8
LAYER_01
 10
228.8930943709293
 20
3.237390908688841
 30
0.0
 11
228.1324985658926
 21
4.431055977727183
 31
0.0
  0
LINE
  5
162
  8
LAYER_01
 10
228.1324985658926
 20
4.431055977727183
 30
0.0
 11
227.4310249594209
 21
5.585054467498585
 31
0.0
  0
LINE
  5
163
  8
LAYER_01
 10
227.4310249594209
 20
5.585054467498585
 30
0.0
 11
226.7879076494122
 21
6.700516512631308
 31
0.0
  0
LINE
  5
164
  8
LAYER_01
 10
226.7879076494122
 20
6.700516512631308
 30
0.0
 11
226.2023807337646
 21
7.778572247753611
 31
0.0
  0
LINE
  5
165
  8
LAYER_01
 10
226.2023807337646
 20
7.778572247753611
 30
0.0
 11
225.673678310376
 21
8.820351807493758
 31
0.0
  0
LINE
  5
166
  8
LAYER_01
 10
225.673678310376
 20
8.820351807493758
 30
0.0
 11
225.2010344771446
 21
9.826985326480006
 31
0.0
  0
LINE
  5
167
  8
LAYER_01
 10
225.2010344771446
 20
9.826985326480006
 30
0.0
 11
224.9854951874309
 21
10.31747548776175
 31
0.0
  0
LINE
  5
168
  8
LAYER_01
 10
224.9854951874309
 20
10.31747548776175
 30
0.0
 11
224.7836833319683
 21
10.79960293934062
 31
0.0
  0
LINE
  5
169
  8
LAYER_01
 10
224.7836833319683
 20
10.79960293934062
 30
0.0
 11
224.6429138706238
 21
11.15551594729736
 31
0.0
  0
LINE
  5
16A
  8
LAYER_01
 10
224.6429138706238
 20
11.15551594729736
 30
0.0
 11
224.5017878078395
 21
11.53265008334508
 31
0.0
  0
LINE
  5
16B
  8
LAYER_01
 10
224.5017878078395
 20
11.53265008334508
 30
0.0
 11
224.2252571834902
 21
12.32619572808023
 31
0.0
  0
LINE
  5
16C
  8
LAYER_01
 10
224.2252571834902
 20
12.32619572808023
 30
0.0
 11
223.9676740699978
 21
13.13146785027958
 31
0.0
  0
LINE
  5
16D
  8
LAYER_01
 10
223.9676740699978
 20
13.13146785027958
 30
0.0
 11
223.7426210784403
 21
13.89969442667664
 31
0.0
  0
LINE
  5
16E
  8
LAYER_01
 10
223.7426210784403
 20
13.89969442667664
 30
0.0
 11
223.5636808198953
 21
14.58210343400491
 31
0.0
  0
LINE
  5
16F
  8
LAYER_01
 10
223.5636808198953
 20
14.58210343400491
 30
0.0
 11
223.4957475314642
 21
14.87588509199747
 31
0.0
  0
LINE
  5
170
  8
LAYER_01
 10
223.4957475314642
 20
14.87588509199747
 30
0.0
 11
223.4444359054405
 21
15.1299228489979
 31
0.0
  0
LINE
  5
171
  8
LAYER_01
 10
223.4444359054405
 20
15.1299228489979
 30
0.0
 11
223.4255437865766
 21
15.24013260746722
 31
0.0
  0
LINE
  5
172
  8
LAYER_01
 10
223.4255437865766
 20
15.24013260746722
 30
0.0
 11
223.4114437682088
 21
15.33812020209789
 31
0.0
  0
LINE
  5
173
  8
LAYER_01
 10
223.4114437682088
 20
15.33812020209789
 30
0.0
 11
223.406257118054
 21
15.38229254332887
 31
0.0
  0
LINE
  5
174
  8
LAYER_01
 10
223.406257118054
 20
15.38229254332887
 30
0.0
 11
223.4023480786351
 21
15.42312357002637
 31
0.0
  0
LINE
  5
175
  8
LAYER_01
 10
223.4023480786351
 20
15.42312357002637
 30
0.0
 11
223.3997431784892
 21
15.46051802433243
 31
0.0
  0
LINE
  5
176
  8
LAYER_01
 10
223.3997431784892
 20
15.46051802433243
 30
0.0
 11
223.3989380708116
 21
15.47789676875807
 31
0.0
  0
LINE
  5
177
  8
LAYER_01
 10
223.3989380708116
 20
15.47789676875807
 30
0.0
 11
223.3984689461537
 21
15.49438064838912
 31
0.0
  0
LINE
  5
178
  8
LAYER_01
 10
223.3984689461537
 20
15.49438064838912
 30
0.0
 11
223.3983391205827
 21
15.50995775599334
 31
0.0
  0
LINE
  5
179
  8
LAYER_01
 10
223.3983391205827
 20
15.50995775599334
 30
0.0
 11
223.3985519101658
 21
15.52461618433849
 31
0.0
  0
LINE
  5
17A
  8
LAYER_01
 10
223.3985519101658
 20
15.52461618433849
 30
0.0
 11
223.3991106309701
 21
15.53834402619233
 31
0.0
  0
LINE
  5
17B
  8
LAYER_01
 10
223.3991106309701
 20
15.53834402619233
 30
0.0
 11
223.4000185990627
 21
15.55112937432261
 31
0.0
  0
LINE
  5
17C
  8
LAYER_01
 10
223.4000185990627
 20
15.55112937432261
 30
0.0
 11
223.4006045871132
 21
15.55716489223133
 31
0.0
  0
LINE
  5
17D
  8
LAYER_01
 10
223.4006045871132
 20
15.55716489223133
 30
0.0
 11
223.4012791305109
 21
15.56296032149708
 31
0.0
  0
LINE
  5
17E
  8
LAYER_01
 10
223.4012791305109
 20
15.56296032149708
 30
0.0
 11
223.4020426437643
 21
15.56851417371582
 31
0.0
  0
LINE
  5
17F
  8
LAYER_01
 10
223.4020426437643
 20
15.56851417371582
 30
0.0
 11
223.4028955413817
 21
15.57382496048352
 31
0.0
  0
LINE
  5
180
  8
LAYER_01
 10
223.4028955413817
 20
15.57382496048352
 30
0.0
 11
223.4038382378716
 21
15.57889119339615
 31
0.0
  0
LINE
  5
181
  8
LAYER_01
 10
223.4038382378716
 20
15.57889119339615
 30
0.0
 11
223.4048711477424
 21
15.58371138404967
 31
0.0
  0
LINE
  5
182
  8
LAYER_01
 10
223.4048711477424
 20
15.58371138404967
 30
0.0
 11
223.4059946855024
 21
15.58828404404006
 31
0.0
  0
LINE
  5
183
  8
LAYER_01
 10
223.4059946855024
 20
15.58828404404006
 30
0.0
 11
223.4072092656601
 21
15.59260768496329
 31
0.0
  0
LINE
  5
184
  8
LAYER_01
 10
223.4072092656601
 20
15.59260768496329
 30
0.0
 11
223.4085153027239
 21
15.59668081841533
 31
0.0
  0
LINE
  5
185
  8
LAYER_01
 10
223.4085153027239
 20
15.59668081841533
 30
0.0
 11
223.409913211202
 21
15.60050195599214
 31
0.0
  0
LINE
  5
186
  8
LAYER_01
 10
223.409913211202
 20
15.60050195599214
 30
0.0
 11
223.4114034056029
 21
15.6040696092897
 31
0.0
  0
LINE
  5
187
  8
LAYER_01
 10
223.4114034056029
 20
15.6040696092897
 30
0.0
 11
223.4129863004351
 21
15.60738228990397
 31
0.0
  0
LINE
  5
188
  8
LAYER_01
 10
223.4129863004351
 20
15.60738228990397
 30
0.0
 11
223.4146623102069
 21
15.61043850943093
 31
0.0
  0
LINE
  5
189
  8
LAYER_01
 10
223.4146623102069
 20
15.61043850943093
 30
0.0
 11
223.4164318494268
 21
15.61323677946655
 31
0.0
  0
LINE
  5
18A
  8
LAYER_01
 10
223.4164318494268
 20
15.61323677946655
 30
0.0
 11
223.418295332603
 21
15.61577561160679
 31
0.0
  0
LINE
  5
18B
  8
LAYER_01
 10
223.418295332603
 20
15.61577561160679
 30
0.0
 11
223.4202531742441
 21
15.61805351744763
 31
0.0
  0
LINE
  5
18C
  8
LAYER_01
 10
223.4202531742441
 20
15.61805351744763
 30
0.0
 11
223.4223057888583
 21
15.62006900858503
 31
0.0
  0
LINE
  5
18D
  8
LAYER_01
 10
223.4223057888583
 20
15.62006900858503
 30
0.0
 11
223.4244535909541
 21
15.62182059661496
 31
0.0
  0
LINE
  5
18E
  8
LAYER_01
 10
223.4244535909541
 20
15.62182059661496
 30
0.0
 11
223.4266969950399
 21
15.6233067931334
 31
0.0
  0
LINE
  5
18F
  8
LAYER_01
 10
223.4266969950399
 20
15.6233067931334
 30
0.0
 11
223.4290364156241
 21
15.62452610973631
 31
0.0
  0
LINE
  5
190
  8
LAYER_01
 10
223.4290364156241
 20
15.62452610973631
 30
0.0
 11
223.4314722672151
 21
15.62547705801966
 31
0.0
  0
LINE
  5
191
  8
LAYER_01
 10
223.4314722672151
 20
15.62547705801966
 30
0.0
 11
223.4340049643212
 21
15.62615814957943
 31
0.0
  0
LINE
  5
192
  8
LAYER_01
 10
223.4340049643212
 20
15.62615814957943
 30
0.0
 11
223.4366349214509
 21
15.62656789601158
 31
0.0
  0
LINE
  5
193
  8
LAYER_01
 10
223.4366349214509
 20
15.62656789601158
 30
0.0
 11
223.4393625531126
 21
15.62670480891208
 31
0.0
  0
LINE
  5
194
  8
LAYER_01
 10
223.4393625531126
 20
15.62670480891208
 30
0.0
 11
225.1201430482065
 21
14.56600231650086
 31
0.0
  0
LINE
  5
195
  8
LAYER_01
 10
238.5558207131723
 20
12.16190470748843
 30
0.0
 11
239.0198388760942
 21
12.03314554663301
 31
0.0
  0
LINE
  5
196
  8
LAYER_01
 10
239.0198388760942
 20
12.03314554663301
 30
0.0
 11
239.4785259863053
 21
11.89071421399535
 31
0.0
  0
LINE
  5
197
  8
LAYER_01
 10
239.4785259863053
 20
11.89071421399535
 30
0.0
 11
239.9319464811192
 21
11.73455314930435
 31
0.0
  0
LINE
  5
198
  8
LAYER_01
 10
239.9319464811192
 20
11.73455314930435
 30
0.0
 11
240.3801647978489
 21
11.56460479228891
 31
0.0
  0
LINE
  5
199
  8
LAYER_01
 10
240.3801647978489
 20
11.56460479228891
 30
0.0
 11
240.8232453738082
 21
11.38081158267791
 31
0.0
  0
LINE
  5
19A
  8
LAYER_01
 10
240.8232453738082
 20
11.38081158267791
 30
0.0
 11
241.2612526463103
 21
11.18311596020025
 31
0.0
  0
LINE
  5
19B
  8
LAYER_01
 10
241.2612526463103
 20
11.18311596020025
 30
0.0
 11
241.6942510526686
 21
10.97146036458483
 31
0.0
  0
LINE
  5
19C
  8
LAYER_01
 10
241.6942510526686
 20
10.97146036458483
 30
0.0
 11
242.1223050301966
 21
10.74578723556054
 31
0.0
  0
LINE
  5
19D
  8
LAYER_01
 10
242.1223050301966
 20
10.74578723556054
 30
0.0
 11
242.5454790162076
 21
10.50603901285627
 31
0.0
  0
LINE
  5
19E
  8
LAYER_01
 10
242.5454790162076
 20
10.50603901285627
 30
0.0
 11
242.963837448015
 21
10.25215813620092
 31
0.0
  0
LINE
  5
19F
  8
LAYER_01
 10
242.963837448015
 20
10.25215813620092
 30
0.0
 11
243.3774447629323
 21
9.984087045323392
 31
0.0
  0
LINE
  5
1A0
  8
LAYER_01
 10
243.3774447629323
 20
9.984087045323392
 30
0.0
 11
243.7863653982727
 21
9.701768179952566
 31
0.0
  0
LINE
  5
1A1
  8
LAYER_01
 10
243.7863653982727
 20
9.701768179952566
 30
0.0
 11
244.1906637913498
 21
9.405143979817343
 31
0.0
  0
LINE
  5
1A2
  8
LAYER_01
 10
244.1906637913498
 20
9.405143979817343
 30
0.0
 11
244.590404379477
 21
9.094156884646615
 31
0.0
  0
LINE
  5
1A3
  8
LAYER_01
 10
244.590404379477
 20
9.094156884646615
 30
0.0
 11
244.9856515999676
 21
8.768749334169282
 31
0.0
  0
LINE
  5
1A4
  8
LAYER_01
 10
244.9856515999676
 20
8.768749334169282
 30
0.0
 11
245.376469890135
 21
8.428863768114232
 31
0.0
  0
LINE
  5
1A5
  8
LAYER_01
 10
245.376469890135
 20
8.428863768114232
 30
0.0
 11
245.7629236872926
 21
8.07444262621036
 31
0.0
  0
LINE
  5
1A6
  8
LAYER_01
 10
245.7629236872926
 20
8.07444262621036
 30
0.0
 11
246.1450774287538
 21
7.705428348186565
 31
0.0
  0
LINE
  5
1A7
  8
LAYER_01
 10
246.1450774287538
 20
7.705428348186565
 30
0.0
 11
246.5229955518321
 21
7.321763373771738
 31
0.0
  0
LINE
  5
1A8
  8
LAYER_01
 10
246.5229955518321
 20
7.321763373771738
 30
0.0
 11
246.8967424938407
 21
6.923390142694775
 31
0.0
  0
LINE
  5
1A9
  8
LAYER_01
 10
246.8967424938407
 20
6.923390142694775
 30
0.0
 11
247.2663826920932
 21
6.510251094684568
 31
0.0
  0
LINE
  5
1AA
  8
LAYER_01
 10
247.2663826920932
 20
6.510251094684568
 30
0.0
 11
247.6319805839029
 21
6.082288669470014
 31
0.0
  0
LINE
  5
1AB
  8
LAYER_01
 10
247.6319805839029
 20
6.082288669470014
 30
0.0
 11
247.9936006065832
 21
5.639445306780004
 31
0.0
  0
LINE
  5
1AC
  8
LAYER_01
 10
247.9936006065832
 20
5.639445306780004
 30
0.0
 11
248.3513071974476
 21
5.181663446343436
 31
0.0
  0
LINE
  5
1AD
  8
LAYER_01
 10
248.3513071974476
 20
5.181663446343436
 30
0.0
 11
248.7051647938094
 21
4.708885527889203
 31
0.0
  0
LINE
  5
1AE
  8
LAYER_01
 10
248.7051647938094
 20
4.708885527889203
 30
0.0
 11
249.055237832982
 21
4.221053991146199
 31
0.0
  0
LINE
  5
1AF
  8
LAYER_01
 10
249.055237832982
 20
4.221053991146199
 30
0.0
 11
249.4015907522788
 21
3.718111275843318
 31
0.0
  0
LINE
  5
1B0
  8
LAYER_01
 10
249.4015907522788
 20
3.718111275843318
 30
0.0
 11
249.7442879890131
 21
3.199999821709457
 31
0.0
  0
LINE
  5
1B1
  8
LAYER_01
 10
249.7442879890131
 20
3.199999821709457
 30
0.0
 11
250.4189731640484
 21
2.118040455864364
 31
0.0
  0
LINE
  5
1B2
  8
LAYER_01
 10
250.4189731640484
 20
2.118040455864364
 30
0.0
 11
251.0798088565948
 21
0.9747154114420766
 31
0.0
  0
LINE
  5
1B3
  8
LAYER_01
 10
251.0798088565948
 20
0.9747154114420766
 30
0.0
 11
251.7721857096593
 21
-0.3766487315074585
 31
0.0
  0
ARC
  5
1B4
  8
LAYER_01
 10
-249.9443878166078
 20
1.645045293957299
 30
0.0
 40
2.725452599192156
 50
227.8835102006242
 51
248.4474002749178
210
0.0
220
0.0
230
-1.0
  0
ARC
  5
1B5
  8
LAYER_01
 10
261.9834428140628
 20
-21.59902453249159
 30
0.0
 40
23.46708610304832
 50
118.0572997794189
 51
129.8852663776983
  0
LINE
  5
1B6
  8
LAYER_01
 10
246.9351190859189
 20
-3.592023584502897
 30
0.0
 11
246.0166862537014
 21
-4.331715200871116
 31
0.0
  0
LINE
  5
1B7
  8
LAYER_01
 10
246.0166862537014
 20
-4.331715200871116
 30
0.0
 11
245.1962995674727
 21
-2.833222133723211
 31
0.0
  0
ARC
  5
1B8
  8
LAYER_01
 10
188.1715234095934
 20
-31.81565317200283
 30
0.0
 40
63.96722914700055
 50
26.94162555350259
 51
42.67999116345335
  0
LINE
  5
1B9
  8
LAYER_01
 10
235.1971200193508
 20
11.54792219075119
 30
0.0
 11
234.2013157075973
 21
12.59992345797082
 31
0.0
  0
LINE
  5
1BA
  8
LAYER_01
 10
234.2013157075973
 20
12.59992345797082
 30
0.0
 11
235.792376388681
 21
12.53407647350235
 31
0.0
  0
ARC
  5
1BB
  8
LAYER_01
 10
-235.5303661600803
 20
0.1429730118734458
 30
0.0
 40
12.39387325885993
 50
91.21134034375017
 51
104.1291775899877
210
0.0
220
0.0
230
-1.0
  0
ARC
  5
1BC
  8
LAYER_01
 10
-239.5263352112856
 20
-12.01491550650175
 30
0.0
 40
24.44702976469246
 50
112.3219137491614
 51
144.0423147173462
210
0.0
220
0.0
230
-1.0
  0
LINE
  5
1BD
  8
LAYER_01
 10
259.3150047578839
 20
2.340077419003038
 30
0.0
 11
259.9871234925102
 21
1.360415731304414
 31
0.0
  0
LINE
  5
1BE
  8
LAYER_01
 10
259.9871234925102
 20
1.360415731304414
 30
0.0
 11
258.4206437725928
 21
1.209879907178646
 31
0.0
  0
ARC
  5
1BF
  8
LAYER_01
 10
260.6073078444689
 20
-23.68654161777561
 30
0.0
 40
24.99226489359136
 50
95.01943396970654
 51
103.4371009556007
  0
LINE
  5
1C0
  8
LAYER_01
 10
254.7996613072913
 20
0.6215752613791494
 30
0.0
 11
254.7754728860461
 21
0.6157452513456793
 31
0.0
  0
LINE
  5
1C1
  8
LAYER_01
 10
254.7754728860461
 20
0.6157452513456793
 30
0.0
 11
254.7524015045059
 21
0.6107370490527125
 31
0.0
  0
LINE
  5
1C2
  8
LAYER_01
 10
254.7524015045059
 20
0.6107370490527125
 30
0.0
 11
254.7303758201793
 21
0.6066224588625779
 31
0.0
  0
LINE
  5
1C3
  8
LAYER_01
 10
254.7303758201793
 20
0.6066224588625779
 30
0.0
 11
254.7197328199424
 21
0.6049227071693004
 31
0.0
  0
LINE
  5
1C4
  8
LAYER_01
 10
254.7197328199424
 20
0.6049227071693004
 30
0.0
 11
254.7093244905744
 21
0.6034732851376042
 31
0.0
  0
LINE
  5
1C5
  8
LAYER_01
 10
254.7093244905744
 20
0.6034732851376042
 30
0.0
 11
254.699141914264
 21
0.6022831683127803
 31
0.0
  0
LINE
  5
1C6
  8
LAYER_01
 10
254.699141914264
 20
0.6022831683127803
 30
0.0
 11
254.6891761731997
 21
0.6013613322401199
 31
0.0
  0
LINE
  5
1C7
  8
LAYER_01
 10
254.6891761731997
 20
0.6013613322401199
 30
0.0
 11
254.6794183495701
 21
0.6007167524649141
 31
0.0
  0
LINE
  5
1C8
  8
LAYER_01
 10
254.6794183495701
 20
0.6007167524649141
 30
0.0
 11
254.6698595255635
 21
0.6003584045324537
 31
0.0
  0
LINE
  5
1C9
  8
LAYER_01
 10
254.6698595255635
 20
0.6003584045324537
 30
0.0
 11
254.6604907833687
 21
0.6002952639880301
 31
0.0
  0
LINE
  5
1CA
  8
LAYER_01
 10
254.6604907833687
 20
0.6002952639880301
 30
0.0
 11
254.6513032051741
 21
0.6005363063769343
 31
0.0
  0
LINE
  5
1CB
  8
LAYER_01
 10
254.6513032051741
 20
0.6005363063769343
 30
0.0
 11
254.6467745657608
 21
0.6007737010292877
 31
0.0
  0
LINE
  5
1CC
  8
LAYER_01
 10
254.6467745657608
 20
0.6007737010292877
 30
0.0
 11
254.6422878731684
 21
0.6010905072444575
 31
0.0
  0
LINE
  5
1CD
  8
LAYER_01
 10
254.6422878731684
 20
0.6010905072444575
 30
0.0
 11
254.6378420126702
 21
0.6014878469656045
 31
0.0
  0
LINE
  5
1CE
  8
LAYER_01
 10
254.6378420126702
 20
0.6014878469656045
 30
0.0
 11
254.6334358695399
 21
0.6019668421358906
 31
0.0
  0
LINE
  5
1CF
  8
LAYER_01
 10
254.6334358695399
 20
0.6019668421358906
 30
0.0
 11
254.6290683290511
 21
0.602528614698477
 31
0.0
  0
LINE
  5
1D0
  8
LAYER_01
 10
254.6290683290511
 20
0.602528614698477
 30
0.0
 11
254.6247382764773
 21
0.6031742865965248
 31
0.0
  0
LINE
  5
1D1
  8
LAYER_01
 10
254.6247382764773
 20
0.6031742865965248
 30
0.0
 11
254.6204445970921
 21
0.6039049797731957
 31
0.0
  0
LINE
  5
1D2
  8
LAYER_01
 10
254.6204445970921
 20
0.6039049797731957
 30
0.0
 11
254.6161861761691
 21
0.604721816171651
 31
0.0
  0
LINE
  5
1D3
  8
LAYER_01
 10
254.6161861761691
 20
0.604721816171651
 30
0.0
 11
254.6119618989818
 21
0.6056259177350521
 31
0.0
  0
LINE
  5
1D4
  8
LAYER_01
 10
254.6119618989818
 20
0.6056259177350521
 30
0.0
 11
254.6077706508039
 21
0.6066184064065605
 31
0.0
  0
LINE
  5
1D5
  8
LAYER_01
 10
254.6077706508039
 20
0.6066184064065605
 30
0.0
 11
254.6036113169088
 21
0.6077004041293375
 31
0.0
  0
LINE
  5
1D6
  8
LAYER_01
 10
254.6036113169088
 20
0.6077004041293375
 30
0.0
 11
254.5994827825701
 21
0.6088730328465443
 31
0.0
  0
LINE
  5
1D7
  8
LAYER_01
 10
254.5994827825701
 20
0.6088730328465443
 30
0.0
 11
254.5953839330615
 21
0.6101374145013424
 31
0.0
  0
LINE
  5
1D8
  8
LAYER_01
 10
254.5953839330615
 20
0.6101374145013424
 30
0.0
 11
254.5913136536564
 21
0.6114946710368934
 31
0.0
  0
LINE
  5
1D9
  8
LAYER_01
 10
254.5913136536564
 20
0.6114946710368934
 30
0.0
 11
254.5872708296285
 21
0.6129459243963585
 31
0.0
  0
LINE
  5
1DA
  8
LAYER_01
 10
254.5872708296285
 20
0.6129459243963585
 30
0.0
 11
254.5832543462513
 21
0.6144922965228992
 31
0.0
  0
LINE
  5
1DB
  8
LAYER_01
 10
254.5832543462513
 20
0.6144922965228992
 30
0.0
 11
254.5792630887984
 21
0.6161349093596766
 31
0.0
  0
LINE
  5
1DC
  8
LAYER_01
 10
254.5792630887984
 20
0.6161349093596766
 30
0.0
 11
254.5752959425433
 21
0.6178748848498523
 31
0.0
  0
LINE
  5
1DD
  8
LAYER_01
 10
254.5752959425433
 20
0.6178748848498523
 30
0.0
 11
254.5713517927597
 21
0.6197133449365878
 31
0.0
  0
LINE
  5
1DE
  8
LAYER_01
 10
254.5713517927597
 20
0.6197133449365878
 30
0.0
 11
254.567429524721
 21
0.6216514115630443
 31
0.0
  0
LINE
  5
1DF
  8
LAYER_01
 10
254.567429524721
 20
0.6216514115630443
 30
0.0
 11
254.5635280237008
 21
0.6236902066723831
 31
0.0
  0
LINE
  5
1E0
  8
LAYER_01
 10
254.5635280237008
 20
0.6236902066723831
 30
0.0
 11
254.5596461749728
 21
0.6258308522077658
 31
0.0
  0
LINE
  5
1E1
  8
LAYER_01
 10
254.5596461749728
 20
0.6258308522077658
 30
0.0
 11
254.5557828638105
 21
0.6280744701123538
 31
0.0
  0
LINE
  5
1E2
  8
LAYER_01
 10
254.5557828638105
 20
0.6280744701123538
 30
0.0
 11
254.5519369754874
 21
0.6304221823293084
 31
0.0
  0
LINE
  5
1E3
  8
LAYER_01
 10
254.5519369754874
 20
0.6304221823293084
 30
0.0
 11
254.5481073952772
 21
0.6328751108017908
 31
0.0
  0
LINE
  5
1E4
  8
LAYER_01
 10
254.5481073952772
 20
0.6328751108017908
 30
0.0
 11
254.5442930084533
 21
0.6354343774729627
 31
0.0
  0
LINE
  5
1E5
  8
LAYER_01
 10
254.5442930084533
 20
0.6354343774729627
 30
0.0
 11
254.5404927002894
 21
0.6381011042859854
 31
0.0
  0
LINE
  5
1E6
  8
LAYER_01
 10
254.5404927002894
 20
0.6381011042859854
 30
0.0
 11
254.5367053560591
 21
0.6408764131840201
 31
0.0
  0
LINE
  5
1E7
  8
LAYER_01
 10
254.5367053560591
 20
0.6408764131840201
 30
0.0
 11
254.5329298610358
 21
0.6437614261102284
 31
0.0
  0
LINE
  5
1E8
  8
LAYER_01
 10
254.5329298610358
 20
0.6437614261102284
 30
0.0
 11
254.5291651004932
 21
0.6467572650077715
 31
0.0
  0
LINE
  5
1E9
  8
LAYER_01
 10
254.5291651004932
 20
0.6467572650077715
 30
0.0
 11
254.5254099597048
 21
0.649865051819811
 31
0.0
  0
LINE
  5
1EA
  8
LAYER_01
 10
254.5254099597048
 20
0.649865051819811
 30
0.0
 11
254.5216633239442
 21
0.6530859084895081
 31
0.0
  0
LINE
  5
1EB
  8
LAYER_01
 10
254.5216633239442
 20
0.6530859084895081
 30
0.0
 11
254.5179240784849
 21
0.6564209569600242
 31
0.0
  0
LINE
  5
1EC
  8
LAYER_01
 10
254.5179240784849
 20
0.6564209569600242
 30
0.0
 11
254.5141911086006
 21
0.6598713191745209
 31
0.0
  0
LINE
  5
1ED
  8
LAYER_01
 10
254.5141911086006
 20
0.6598713191745209
 30
0.0
 11
254.5067395366511
 21
0.6671224726081011
 31
0.0
  0
LINE
  5
1EE
  8
LAYER_01
 10
254.5067395366511
 20
0.6671224726081011
 30
0.0
 11
254.4992996902841
 21
0.6748483443355398
 31
0.0
  0
LINE
  5
1EF
  8
LAYER_01
 10
254.4992996902841
 20
0.6748483443355398
 30
0.0
 11
254.4918626516881
 21
0.6830579099021278
 31
0.0
  0
LINE
  5
1F0
  8
LAYER_01
 10
254.4918626516881
 20
0.6830579099021278
 30
0.0
 11
254.4844195030518
 21
0.6917601448531565
 31
0.0
  0
LINE
  5
1F1
  8
LAYER_01
 10
254.4844195030518
 20
0.6917601448531565
 30
0.0
 11
254.4769613265637
 21
0.7009640247339168
 31
0.0
  0
LINE
  5
1F2
  8
LAYER_01
 10
254.4769613265637
 20
0.7009640247339168
 30
0.0
 11
254.4694792044123
 21
0.7106785250896999
 31
0.0
  0
LINE
  5
1F3
  8
LAYER_01
 10
254.4694792044123
 20
0.7106785250896999
 30
0.0
 11
254.461964218786
 21
0.7209126214657968
 31
0.0
  0
LINE
  5
1F4
  8
LAYER_01
 10
254.461964218786
 20
0.7209126214657968
 30
0.0
 11
254.4544074518736
 21
0.7316752894074987
 31
0.0
  0
LINE
  5
1F5
  8
LAYER_01
 10
254.4544074518736
 20
0.7316752894074987
 30
0.0
 11
254.4467999858635
 21
0.7429755044600967
 31
0.0
  0
LINE
  5
1F6
  8
LAYER_01
 10
254.4467999858635
 20
0.7429755044600967
 30
0.0
 11
254.4313972853045
 21
0.767224478079145
 31
0.0
  0
LINE
  5
1F7
  8
LAYER_01
 10
254.4313972853045
 20
0.767224478079145
 30
0.0
 11
254.4156847746173
 21
0.7937313466852702
 31
0.0
  0
LINE
  5
1F8
  8
LAYER_01
 10
254.4156847746173
 20
0.7937313466852702
 30
0.0
 11
254.3995911113103
 21
0.8225679146408013
 31
0.0
  0
LINE
  5
1F9
  8
LAYER_01
 10
254.3995911113103
 20
0.8225679146408013
 30
0.0
 11
254.3830449528917
 21
0.8538059863080669
 31
0.0
  0
LINE
  5
1FA
  8
LAYER_01
 10
254.3830449528917
 20
0.8538059863080669
 30
0.0
 11
254.3483097807533
 21
0.9237738582271162
 31
0.0
  0
LINE
  5
1FB
  8
LAYER_01
 10
254.3483097807533
 20
0.9237738582271162
 30
0.0
 11
254.3109085182689
 21
1.004209397341048
 31
0.0
  0
LINE
  5
1FC
  8
LAYER_01
 10
254.3109085182689
 20
1.004209397341048
 30
0.0
 11
254.2258247625285
 21
1.198781216748074
 31
0.0
  0
ARC
  5
1FD
  8
LAYER_01
 10
217.6380306991955
 20
-16.49448701761294
 30
0.0
 40
40.64133874805201
 50
25.80766317801109
 51
36.90792251516029
  0
LINE
  5
1FE
  8
LAYER_01
 10
250.1349113405234
 20
7.911888457192845
 30
0.0
 11
248.3677989552706
 21
9.96304956183829
 31
0.0
  0
ARC
  5
1FF
  8
LAYER_01
 10
-258.9678105628187
 20
20.17916583733347
 30
0.0
 40
14.72172808588008
 50
316.0565408349721
 51
322.5053602775687
210
0.0
220
0.0
230
-1.0
  0
LINE
  5
200
  8
LAYER_01
 10
247.2874400248867
 20
11.21823832221537
 30
0.0
 11
248.8115614400417
 21
10.60016437831358
 31
0.0
  0
ARC
  5
201
  8
LAYER_01
 10
-235.9007865096216
 20
-15.90894974035078
 30
0.0
 40
35.97040058372092
 50
136.9595506484877
 51
151.2693259498564
210
0.0
220
0.0
230
-1.0
  0
LINE
  5
202
  8
LAYER_01
 10
267.4428330942823
 20
1.381770759513998
 30
0.0
 11
268.1476832462251
 21
0.0
 31
0.0
  0
LINE
  5
203
  8
LAYER_01
 10
268.1476832462251
 20
0.0
 30
0.0
 11
266.4527447469498
 21
0.3696747920826056
 31
0.0
  0
LINE
  5
204
  8
LAYER_01
 10
266.4527447469498
 20
0.3696747920826056
 30
0.0
 11
264.2377506798938
 21
0.8767062919436341
 31
0.0
  0
LINE
  5
205
  8
LAYER_01
 10
264.2377506798938
 20
0.8767062919436341
 30
0.0
 11
263.4880059086114
 21
1.097962712307435
 31
0.0
  0
ARC
  5
206
  8
LAYER_01
 10
-267.6868502233355
 20
3.235401339937113
 30
0.0
 40
4.711574839284042
 50
333.0214473191488
 51
350.5587595565574
210
0.0
220
0.0
230
-1.0
  0
ARC
  5
207
  8
LAYER_01
 10
220.4349488458451
 20
-8.010973436412627
 30
0.0
 40
43.87263111374366
 50
13.81131833570665
 51
22.31022909803945
  0
LINE
  5
208
  8
LAYER_01
 10
261.023360731537
 20
8.644013247462283
 30
0.0
 11
260.3609383090258
 21
10.24590880523405
 31
0.0
  0
LINE
  5
209
  8
LAYER_01
 10
260.3609383090258
 20
10.24590880523405
 30
0.0
 11
260.8730146681734
 21
9.844259324727986
 31
0.0
  0
LINE
  5
20A
  8
LAYER_01
 10
260.8730146681734
 20
9.844259324727986
 30
0.0
 11
262.190546781386
 21
8.641370481725886
 31
0.0
  0
ARC
  5
20B
  8
LAYER_01
 10
-226.1809687434911
 20
-3.209584343275708
 30
0.0
 40
32.83914202485764
 50
124.4006563250713
 51
148.4494187252056
210
0.0
220
0.0
230
-1.0
  0
ARC
  5
20C
  8
LAYER_01
 10
-204.1791353367497
 20
-15.1603268482569
 30
0.0
 40
57.85712190541574
 50
149.7649631880929
 51
156.0060651744169
210
0.0
220
0.0
230
-1.0
  0
ARC
  5
20D
  8
LAYER_01
 10
-259.3423014374098
 20
12.6293316895423
 30
0.0
 40
4.846209435875435
 50
298.4079282344994
 51
313.1556217187015
210
0.0
220
0.0
230
-1.0
  0
ARC
  5
20E
  8
LAYER_01
 10
240.9088526806023
 20
-9.571594600983625
 30
0.0
 40
24.02043726214215
 50
50.99331964476051
 51
75.93419558828394
  0
LINE
  5
20F
  8
LAYER_01
 10
246.746686649097
 20
13.72864361283719
 30
0.0
 11
245.8235144261369
 21
13.94488294378201
 31
0.0
  0
LINE
  5
210
  8
LAYER_01
 10
245.8235144261369
 20
13.94488294378201
 30
0.0
 11
245.4186667825418
 21
15.67361274365504
 31
0.0
  0
ARC
  5
211
  8
LAYER_01
 10
189.5612700428031
 20
1.621706918683429
 30
0.0
 40
57.59778492142249
 50
14.12074053330666
 51
22.48303250955285
  0
LINE
  5
212
  8
LAYER_01
 10
242.781209719189
 20
23.64766543803717
 30
0.0
 11
242.0081012326049
 21
25.41704106750197
 31
0.0
  0
LINE
  5
213
  8
LAYER_01
 10
242.0081012326049
 20
25.41704106750197
 30
0.0
 11
242.0069514173582
 21
25.4197665084298
 31
0.0
  0
LINE
  5
214
  8
LAYER_01
 10
242.0069514173582
 20
25.4197665084298
 30
0.0
 11
242.005914642887
 21
25.42241216219881
 31
0.0
  0
LINE
  5
215
  8
LAYER_01
 10
242.005914642887
 20
25.42241216219881
 30
0.0
 11
242.0049906670768
 21
25.42497816476658
 31
0.0
  0
LINE
  5
216
  8
LAYER_01
 10
242.0049906670768
 20
25.42497816476658
 30
0.0
 11
242.0041792478129
 21
25.42746465209063
 31
0.0
  0
LINE
  5
217
  8
LAYER_01
 10
242.0041792478129
 20
25.42746465209063
 30
0.0
 11
242.0034801429806
 21
25.42987176012853
 31
0.0
  0
LINE
  5
218
  8
LAYER_01
 10
242.0034801429806
 20
25.42987176012853
 30
0.0
 11
242.0028931104653
 21
25.43219962483781
 31
0.0
  0
LINE
  5
219
  8
LAYER_01
 10
242.0028931104653
 20
25.43219962483781
 30
0.0
 11
242.0024179081524
 21
25.43444838217602
 31
0.0
  0
LINE
  5
21A
  8
LAYER_01
 10
242.0024179081524
 20
25.43444838217602
 30
0.0
 11
242.0020542939272
 21
25.43661816810072
 31
0.0
  0
LINE
  5
21B
  8
LAYER_01
 10
242.0020542939272
 20
25.43661816810072
 30
0.0
 11
242.0018020256751
 21
25.43870911856946
 31
0.0
  0
LINE
  5
21C
  8
LAYER_01
 10
242.0018020256751
 20
25.43870911856946
 30
0.0
 11
242.0016608612814
 21
25.44072136953977
 31
0.0
  0
LINE
  5
21D
  8
LAYER_01
 10
242.0016608612814
 20
25.44072136953977
 30
0.0
 11
242.0016305586315
 21
25.44265505696922
 31
0.0
  0
LINE
  5
21E
  8
LAYER_01
 10
242.0016305586315
 20
25.44265505696922
 30
0.0
 11
242.0017108756108
 21
25.44451031681534
 31
0.0
  0
LINE
  5
21F
  8
LAYER_01
 10
242.0017108756108
 20
25.44451031681534
 30
0.0
 11
242.0019015701046
 21
25.44628728503569
 31
0.0
  0
LINE
  5
220
  8
LAYER_01
 10
242.0019015701046
 20
25.44628728503569
 30
0.0
 11
242.0022023999982
 21
25.44798609758781
 31
0.0
  0
LINE
  5
221
  8
LAYER_01
 10
242.0022023999982
 20
25.44798609758781
 30
0.0
 11
242.0026131231771
 21
25.44960689042927
 31
0.0
  0
LINE
  5
222
  8
LAYER_01
 10
242.0026131231771
 20
25.44960689042927
 30
0.0
 11
242.0031334975266
 21
25.45114979951759
 31
0.0
  0
LINE
  5
223
  8
LAYER_01
 10
242.0031334975266
 20
25.45114979951759
 30
0.0
 11
242.0037632809321
 21
25.45261496081033
 31
0.0
  0
LINE
  5
224
  8
LAYER_01
 10
242.0037632809321
 20
25.45261496081033
 30
0.0
 11
242.0045022312789
 21
25.45400251026504
 31
0.0
  0
LINE
  5
225
  8
LAYER_01
 10
242.0045022312789
 20
25.45400251026504
 30
0.0
 11
242.0053501064523
 21
25.45531258383927
 31
0.0
  0
LINE
  5
226
  8
LAYER_01
 10
242.0053501064523
 20
25.45531258383927
 30
0.0
 11
242.0063066643379
 21
25.45654531749057
 31
0.0
  0
LINE
  5
227
  8
LAYER_01
 10
242.0063066643379
 20
25.45654531749057
 30
0.0
 11
242.0073716628208
 21
25.45770084717648
 31
0.0
  0
LINE
  5
228
  8
LAYER_01
 10
242.0073716628208
 20
25.45770084717648
 30
0.0
 11
242.0085448597864
 21
25.45877930885455
 31
0.0
  0
LINE
  5
229
  8
LAYER_01
 10
242.0085448597864
 20
25.45877930885455
 30
0.0
 11
242.0098260131202
 21
25.45978083848235
 31
0.0
  0
LINE
  5
22A
  8
LAYER_01
 10
242.0098260131202
 20
25.45978083848235
 30
0.0
 11
242.0112148807075
 21
25.46070557201739
 31
0.0
  0
LINE
  5
22B
  8
LAYER_01
 10
242.0112148807075
 20
25.46070557201739
 30
0.0
 11
242.0127112204335
 21
25.46155364541724
 31
0.0
  0
LINE
  5
22C
  8
LAYER_01
 10
242.0127112204335
 20
25.46155364541724
 30
0.0
 11
242.0143147901838
 21
25.46232519463945
 31
0.0
  0
LINE
  5
22D
  8
LAYER_01
 10
242.0143147901838
 20
25.46232519463945
 30
0.0
 11
242.0160253478437
 21
25.46302035564158
 31
0.0
  0
LINE
  5
22E
  8
LAYER_01
 10
242.0160253478437
 20
25.46302035564158
 30
0.0
 11
242.0178426512984
 21
25.46363926438114
 31
0.0
  0
LINE
  5
22F
  8
LAYER_01
 10
242.0178426512984
 20
25.46363926438114
 30
0.0
 11
242.0197664584334
 21
25.46418205681572
 31
0.0
  0
LINE
  5
230
  8
LAYER_01
 10
242.0197664584334
 20
25.46418205681572
 30
0.0
 11
242.0217965271341
 21
25.46464886890284
 31
0.0
  0
LINE
  5
231
  8
LAYER_01
 10
242.0217965271341
 20
25.46464886890284
 30
0.0
 11
242.0239326152857
 21
25.46503983660007
 31
0.0
  0
LINE
  5
232
  8
LAYER_01
 10
242.0239326152857
 20
25.46503983660007
 30
0.0
 11
242.0261744807737
 21
25.46535509586494
 31
0.0
  0
LINE
  5
233
  8
LAYER_01
 10
242.0261744807737
 20
25.46535509586494
 30
0.0
 11
242.0285218814834
 21
25.46559478265501
 31
0.0
  0
LINE
  5
234
  8
LAYER_01
 10
242.0285218814834
 20
25.46559478265501
 30
0.0
 11
242.0309745753002
 21
25.46575903292783
 31
0.0
  0
LINE
  5
235
  8
LAYER_01
 10
242.0309745753002
 20
25.46575903292783
 30
0.0
 11
242.0335323201094
 21
25.46584798264093
 31
0.0
  0
LINE
  5
236
  8
LAYER_01
 10
242.0335323201094
 20
25.46584798264093
 30
0.0
 11
242.0361948737964
 21
25.46586176775188
 31
0.0
  0
LINE
  5
237
  8
LAYER_01
 10
242.0361948737964
 20
25.46586176775188
 30
0.0
 11
242.0389619942466
 21
25.46580052421822
 31
0.0
  0
LINE
  5
238
  8
LAYER_01
 10
242.0389619942466
 20
25.46580052421822
 30
0.0
 11
242.0418334393453
 21
25.4656643879975
 31
0.0
  0
LINE
  5
239
  8
LAYER_01
 10
242.0418334393453
 20
25.4656643879975
 30
0.0
 11
242.0448089669778
 21
25.46545349504726
 31
0.0
  0
LINE
  5
23A
  8
LAYER_01
 10
242.0448089669778
 20
25.46545349504726
 30
0.0
 11
242.0478883350296
 21
25.46516798132507
 31
0.0
  0
LINE
  5
23B
  8
LAYER_01
 10
242.0478883350296
 20
25.46516798132507
 30
0.0
 11
242.0510713013859
 21
25.46480798278845
 31
0.0
  0
LINE
  5
23C
  8
LAYER_01
 10
242.0510713013859
 20
25.46480798278845
 30
0.0
 11
242.0543576239322
 21
25.46437363539497
 31
0.0
  0
LINE
  5
23D
  8
LAYER_01
 10
242.0543576239322
 20
25.46437363539497
 30
0.0
 11
242.0612393691361
 21
25.46328243786759
 31
0.0
  0
LINE
  5
23E
  8
LAYER_01
 10
242.0612393691361
 20
25.46328243786759
 30
0.0
 11
242.0685316337241
 21
25.46189547640333
 31
0.0
  0
LINE
  5
23F
  8
LAYER_01
 10
242.0685316337241
 20
25.46189547640333
 30
0.0
 11
242.0762324807792
 21
25.46021383866257
 31
0.0
  0
LINE
  5
240
  8
LAYER_01
 10
242.0762324807792
 20
25.46021383866257
 30
0.0
 11
242.084339973384
 21
25.4582386123057
 31
0.0
  0
LINE
  5
241
  8
LAYER_01
 10
242.084339973384
 20
25.4582386123057
 30
0.0
 11
242.0928521746216
 21
25.4559708849931
 31
0.0
  0
LINE
  5
242
  8
LAYER_01
 10
242.0928521746216
 20
25.4559708849931
 30
0.0
 11
242.1110829553266
 21
25.45056227814228
 31
0.0
  0
LINE
  5
243
  8
LAYER_01
 10
242.1110829553266
 20
25.45056227814228
 30
0.0
 11
242.1309093275571
 21
25.44399671939321
 31
0.0
  0
LINE
  5
244
  8
LAYER_01
 10
242.1309093275571
 20
25.44399671939321
 30
0.0
 11
242.1523157959761
 21
25.436282910029
 31
0.0
  0
LINE
  5
245
  8
LAYER_01
 10
242.1523157959761
 20
25.436282910029
 30
0.0
 11
242.1752868652466
 21
25.42742955133275
 31
0.0
  0
LINE
  5
246
  8
LAYER_01
 10
242.1752868652466
 20
25.42742955133275
 30
0.0
 11
242.1998070400316
 21
25.41744534458756
 31
0.0
  0
LINE
  5
247
  8
LAYER_01
 10
242.1998070400316
 20
25.41744534458756
 30
0.0
 11
242.2534327247974
 21
25.39411919208275
 31
0.0
  0
LINE
  5
248
  8
LAYER_01
 10
242.2534327247974
 20
25.39411919208275
 30
0.0
 11
242.3130688875777
 21
25.36637406277942
 31
0.0
  0
LINE
  5
249
  8
LAYER_01
 10
242.3130688875777
 20
25.36637406277942
 30
0.0
 11
242.3785915656765
 21
25.33427956694236
 31
0.0
  0
LINE
  5
24A
  8
LAYER_01
 10
242.3785915656765
 20
25.33427956694236
 30
0.0
 11
242.5268006170461
 21
25.25732091672634
 31
0.0
  0
LINE
  5
24B
  8
LAYER_01
 10
242.5268006170461
 20
25.25732091672634
 30
0.0
 11
242.6970681773396
 21
25.16380012355324
 31
0.0
  0
LINE
  5
24C
  8
LAYER_01
 10
242.6970681773396
 20
25.16380012355324
 30
0.0
 11
243.0998120184301
 21
24.92929963680984
 31
0.0
  0
LINE
  5
24D
  8
LAYER_01
 10
243.0998120184301
 20
24.92929963680984
 30
0.0
 11
243.5788894764125
 21
24.63523316366038
 31
0.0
  0
LINE
  5
24E
  8
LAYER_01
 10
243.5788894764125
 20
24.63523316366038
 30
0.0
 11
244.734310792912
 21
23.88622248593616
 31
0.0
  0
ARC
  5
24F
  8
LAYER_01
 10
-236.2110827340819
 20
18.8302389965589
 30
0.0
 40
20.70055525509256
 50
139.3401294276124
 51
174.1313937136279
210
0.0
220
0.0
230
-1.0
  0
ARC
  5
250
  8
LAYER_01
 10
-240.1257663443487
 20
19.21575695770881
 30
0.0
 40
16.76697867761463
 50
174.0740904865139
 51
188.9408067588571
210
0.0
220
0.0
230
-1.0
  0
LINE
  5
251
  8
LAYER_01
 10
256.6890166498634
 20
16.60993399893925
 30
0.0
 11
256.0581963367181
 21
17.37489202937314
 31
0.0
  0
ARC
  5
252
  8
LAYER_01
 10
229.1657460495007
 20
-2.579234457239636
 30
0.0
 40
33.48687871830101
 50
36.57531660607408
 51
44.94315397559698
  0
LINE
  5
253
  8
LAYER_01
 10
252.8680263412484
 20
21.07605998746408
 30
0.0
 11
251.6733712639995
 21
22.30063246877609
 31
0.0
  0
LINE
  5
254
  8
LAYER_01
 10
251.6733712639995
 20
22.30063246877609
 30
0.0
 11
251.6127218730896
 21
25.60698233379861
 31
0.0
  0
ARC
  5
255
  8
LAYER_01
 10
213.8278467229735
 20
25.85375090418285
 30
0.0
 40
37.78568094976179
 50
359.625813330586
 51
10.5055685101289
  0
LINE
  5
256
  8
LAYER_01
 10
250.9801335450384
 20
32.74325514819128
 30
0.0
 11
250.9208229835607
 21
33.04460114140144
 31
0.0
  0
LINE
  5
257
  8
LAYER_01
 10
250.9208229835607
 20
33.04460114140144
 30
0.0
 11
250.9104697893851
 21
33.10565322378223
 31
0.0
  0
LINE
  5
258
  8
LAYER_01
 10
250.9104697893851
 20
33.10565322378223
 30
0.0
 11
250.9022073981031
 21
33.1608545294641
 31
0.0
  0
LINE
  5
259
  8
LAYER_01
 10
250.9022073981031
 20
33.1608545294641
 30
0.0
 11
250.8961863219225
 21
33.21013655328196
 31
0.0
  0
LINE
  5
25A
  8
LAYER_01
 10
250.8961863219225
 20
33.21013655328196
 30
0.0
 11
250.8940633120603
 21
33.2325364266278
 31
0.0
  0
LINE
  5
25B
  8
LAYER_01
 10
250.8940633120603
 20
33.2325364266278
 30
0.0
 11
250.8925570730515
 21
33.25343079007071
 31
0.0
  0
LINE
  5
25C
  8
LAYER_01
 10
250.8925570730515
 20
33.25343079007071
 30
0.0
 11
250.891686418922
 21
33.27281108046508
 31
0.0
  0
LINE
  5
25D
  8
LAYER_01
 10
250.891686418922
 20
33.27281108046508
 30
0.0
 11
250.8914953155702
 21
33.28193077228604
 31
0.0
  0
LINE
  5
25E
  8
LAYER_01
 10
250.8914953155702
 20
33.28193077228604
 30
0.0
 11
250.8914701636979
 21
33.29066873466525
 31
0.0
  0
LINE
  5
25F
  8
LAYER_01
 10
250.8914701636979
 20
33.29066873466525
 30
0.0
 11
250.8916133150585
 21
33.29902389720949
 31
0.0
  0
LINE
  5
260
  8
LAYER_01
 10
250.8916133150585
 20
33.29902389720949
 30
0.0
 11
250.8919271214052
 21
33.30699518952558
 31
0.0
  0
LINE
  5
261
  8
LAYER_01
 10
250.8919271214052
 20
33.30699518952558
 30
0.0
 11
250.8924139344912
 21
33.31458154122031
 31
0.0
  0
LINE
  5
262
  8
LAYER_01
 10
250.8924139344912
 20
33.31458154122031
 30
0.0
 11
250.8930761060698
 21
33.32178188190046
 31
0.0
  0
LINE
  5
263
  8
LAYER_01
 10
250.8930761060698
 20
33.32178188190046
 30
0.0
 11
250.8939159878943
 21
33.32859514117283
 31
0.0
  0
LINE
  5
264
  8
LAYER_01
 10
250.8939159878943
 20
33.32859514117283
 30
0.0
 11
250.8944033050716
 21
33.33185628078323
 31
0.0
  0
LINE
  5
265
  8
LAYER_01
 10
250.8944033050716
 20
33.33185628078323
 30
0.0
 11
250.8949359317178
 21
33.33502024864423
 31
0.0
  0
LINE
  5
266
  8
LAYER_01
 10
250.8949359317178
 20
33.33502024864423
 30
0.0
 11
250.8955141618021
 21
33.33808691095669
 31
0.0
  0
LINE
  5
267
  8
LAYER_01
 10
250.8955141618021
 20
33.33808691095669
 30
0.0
 11
250.8961382892937
 21
33.34105613392144
 31
0.0
  0
LINE
  5
268
  8
LAYER_01
 10
250.8961382892937
 20
33.34105613392144
 30
0.0
 11
250.8968086081616
 21
33.34392778373935
 31
0.0
  0
LINE
  5
269
  8
LAYER_01
 10
250.8968086081616
 20
33.34392778373935
 30
0.0
 11
250.8975254123752
 21
33.34670172661126
 31
0.0
  0
LINE
  5
26A
  8
LAYER_01
 10
250.8975254123752
 20
33.34670172661126
 30
0.0
 11
250.8982889959034
 21
33.34937782873801
 31
0.0
  0
LINE
  5
26B
  8
LAYER_01
 10
250.8982889959034
 20
33.34937782873801
 30
0.0
 11
250.8990996527155
 21
33.35195595632047
 31
0.0
  0
LINE
  5
26C
  8
LAYER_01
 10
250.8990996527155
 20
33.35195595632047
 30
0.0
 11
250.8999576767806
 21
33.35443597555949
 31
0.0
  0
LINE
  5
26D
  8
LAYER_01
 10
250.8999576767806
 20
33.35443597555949
 30
0.0
 11
250.9008633620679
 21
33.3568177526559
 31
0.0
  0
LINE
  5
26E
  8
LAYER_01
 10
250.9008633620679
 20
33.3568177526559
 30
0.0
 11
250.9018170025465
 21
33.35910115381056
 31
0.0
  0
LINE
  5
26F
  8
LAYER_01
 10
250.9018170025465
 20
33.35910115381056
 30
0.0
 11
250.9028188921856
 21
33.3612860452243
 31
0.0
  0
LINE
  5
270
  8
LAYER_01
 10
250.9028188921856
 20
33.3612860452243
 30
0.0
 11
250.9038693249544
 21
33.36337229309801
 31
0.0
  0
LINE
  5
271
  8
LAYER_01
 10
250.9038693249544
 20
33.36337229309801
 30
0.0
 11
250.904968594822
 21
33.36535976363251
 31
0.0
  0
LINE
  5
272
  8
LAYER_01
 10
250.904968594822
 20
33.36535976363251
 30
0.0
 11
250.9061169957575
 21
33.36724832302866
 31
0.0
  0
LINE
  5
273
  8
LAYER_01
 10
250.9061169957575
 20
33.36724832302866
 30
0.0
 11
250.9073148217302
 21
33.3690378374873
 31
0.0
  0
LINE
  5
274
  8
LAYER_01
 10
250.9073148217302
 20
33.3690378374873
 30
0.0
 11
250.9085623667091
 21
33.37072817320929
 31
0.0
  0
LINE
  5
275
  8
LAYER_01
 10
250.9085623667091
 20
33.37072817320929
 30
0.0
 11
250.9098599246634
 21
33.37231919639548
 31
0.0
  0
LINE
  5
276
  8
LAYER_01
 10
250.9098599246634
 20
33.37231919639548
 30
0.0
 11
250.9112077895624
 21
33.3738107732467
 31
0.0
  0
LINE
  5
277
  8
LAYER_01
 10
250.9112077895624
 20
33.3738107732467
 30
0.0
 11
250.9126062553751
 21
33.37520276996382
 31
0.0
  0
LINE
  5
278
  8
LAYER_01
 10
250.9126062553751
 20
33.37520276996382
 30
0.0
 11
250.9140556160706
 21
33.37649505274769
 31
0.0
  0
LINE
  5
279
  8
LAYER_01
 10
250.9140556160706
 20
33.37649505274769
 30
0.0
 11
250.9155561656182
 21
33.37768748779914
 31
0.0
  0
LINE
  5
27A
  8
LAYER_01
 10
250.9155561656182
 20
33.37768748779914
 30
0.0
 11
250.9171081979871
 21
33.37877994131904
 31
0.0
  0
LINE
  5
27B
  8
LAYER_01
 10
250.9171081979871
 20
33.37877994131904
 30
0.0
 11
250.9187120071463
 21
33.37977227950823
 31
0.0
  0
LINE
  5
27C
  8
LAYER_01
 10
250.9187120071463
 20
33.37977227950823
 30
0.0
 11
250.920367887065
 21
33.38066436856755
 31
0.0
  0
LINE
  5
27D
  8
LAYER_01
 10
250.920367887065
 20
33.38066436856755
 30
0.0
 11
250.9220761317124
 21
33.38145607469787
 31
0.0
  0
LINE
  5
27E
  8
LAYER_01
 10
250.9220761317124
 20
33.38145607469787
 30
0.0
 11
250.9238370350576
 21
33.38214726410003
 31
0.0
  0
LINE
  5
27F
  8
LAYER_01
 10
250.9238370350576
 20
33.38214726410003
 30
0.0
 11
250.9256508910698
 21
33.38273780297488
 31
0.0
  0
LINE
  5
280
  8
LAYER_01
 10
250.9256508910698
 20
33.38273780297488
 30
0.0
 11
250.9275179937182
 21
33.38322755752327
 31
0.0
  0
LINE
  5
281
  8
LAYER_01
 10
250.9275179937182
 20
33.38322755752327
 30
0.0
 11
250.9294386369719
 21
33.38361639394604
 31
0.0
  0
LINE
  5
282
  8
LAYER_01
 10
250.9294386369719
 20
33.38361639394604
 30
0.0
 11
250.9314131148
 21
33.38390417844406
 31
0.0
  0
LINE
  5
283
  8
LAYER_01
 10
250.9314131148
 20
33.38390417844406
 30
0.0
 11
250.9334417211718
 21
33.38409077721815
 31
0.0
  0
LINE
  5
284
  8
LAYER_01
 10
250.9334417211718
 20
33.38409077721815
 30
0.0
 11
250.9355247500563
 21
33.38417605646918
 31
0.0
  0
LINE
  5
285
  8
LAYER_01
 10
250.9355247500563
 20
33.38417605646918
 30
0.0
 11
250.9376624954227
 21
33.384159882398
 31
0.0
  0
LINE
  5
286
  8
LAYER_01
 10
250.9376624954227
 20
33.384159882398
 30
0.0
 11
250.9398552512403
 21
33.38404212120545
 31
0.0
  0
LINE
  5
287
  8
LAYER_01
 10
250.9398552512403
 20
33.38404212120545
 30
0.0
 11
250.942103311478
 21
33.38382263909239
 31
0.0
  0
LINE
  5
288
  8
LAYER_01
 10
250.942103311478
 20
33.38382263909239
 30
0.0
 11
250.9444069701052
 21
33.38350130225966
 31
0.0
  0
LINE
  5
289
  8
LAYER_01
 10
250.9444069701052
 20
33.38350130225966
 30
0.0
 11
250.9467665210909
 21
33.38307797690811
 31
0.0
  0
LINE
  5
28A
  8
LAYER_01
 10
250.9467665210909
 20
33.38307797690811
 30
0.0
 11
250.9491822584043
 21
33.38255252923859
 31
0.0
  0
LINE
  5
28B
  8
LAYER_01
 10
250.9491822584043
 20
33.38255252923859
 30
0.0
 11
250.9516544760147
 21
33.38192482545196
 31
0.0
  0
LINE
  5
28C
  8
LAYER_01
 10
250.9516544760147
 20
33.38192482545196
 30
0.0
 11
250.954183467891
 21
33.38119473174906
 31
0.0
  0
LINE
  5
28D
  8
LAYER_01
 10
250.954183467891
 20
33.38119473174906
 30
0.0
 11
250.9567695280024
 21
33.38036211433074
 31
0.0
  0
LINE
  5
28E
  8
LAYER_01
 10
250.9567695280024
 20
33.38036211433074
 30
0.0
 11
250.9594129503183
 21
33.37942683939784
 31
0.0
  0
LINE
  5
28F
  8
LAYER_01
 10
250.9594129503183
 20
33.37942683939784
 30
0.0
 11
250.9621140288076
 21
33.37838877315123
 31
0.0
  0
LINE
  5
290
  8
LAYER_01
 10
250.9621140288076
 20
33.37838877315123
 30
0.0
 11
250.9648730574396
 21
33.37724778179174
 31
0.0
  0
LINE
  5
291
  8
LAYER_01
 10
250.9648730574396
 20
33.37724778179174
 30
0.0
 11
250.9676903301833
 21
33.37600373152024
 31
0.0
  0
LINE
  5
292
  8
LAYER_01
 10
250.9676903301833
 20
33.37600373152024
 30
0.0
 11
250.970566141008
 21
33.37465648853757
 31
0.0
  0
LINE
  5
293
  8
LAYER_01
 10
250.970566141008
 20
33.37465648853757
 30
0.0
 11
250.9735007838829
 21
33.37320591904457
 31
0.0
  0
LINE
  5
294
  8
LAYER_01
 10
250.9735007838829
 20
33.37320591904457
 30
0.0
 11
250.976494552777
 21
33.37165188924209
 31
0.0
  0
LINE
  5
295
  8
LAYER_01
 10
250.976494552777
 20
33.37165188924209
 30
0.0
 11
250.9795477416595
 21
33.36999426533099
 31
0.0
  0
LINE
  5
296
  8
LAYER_01
 10
250.9795477416595
 20
33.36999426533099
 30
0.0
 11
250.9858335552665
 21
33.36636769998632
 31
0.0
  0
LINE
  5
297
  8
LAYER_01
 10
250.9858335552665
 20
33.36636769998632
 30
0.0
 11
250.9923605764571
 21
33.36232515261734
 31
0.0
  0
LINE
  5
298
  8
LAYER_01
 10
250.9923605764571
 20
33.36232515261734
 30
0.0
 11
250.9991311569846
 21
33.35786555283085
 31
0.0
  0
LINE
  5
299
  8
LAYER_01
 10
250.9991311569846
 20
33.35786555283085
 30
0.0
 11
251.006147648602
 21
33.35298783023364
 31
0.0
  0
LINE
  5
29A
  8
LAYER_01
 10
251.006147648602
 20
33.35298783023364
 30
0.0
 11
251.0134124030628
 21
33.34769091443253
 31
0.0
  0
LINE
  5
29B
  8
LAYER_01
 10
251.0134124030628
 20
33.34769091443253
 30
0.0
 11
251.0209277721203
 21
33.34197373503429
 31
0.0
  0
LINE
  5
29C
  8
LAYER_01
 10
251.0209277721203
 20
33.34197373503429
 30
0.0
 11
251.0367197610379
 21
33.3292743038736
 31
0.0
  0
LINE
  5
29D
  8
LAYER_01
 10
251.0367197610379
 20
33.3292743038736
 30
0.0
 11
251.0535424293808
 21
33.31488097360598
 31
0.0
  0
LINE
  5
29E
  8
LAYER_01
 10
251.0535424293808
 20
33.31488097360598
 30
0.0
 11
251.0714145911751
 21
33.29878518108576
 31
0.0
  0
LINE
  5
29F
  8
LAYER_01
 10
251.0714145911751
 20
33.29878518108576
 30
0.0
 11
251.0903550604467
 21
33.28097836316733
 31
0.0
  0
LINE
  5
2A0
  8
LAYER_01
 10
251.0903550604467
 20
33.28097836316733
 30
0.0
 11
251.1315161775258
 21
33.24019739855324
 31
0.0
  0
LINE
  5
2A1
  8
LAYER_01
 10
251.1315161775258
 20
33.24019739855324
 30
0.0
 11
251.1771762928263
 21
33.19246957459858
 31
0.0
  0
LINE
  5
2A2
  8
LAYER_01
 10
251.1771762928263
 20
33.19246957459858
 30
0.0
 11
251.2825955669231
 21
33.07589932800718
 31
0.0
  0
LINE
  5
2A3
  8
LAYER_01
 10
251.2825955669231
 20
33.07589932800718
 30
0.0
 11
251.5540446309238
 21
32.75638229547322
 31
0.0
  0
LINE
  5
2A4
  8
LAYER_01
 10
251.5540446309238
 20
32.75638229547322
 30
0.0
 11
251.91433503376
 21
32.31804293499884
 31
0.0
  0
LINE
  5
2A5
  8
LAYER_01
 10
243.6833555240398
 20
41.53155738805534
 30
0.0
 11
243.9095175179055
 21
41.35210398682601
 31
0.0
  0
LINE
  5
2A6
  8
LAYER_01
 10
243.9095175179055
 20
41.35210398682601
 30
0.0
 11
244.1310090061423
 21
41.16541443928725
 31
0.0
  0
LINE
  5
2A7
  8
LAYER_01
 10
244.1310090061423
 20
41.16541443928725
 30
0.0
 11
244.3478018510809
 21
40.97154210802621
 31
0.0
  0
LINE
  5
2A8
  8
LAYER_01
 10
244.3478018510809
 20
40.97154210802621
 30
0.0
 11
244.5598679150522
 21
40.77054035563002
 31
0.0
  0
LINE
  5
2A9
  8
LAYER_01
 10
244.5598679150522
 20
40.77054035563002
 30
0.0
 11
244.7671790603869
 21
40.5624625446858
 31
0.0
  0
LINE
  5
2AA
  8
LAYER_01
 10
244.7671790603869
 20
40.5624625446858
 30
0.0
 11
244.9697071494159
 21
40.34736203778069
 31
0.0
  0
LINE
  5
2AB
  8
LAYER_01
 10
244.9697071494159
 20
40.34736203778069
 30
0.0
 11
245.1674240444698
 21
40.12529219750184
 31
0.0
  0
LINE
  5
2AC
  8
LAYER_01
 10
245.1674240444698
 20
40.12529219750184
 30
0.0
 11
245.3603016078794
 21
39.89630638643636
 31
0.0
  0
LINE
  5
2AD
  8
LAYER_01
 10
245.3603016078794
 20
39.89630638643636
 30
0.0
 11
245.5483117019756
 21
39.66045796717142
 31
0.0
  0
LINE
  5
2AE
  8
LAYER_01
 10
245.5483117019756
 20
39.66045796717142
 30
0.0
 11
245.7314261890891
 21
39.41780030229411
 31
0.0
  0
LINE
  5
2AF
  8
LAYER_01
 10
245.7314261890891
 20
39.41780030229411
 30
0.0
 11
245.9096169315507
 21
39.16838675439161
 31
0.0
  0
LINE
  5
2B0
  8
LAYER_01
 10
245.9096169315507
 20
39.16838675439161
 30
0.0
 11
246.0828557916911
 21
38.91227068605102
 31
0.0
  0
LINE
  5
2B1
  8
LAYER_01
 10
246.0828557916911
 20
38.91227068605102
 30
0.0
 11
246.2511146318411
 21
38.64950545985948
 31
0.0
  0
LINE
  5
2B2
  8
LAYER_01
 10
246.2511146318411
 20
38.64950545985948
 30
0.0
 11
246.4143653143316
 21
38.38014443840415
 31
0.0
  0
LINE
  5
2B3
  8
LAYER_01
 10
246.4143653143316
 20
38.38014443840415
 30
0.0
 11
246.5725797014932
 21
38.10424098427215
 31
0.0
  0
LINE
  5
2B4
  8
LAYER_01
 10
246.5725797014932
 20
38.10424098427215
 30
0.0
 11
246.7257296556568
 21
37.8218484600506
 31
0.0
  0
LINE
  5
2B5
  8
LAYER_01
 10
246.7257296556568
 20
37.8218484600506
 30
0.0
 11
246.8737870391532
 21
37.53302022832665
 31
0.0
  0
LINE
  5
2B6
  8
LAYER_01
 10
246.8737870391532
 20
37.53302022832665
 30
0.0
 11
247.016723714313
 21
37.23780965168743
 31
0.0
  0
LINE
  5
2B7
  8
LAYER_01
 10
247.016723714313
 20
37.23780965168743
 30
0.0
 11
247.1545115434671
 21
36.93627009272008
 31
0.0
  0
LINE
  5
2B8
  8
LAYER_01
 10
247.1545115434671
 20
36.93627009272008
 30
0.0
 11
247.2871223889463
 21
36.62845491401172
 31
0.0
  0
LINE
  5
2B9
  8
LAYER_01
 10
247.2871223889463
 20
36.62845491401172
 30
0.0
 11
247.4145281130814
 21
36.31441747814949
 31
0.0
  0
LINE
  5
2BA
  8
LAYER_01
 10
247.4145281130814
 20
36.31441747814949
 30
0.0
 11
247.536700578203
 21
35.99421114772056
 31
0.0
  0
LINE
  5
2BB
  8
LAYER_01
 10
247.536700578203
 20
35.99421114772056
 30
0.0
 11
247.653611646642
 21
35.66788928531201
 31
0.0
  0
LINE
  5
2BC
  8
LAYER_01
 10
247.653611646642
 20
35.66788928531201
 30
0.0
 11
247.7652331807292
 21
35.33550525351101
 31
0.0
  0
LINE
  5
2BD
  8
LAYER_01
 10
247.7652331807292
 20
35.33550525351101
 30
0.0
 11
247.8715370427953
 21
34.99711241490468
 31
0.0
  0
LINE
  5
2BE
  8
LAYER_01
 10
247.8715370427953
 20
34.99711241490468
 30
0.0
 11
247.9724950951712
 21
34.65276413208016
 31
0.0
  0
LINE
  5
2BF
  8
LAYER_01
 10
247.9724950951712
 20
34.65276413208016
 30
0.0
 11
248.0680792001875
 21
34.30251376762459
 31
0.0
  0
LINE
  5
2C0
  8
LAYER_01
 10
248.0680792001875
 20
34.30251376762459
 30
0.0
 11
248.1582612201751
 21
33.94641468412509
 31
0.0
  0
LINE
  5
2C1
  8
LAYER_01
 10
248.1582612201751
 20
33.94641468412509
 30
0.0
 11
248.2430130174648
 21
33.5845202441688
 31
0.0
  0
LINE
  5
2C2
  8
LAYER_01
 10
248.2430130174648
 20
33.5845202441688
 30
0.0
 11
248.3223064543872
 21
33.21688381034287
 31
0.0
  0
LINE
  5
2C3
  8
LAYER_01
 10
248.3223064543872
 20
33.21688381034287
 30
0.0
 11
248.4644056964536
 21
32.46459841143059
 31
0.0
  0
LINE
  5
2C4
  8
LAYER_01
 10
248.4644056964536
 20
32.46459841143059
 30
0.0
 11
248.5270809046312
 21
32.05534229343908
 31
0.0
  0
LINE
  5
2C5
  8
LAYER_01
 10
248.5270809046312
 20
32.05534229343908
 30
0.0
 11
248.5888329274239
 21
31.56960227177439
 31
0.0
  0
LINE
  5
2C6
  8
LAYER_01
 10
248.5888329274239
 20
31.56960227177439
 30
0.0
 11
248.706346329162
 21
30.42545710347621
 31
0.0
  0
LINE
  5
2C7
  8
LAYER_01
 10
248.706346329162
 20
30.42545710347621
 30
0.0
 11
248.8948629433952
 21
27.84401236936014
 31
0.0
  0
LINE
  5
2C8
  8
LAYER_01
 10
248.8948629433952
 20
27.84401236936014
 30
0.0
 11
248.9529818051171
 21
26.63385914774534
 31
0.0
  0
LINE
  5
2C9
  8
LAYER_01
 10
248.9529818051171
 20
26.63385914774534
 30
0.0
 11
248.9784181360603
 21
25.62884958589476
 31
0.0
  0
LINE
  5
2CA
  8
LAYER_01
 10
248.9784181360603
 20
25.62884958589476
 30
0.0
 11
248.9768671726816
 21
25.23876529366278
 31
0.0
  0
LINE
  5
2CB
  8
LAYER_01
 10
248.9768671726816
 20
25.23876529366278
 30
0.0
 11
248.9721721023133
 21
25.07803930256942
 31
0.0
  0
LINE
  5
2CC
  8
LAYER_01
 10
248.9721721023133
 20
25.07803930256942
 30
0.0
 11
248.9647297608383
 21
24.94255685590994
 31
0.0
  0
LINE
  5
2CD
  8
LAYER_01
 10
248.9647297608383
 20
24.94255685590994
 30
0.0
 11
248.9599469075013
 21
24.8848365182473
 31
0.0
  0
LINE
  5
2CE
  8
LAYER_01
 10
248.9599469075013
 20
24.8848365182473
 30
0.0
 11
248.9544394892663
 21
24.83409253449841
 31
0.0
  0
LINE
  5
2CF
  8
LAYER_01
 10
248.9544394892663
 20
24.83409253449841
 30
0.0
 11
248.9514101363203
 21
24.81140599490467
 31
0.0
  0
LINE
  5
2D0
  8
LAYER_01
 10
248.9514101363203
 20
24.81140599490467
 30
0.0
 11
248.9481949237595
 21
24.79054672726504
 31
0.0
  0
LINE
  5
2D1
  8
LAYER_01
 10
248.9481949237595
 20
24.79054672726504
 30
0.0
 11
248.9447922787873
 21
24.77154245940471
 31
0.0
  0
LINE
  5
2D2
  8
LAYER_01
 10
248.9447922787873
 20
24.77154245940471
 30
0.0
 11
248.941200628607
 21
24.75442091914893
 31
0.0
  0
LINE
  5
2D3
  8
LAYER_01
 10
248.941200628607
 20
24.75442091914893
 30
0.0
 11
248.9393334350648
 21
24.74657483681812
 31
0.0
  0
LINE
  5
2D4
  8
LAYER_01
 10
248.9393334350648
 20
24.74657483681812
 30
0.0
 11
248.9374184004218
 21
24.73920983432291
 31
0.0
  0
LINE
  5
2D5
  8
LAYER_01
 10
248.9374184004218
 20
24.73920983432291
 30
0.0
 11
248.9354553280784
 21
24.73232937764143
 31
0.0
  0
LINE
  5
2D6
  8
LAYER_01
 10
248.9354553280784
 20
24.73232937764143
 30
0.0
 11
248.933444021435
 21
24.72593693275186
 31
0.0
  0
LINE
  5
2D7
  8
LAYER_01
 10
248.933444021435
 20
24.72593693275186
 30
0.0
 11
248.931384283892
 21
24.72003596563233
 31
0.0
  0
LINE
  5
2D8
  8
LAYER_01
 10
248.931384283892
 20
24.72003596563233
 30
0.0
 11
248.9292759188499
 21
24.71462994226101
 31
0.0
  0
LINE
  5
2D9
  8
LAYER_01
 10
248.9292759188499
 20
24.71462994226101
 30
0.0
 11
248.927118729709
 21
24.70972232861603
 31
0.0
  0
LINE
  5
2DA
  8
LAYER_01
 10
248.927118729709
 20
24.70972232861603
 30
0.0
 11
248.9249125198698
 21
24.70531659067557
 31
0.0
  0
LINE
  5
2DB
  8
LAYER_01
 10
248.9249125198698
 20
24.70531659067557
 30
0.0
 11
248.9226570927326
 21
24.70141619441777
 31
0.0
  0
LINE
  5
2DC
  8
LAYER_01
 10
248.9226570927326
 20
24.70141619441777
 30
0.0
 11
248.9203522516979
 21
24.69802460582078
 31
0.0
  0
LINE
  5
2DD
  8
LAYER_01
 10
248.9203522516979
 20
24.69802460582078
 30
0.0
 11
248.9179978001661
 21
24.69514529086275
 31
0.0
  0
LINE
  5
2DE
  8
LAYER_01
 10
248.9179978001661
 20
24.69514529086275
 30
0.0
 11
248.9155935415375
 21
24.69278171552185
 31
0.0
  0
LINE
  5
2DF
  8
LAYER_01
 10
248.9155935415375
 20
24.69278171552185
 30
0.0
 11
248.9131392792127
 21
24.69093734577621
 31
0.0
  0
LINE
  5
2E0
  8
LAYER_01
 10
248.9131392792127
 20
24.69093734577621
 30
0.0
 11
248.9106348165919
 21
24.68961564760399
 31
0.0
  0
LINE
  5
2E1
  8
LAYER_01
 10
248.9106348165919
 20
24.68961564760399
 30
0.0
 11
248.9080799570757
 21
24.68882008698335
 31
0.0
  0
LINE
  5
2E2
  8
LAYER_01
 10
248.9080799570757
 20
24.68882008698335
 30
0.0
 11
248.9054745040644
 21
24.68855412989244
 31
0.0
  0
LINE
  5
2E3
  8
LAYER_01
 10
248.9054745040644
 20
24.68855412989244
 30
0.0
 11
247.5517721382602
 21
25.60111363510556
 31
0.0
  0
LINE
  5
2E4
  8
LAYER_01
 10
247.5517721382602
 20
25.60111363510556
 30
0.0
 11
245.0609723741871
 21
27.20316192714932
 31
0.0
  0
LINE
  5
2E5
  8
LAYER_01
 10
245.0609723741871
 20
27.20316192714932
 30
0.0
 11
243.8736855684833
 21
27.89265071397998
 31
0.0
  0
LINE
  5
2E6
  8
LAYER_01
 10
243.8736855684833
 20
27.89265071397998
 30
0.0
 11
243.8699829194656
 21
32.26039731810454
 31
0.0
  0
ARC
  5
2E7
  8
LAYER_01
 10
211.6532770562258
 20
33.86479381849236
 30
0.0
 40
32.25663071073861
 50
357.1490173981279
 51
12.90207909163796
  0
LINE
  5
2E8
  8
LAYER_01
 10
243.0955275943013
 20
41.06723131630219
 30
0.0
 11
242.923229450574
 21
42.07750372909236
 31
0.0
  0
LINE
  5
2E9
  8
LAYER_01
 10
242.923229450574
 20
42.07750372909236
 30
0.0
 11
243.6835545414245
 21
41.53155738805534
 31
0.0
  0
LINE
  5
2EA
  8
LAYER_01
 10
243.6835545414245
 20
41.53155738805534
 30
0.0
 11
243.6833555240398
 21
41.53155738805534
 31
0.0
  0
ARC
  5
2EB
  8
LAYER_01
 10
-220.1889587064813
 20
36.80065374838345
 30
0.0
 40
19.93043448519261
 50
134.1929814255309
 51
159.3552934953125
210
0.0
220
0.0
230
-1.0
  0
ARC
  5
2EC
  8
LAYER_01
 10
-208.9058573923646
 20
32.14173870118475
 30
0.0
 40
32.13385723731042
 50
158.6748059793878
 51
173.2665922882643
210
0.0
220
0.0
230
-1.0
  0
ARC
  5
2ED
  8
LAYER_01
 10
-201.0760426737104
 20
31.30629399253872
 30
0.0
 40
40.00771875346371
 50
173.3931373524195
 51
182.8143228689598
210
0.0
220
0.0
230
-1.0
  0
LINE
  5
2EE
  8
LAYER_01
 10
241.035507901881
 20
29.34193696417606
 30
0.0
 11
240.2217998688179
 21
29.62399088141048
 31
0.0
  0
ARC
  5
2EF
  8
LAYER_01
 10
-241.2917181464103
 20
32.25429591324815
 30
0.0
 40
2.839582659694362
 50
292.1348132007346
 51
335.067058457162
210
0.0
220
0.0
230
-1.0
  0
ARC
  5
2F0
  8
LAYER_01
 10
210.2973465892911
 20
11.32605963628174
 30
0.0
 40
34.59745672414889
 50
34.77167266235445
 51
46.49468289452253
  0
LINE
  5
2F1
  8
LAYER_01
 10
234.1149930740609
 20
36.41995785289778
 30
0.0
 11
233.428221105947
 21
37.06896742934244
 31
0.0
  0
LINE
  5
2F2
  8
LAYER_01
 10
233.428221105947
 20
37.06896742934244
 30
0.0
 11
233.4939523826337
 21
40.27736834291304
 31
0.0
  0
ARC
  5
2F3
  8
LAYER_01
 10
194.7514780230104
 20
42.03303164331754
 30
0.0
 40
38.7822339883929
 50
357.4053457767187
 51
14.36691041375918
  0
LINE
  5
2F4
  8
LAYER_01
 10
232.3208606076015
 20
51.6560854903601
 30
0.0
 11
232.1225543860688
 21
52.40089944683834
 31
0.0
  0
LINE
  5
2F5
  8
LAYER_01
 10
232.1225543860688
 20
52.40089944683834
 30
0.0
 11
232.0923395417287
 21
52.52533964182602
 31
0.0
  0
LINE
  5
2F6
  8
LAYER_01
 10
232.0923395417287
 20
52.52533964182602
 30
0.0
 11
232.0696050121237
 21
52.62830391883123
 31
0.0
  0
LINE
  5
2F7
  8
LAYER_01
 10
232.0696050121237
 20
52.62830391883123
 30
0.0
 11
232.061001557584
 21
52.67223718178889
 31
0.0
  0
LINE
  5
2F8
  8
LAYER_01
 10
232.061001557584
 20
52.67223718178889
 30
0.0
 11
232.0542186124126
 21
52.71140697768912
 31
0.0
  0
LINE
  5
2F9
  8
LAYER_01
 10
232.0542186124126
 20
52.71140697768912
 30
0.0
 11
232.0492396535044
 21
52.74601514401131
 31
0.0
  0
LINE
  5
2FA
  8
LAYER_01
 10
232.0492396535044
 20
52.74601514401131
 30
0.0
 11
232.0474215054286
 21
52.76167169029294
 31
0.0
  0
LINE
  5
2FB
  8
LAYER_01
 10
232.0474215054286
 20
52.76167169029294
 30
0.0
 11
232.0460481577542
 21
52.77626351823484
 31
0.0
  0
LINE
  5
2FC
  8
LAYER_01
 10
232.0460481577542
 20
52.77626351823484
 30
0.0
 11
232.0451175450931
 21
52.78981585752193
 31
0.0
  0
LINE
  5
2FD
  8
LAYER_01
 10
232.0451175450931
 20
52.78981585752193
 30
0.0
 11
232.044627602057
 21
52.80235393783911
 31
0.0
  0
LINE
  5
2FE
  8
LAYER_01
 10
232.044627602057
 20
52.80235393783911
 30
0.0
 11
232.0445472362146
 21
52.80825051516054
 31
0.0
  0
LINE
  5
2FF
  8
LAYER_01
 10
232.0445472362146
 20
52.80825051516054
 30
0.0
 11
232.0445762632579
 21
52.81390298887135
 31
0.0
  0
LINE
  5
300
  8
LAYER_01
 10
232.0445762632579
 20
52.81390298887135
 30
0.0
 11
232.0447144250133
 21
52.81931451268213
 31
0.0
  0
LINE
  5
301
  8
LAYER_01
 10
232.0447144250133
 20
52.81931451268213
 30
0.0
 11
232.0449614633075
 21
52.82448824030353
 31
0.0
  0
LINE
  5
302
  8
LAYER_01
 10
232.0449614633075
 20
52.82448824030353
 30
0.0
 11
232.0453171199669
 21
52.82942732544615
 31
0.0
  0
LINE
  5
303
  8
LAYER_01
 10
232.0453171199669
 20
52.82942732544615
 30
0.0
 11
232.0457811368179
 21
52.83413492182059
 31
0.0
  0
LINE
  5
304
  8
LAYER_01
 10
232.0457811368179
 20
52.83413492182059
 30
0.0
 11
232.046353255687
 21
52.83861418313749
 31
0.0
  0
LINE
  5
305
  8
LAYER_01
 10
232.046353255687
 20
52.83861418313749
 30
0.0
 11
232.0470332184007
 21
52.84286826310746
 31
0.0
  0
LINE
  5
306
  8
LAYER_01
 10
232.0470332184007
 20
52.84286826310746
 30
0.0
 11
232.04741356052
 21
52.84491184562192
 31
0.0
  0
LINE
  5
307
  8
LAYER_01
 10
232.04741356052
 20
52.84491184562192
 30
0.0
 11
232.0478207667855
 21
52.84690031544112
 31
0.0
  0
LINE
  5
308
  8
LAYER_01
 10
232.0478207667855
 20
52.84690031544112
 30
0.0
 11
232.0482548049253
 21
52.84883406677889
 31
0.0
  0
LINE
  5
309
  8
LAYER_01
 10
232.0482548049253
 20
52.84883406677889
 30
0.0
 11
232.0487156426679
 21
52.85071349384907
 31
0.0
  0
LINE
  5
30A
  8
LAYER_01
 10
232.0487156426679
 20
52.85071349384907
 30
0.0
 11
232.0492032477414
 21
52.85253899086547
 31
0.0
  0
LINE
  5
30B
  8
LAYER_01
 10
232.0492032477414
 20
52.85253899086547
 30
0.0
 11
232.0497175878743
 21
52.85431095204193
 31
0.0
  0
LINE
  5
30C
  8
LAYER_01
 10
232.0497175878743
 20
52.85431095204193
 30
0.0
 11
232.0502586307949
 21
52.85602977159228
 31
0.0
  0
LINE
  5
30D
  8
LAYER_01
 10
232.0502586307949
 20
52.85602977159228
 30
0.0
 11
232.0508263442314
 21
52.85769584373033
 31
0.0
  0
LINE
  5
30E
  8
LAYER_01
 10
232.0508263442314
 20
52.85769584373033
 30
0.0
 11
232.0514206959121
 21
52.85930956266991
 31
0.0
  0
LINE
  5
30F
  8
LAYER_01
 10
232.0514206959121
 20
52.85930956266991
 30
0.0
 11
232.0520416535654
 21
52.86087132262487
 31
0.0
  0
LINE
  5
310
  8
LAYER_01
 10
232.0520416535654
 20
52.86087132262487
 30
0.0
 11
232.0526891849195
 21
52.86238151780901
 31
0.0
  0
LINE
  5
311
  8
LAYER_01
 10
232.0526891849195
 20
52.86238151780901
 30
0.0
 11
232.0533632577029
 21
52.86384054243617
 31
0.0
  0
LINE
  5
312
  8
LAYER_01
 10
232.0533632577029
 20
52.86384054243617
 30
0.0
 11
232.0540638396437
 21
52.86524879072017
 31
0.0
  0
LINE
  5
313
  8
LAYER_01
 10
232.0540638396437
 20
52.86524879072017
 30
0.0
 11
232.0547908984704
 21
52.86660665687484
 31
0.0
  0
LINE
  5
314
  8
LAYER_01
 10
232.0547908984704
 20
52.86660665687484
 30
0.0
 11
232.0555444019112
 21
52.867914535114
 31
0.0
  0
LINE
  5
315
  8
LAYER_01
 10
232.0555444019112
 20
52.867914535114
 30
0.0
 11
232.0563243176944
 21
52.8691728196515
 31
0.0
  0
LINE
  5
316
  8
LAYER_01
 10
232.0563243176944
 20
52.8691728196515
 30
0.0
 11
232.0571306135483
 21
52.87038190470115
 31
0.0
  0
LINE
  5
317
  8
LAYER_01
 10
232.0571306135483
 20
52.87038190470115
 30
0.0
 11
232.0579632572013
 21
52.87154218447677
 31
0.0
  0
LINE
  5
318
  8
LAYER_01
 10
232.0579632572013
 20
52.87154218447677
 30
0.0
 11
232.0588222163817
 21
52.87265405319221
 31
0.0
  0
LINE
  5
319
  8
LAYER_01
 10
232.0588222163817
 20
52.87265405319221
 30
0.0
 11
232.0597074588177
 21
52.87371790506126
 31
0.0
  0
LINE
  5
31A
  8
LAYER_01
 10
232.0597074588177
 20
52.87371790506126
 30
0.0
 11
232.0606189522377
 21
52.87473413429778
 31
0.0
  0
LINE
  5
31B
  8
LAYER_01
 10
232.0606189522377
 20
52.87473413429778
 30
0.0
 11
232.0615566643699
 21
52.87570313511559
 31
0.0
  0
LINE
  5
31C
  8
LAYER_01
 10
232.0615566643699
 20
52.87570313511559
 30
0.0
 11
232.0625205629428
 21
52.87662530172851
 31
0.0
  0
LINE
  5
31D
  8
LAYER_01
 10
232.0625205629428
 20
52.87662530172851
 30
0.0
 11
232.0635106156846
 21
52.87750102835038
 31
0.0
  0
LINE
  5
31E
  8
LAYER_01
 10
232.0635106156846
 20
52.87750102835038
 30
0.0
 11
232.0645267903236
 21
52.87833070919501
 31
0.0
  0
LINE
  5
31F
  8
LAYER_01
 10
232.0645267903236
 20
52.87833070919501
 30
0.0
 11
232.0655690545882
 21
52.87911473847623
 31
0.0
  0
LINE
  5
320
  8
LAYER_01
 10
232.0655690545882
 20
52.87911473847623
 30
0.0
 11
232.0666373762065
 21
52.87985351040788
 31
0.0
  0
LINE
  5
321
  8
LAYER_01
 10
232.0666373762065
 20
52.87985351040788
 30
0.0
 11
232.0677317229071
 21
52.88054741920377
 31
0.0
  0
LINE
  5
322
  8
LAYER_01
 10
232.0677317229071
 20
52.88054741920377
 30
0.0
 11
232.068852062418
 21
52.88119685907773
 31
0.0
  0
LINE
  5
323
  8
LAYER_01
 10
232.068852062418
 20
52.88119685907773
 30
0.0
 11
232.0699983624678
 21
52.8818022242436
 31
0.0
  0
LINE
  5
324
  8
LAYER_01
 10
232.0699983624678
 20
52.8818022242436
 30
0.0
 11
232.0711705907846
 21
52.8823639089152
 31
0.0
  0
LINE
  5
325
  8
LAYER_01
 10
232.0711705907846
 20
52.8823639089152
 30
0.0
 11
232.0723687150969
 21
52.88288230730636
 31
0.0
  0
LINE
  5
326
  8
LAYER_01
 10
232.0723687150969
 20
52.88288230730636
 30
0.0
 11
232.0735927031328
 21
52.88335781363089
 31
0.0
  0
LINE
  5
327
  8
LAYER_01
 10
232.0735927031328
 20
52.88335781363089
 30
0.0
 11
232.0748425226208
 21
52.88379082210264
 31
0.0
  0
LINE
  5
328
  8
LAYER_01
 10
232.0748425226208
 20
52.88379082210264
 30
0.0
 11
232.076118141289
 21
52.88418172693542
 31
0.0
  0
LINE
  5
329
  8
LAYER_01
 10
232.076118141289
 20
52.88418172693542
 30
0.0
 11
232.077419526866
 21
52.88453092234306
 31
0.0
  0
LINE
  5
32A
  8
LAYER_01
 10
232.077419526866
 20
52.88453092234306
 30
0.0
 11
232.0787466470798
 21
52.88483880253941
 31
0.0
  0
LINE
  5
32B
  8
LAYER_01
 10
232.0787466470798
 20
52.88483880253941
 30
0.0
 11
232.0800994696589
 21
52.88510576173826
 31
0.0
  0
LINE
  5
32C
  8
LAYER_01
 10
232.0800994696589
 20
52.88510576173826
 30
0.0
 11
232.0814779623316
 21
52.88533219415346
 31
0.0
  0
LINE
  5
32D
  8
LAYER_01
 10
232.0814779623316
 20
52.88533219415346
 30
0.0
 11
232.0828820928261
 21
52.88551849399883
 31
0.0
  0
LINE
  5
32E
  8
LAYER_01
 10
232.0828820928261
 20
52.88551849399883
 30
0.0
 11
232.0843118288709
 21
52.8856650554882
 31
0.0
  0
LINE
  5
32F
  8
LAYER_01
 10
232.0843118288709
 20
52.8856650554882
 30
0.0
 11
232.0857671381941
 21
52.8857722728354
 31
0.0
  0
LINE
  5
330
  8
LAYER_01
 10
232.0857671381941
 20
52.8857722728354
 30
0.0
 11
232.0872479885241
 21
52.88584054025424
 31
0.0
  0
LINE
  5
331
  8
LAYER_01
 10
232.0872479885241
 20
52.88584054025424
 30
0.0
 11
232.0887543475893
 21
52.88587025195856
 31
0.0
  0
LINE
  5
332
  8
LAYER_01
 10
232.0887543475893
 20
52.88587025195856
 30
0.0
 11
232.0902861831178
 21
52.8858618021622
 31
0.0
  0
LINE
  5
333
  8
LAYER_01
 10
232.0902861831178
 20
52.8858618021622
 30
0.0
 11
232.0918434628381
 21
52.88581558507896
 31
0.0
  0
LINE
  5
334
  8
LAYER_01
 10
232.0918434628381
 20
52.88581558507896
 30
0.0
 11
232.0934261544785
 21
52.88573199492268
 31
0.0
  0
LINE
  5
335
  8
LAYER_01
 10
232.0934261544785
 20
52.88573199492268
 30
0.0
 11
232.0950342257672
 21
52.88561142590719
 31
0.0
  0
LINE
  5
336
  8
LAYER_01
 10
232.0950342257672
 20
52.88561142590719
 30
0.0
 11
232.0966676444326
 21
52.88545427224632
 31
0.0
  0
LINE
  5
337
  8
LAYER_01
 10
232.0966676444326
 20
52.88545427224632
 30
0.0
 11
232.0983263782029
 21
52.88526092815388
 31
0.0
  0
LINE
  5
338
  8
LAYER_01
 10
232.0983263782029
 20
52.88526092815388
 30
0.0
 11
232.1000103948065
 21
52.88503178784372
 31
0.0
  0
LINE
  5
339
  8
LAYER_01
 10
232.1000103948065
 20
52.88503178784372
 30
0.0
 11
232.1017196619717
 21
52.88476724552964
 31
0.0
  0
LINE
  5
33A
  8
LAYER_01
 10
232.1017196619717
 20
52.88476724552964
 30
0.0
 11
232.1052138189002
 21
52.88413353174508
 31
0.0
  0
LINE
  5
33B
  8
LAYER_01
 10
232.1052138189002
 20
52.88413353174508
 30
0.0
 11
232.1088085908148
 21
52.88336294051083
 31
0.0
  0
LINE
  5
33C
  8
LAYER_01
 10
232.1088085908148
 20
52.88336294051083
 30
0.0
 11
232.112503719542
 21
52.8824586255375
 31
0.0
  0
LINE
  5
33D
  8
LAYER_01
 10
232.112503719542
 20
52.8824586255375
 30
0.0
 11
232.1162989469083
 21
52.88142374053569
 31
0.0
  0
LINE
  5
33E
  8
LAYER_01
 10
232.1162989469083
 20
52.88142374053569
 30
0.0
 11
232.1201940147401
 21
52.88026143921603
 31
0.0
  0
LINE
  5
33F
  8
LAYER_01
 10
232.1201940147401
 20
52.88026143921603
 30
0.0
 11
232.124188664864
 21
52.87897487528915
 31
0.0
  0
LINE
  5
340
  8
LAYER_01
 10
232.124188664864
 20
52.87897487528915
 30
0.0
 11
232.1282826391064
 21
52.87756720246563
 31
0.0
  0
LINE
  5
341
  8
LAYER_01
 10
232.1282826391064
 20
52.87756720246563
 30
0.0
 11
232.1324756792938
 21
52.87604157445611
 31
0.0
  0
LINE
  5
342
  8
LAYER_01
 10
232.1324756792938
 20
52.87604157445611
 30
0.0
 11
232.1411579248095
 21
52.87264906772152
 31
0.0
  0
LINE
  5
343
  8
LAYER_01
 10
232.1411579248095
 20
52.87264906772152
 30
0.0
 11
232.1502333360231
 21
52.86882258477029
 31
0.0
  0
LINE
  5
344
  8
LAYER_01
 10
232.1502333360231
 20
52.86882258477029
 30
0.0
 11
232.1596998475463
 21
52.86458735528736
 31
0.0
  0
LINE
  5
345
  8
LAYER_01
 10
232.1596998475463
 20
52.86458735528736
 30
0.0
 11
232.1797979099692
 21
52.85499157546604
 31
0.0
  0
LINE
  5
346
  8
LAYER_01
 10
232.1797979099692
 20
52.85499157546604
 30
0.0
 11
232.2245963614527
 21
52.83200516357954
 31
0.0
  0
LINE
  5
347
  8
LAYER_01
 10
232.2245963614527
 20
52.83200516357954
 30
0.0
 11
234.0820117279358
 21
51.09069561366888
 31
0.0
  0
ARC
  5
348
  8
LAYER_01
 10
-201.5783183670949
 20
4.880179510550633
 30
0.0
 40
42.01832089196361
 50
141.5199881169143
 51
163.0110162167213
210
0.0
220
0.0
230
-1.0
  0
LINE
  5
349
  8
LAYER_01
 10
241.7629997525671
 20
17.15742156762991
 30
0.0
 11
242.1754400684867
 21
15.84352564377785
 31
0.0
  0
LINE
  5
34A
  8
LAYER_01
 10
242.1754400684867
 20
15.84352564377785
 30
0.0
 11
242.3053678033328
 21
15.39716898149905
 31
0.0
  0
LINE
  5
34B
  8
LAYER_01
 10
242.3053678033328
 20
15.39716898149905
 30
0.0
 11
242.3527246221215
 21
15.22019395070048
 31
0.0
  0
LINE
  5
34C
  8
LAYER_01
 10
242.3527246221215
 20
15.22019395070048
 30
0.0
 11
242.3889019064467
 21
15.07156606314971
 31
0.0
  0
LINE
  5
34D
  8
LAYER_01
 10
242.3889019064467
 20
15.07156606314971
 30
0.0
 11
242.402929121145
 21
15.00730689411271
 31
0.0
  0
LINE
  5
34E
  8
LAYER_01
 10
242.402929121145
 20
15.00730689411271
 30
0.0
 11
242.4143185297784
 21
14.94944402611219
 31
0.0
  0
LINE
  5
34F
  8
LAYER_01
 10
242.4143185297784
 20
14.94944402611219
 30
0.0
 11
242.4231224915309
 21
14.89774729755634
 31
0.0
  0
LINE
  5
350
  8
LAYER_01
 10
242.4231224915309
 20
14.89774729755634
 30
0.0
 11
242.4265712920717
 21
14.87413931007273
 31
0.0
  0
LINE
  5
351
  8
LAYER_01
 10
242.4265712920717
 20
14.87413931007273
 30
0.0
 11
242.4293933655862
 21
14.85198654685335
 31
0.0
  0
LINE
  5
352
  8
LAYER_01
 10
242.4293933655862
 20
14.85198654685335
 30
0.0
 11
242.4315952569723
 21
14.83126023769922
 31
0.0
  0
LINE
  5
353
  8
LAYER_01
 10
242.4315952569723
 20
14.83126023769922
 30
0.0
 11
242.4331835111279
 21
14.81193161241138
 31
0.0
  0
LINE
  5
354
  8
LAYER_01
 10
242.4331835111279
 20
14.81193161241138
 30
0.0
 11
242.4341646729511
 21
14.79397190079083
 31
0.0
  0
LINE
  5
355
  8
LAYER_01
 10
242.4341646729511
 20
14.79397190079083
 30
0.0
 11
242.4345452873398
 21
14.77735233263862
 31
0.0
  0
LINE
  5
356
  8
LAYER_01
 10
242.4345452873398
 20
14.77735233263862
 30
0.0
 11
242.4345124345268
 21
14.76953611167595
 31
0.0
  0
LINE
  5
357
  8
LAYER_01
 10
242.4345124345268
 20
14.76953611167595
 30
0.0
 11
242.4343318991919
 21
14.76204413775574
 31
0.0
  0
LINE
  5
358
  8
LAYER_01
 10
242.4343318991919
 20
14.76204413775574
 30
0.0
 11
242.4340044994474
 21
14.75487281460313
 31
0.0
  0
LINE
  5
359
  8
LAYER_01
 10
242.4340044994474
 20
14.75487281460313
 30
0.0
 11
242.4335310534055
 21
14.74801854594324
 31
0.0
  0
LINE
  5
35A
  8
LAYER_01
 10
242.4335310534055
 20
14.74801854594324
 30
0.0
 11
242.4329123791785
 21
14.7414777355012
 31
0.0
  0
LINE
  5
35B
  8
LAYER_01
 10
242.4329123791785
 20
14.7414777355012
 30
0.0
 11
242.4321492948785
 21
14.73524678700213
 31
0.0
  0
LINE
  5
35C
  8
LAYER_01
 10
242.4321492948785
 20
14.73524678700213
 30
0.0
 11
242.4312426186179
 21
14.72932210417117
 31
0.0
  0
LINE
  5
35D
  8
LAYER_01
 10
242.4312426186179
 20
14.72932210417117
 30
0.0
 11
242.4301931685089
 21
14.72370009073344
 31
0.0
  0
LINE
  5
35E
  8
LAYER_01
 10
242.4301931685089
 20
14.72370009073344
 30
0.0
 11
242.4296151589213
 21
14.72100146120113
 31
0.0
  0
LINE
  5
35F
  8
LAYER_01
 10
242.4296151589213
 20
14.72100146120113
 30
0.0
 11
242.4290017626637
 21
14.71837715041406
 31
0.0
  0
LINE
  5
360
  8
LAYER_01
 10
242.4290017626637
 20
14.71837715041406
 30
0.0
 11
242.4283530820001
 21
14.71582670883786
 31
0.0
  0
LINE
  5
361
  8
LAYER_01
 10
242.4283530820001
 20
14.71582670883786
 30
0.0
 11
242.4276692191946
 21
14.71334968693818
 31
0.0
  0
LINE
  5
362
  8
LAYER_01
 10
242.4276692191946
 20
14.71334968693818
 30
0.0
 11
242.4269502765111
 21
14.71094563518064
 31
0.0
  0
LINE
  5
363
  8
LAYER_01
 10
242.4269502765111
 20
14.71094563518064
 30
0.0
 11
242.4261963562138
 21
14.7086141040309
 31
0.0
  0
LINE
  5
364
  8
LAYER_01
 10
242.4261963562138
 20
14.7086141040309
 30
0.0
 11
242.4254075605666
 21
14.7063546439546
 31
0.0
  0
LINE
  5
365
  8
LAYER_01
 10
242.4254075605666
 20
14.7063546439546
 30
0.0
 11
242.4245839918335
 21
14.70416680541738
 31
0.0
  0
LINE
  5
366
  8
LAYER_01
 10
242.4245839918335
 20
14.70416680541738
 30
0.0
 11
242.4237257522787
 21
14.70205013888487
 31
0.0
  0
LINE
  5
367
  8
LAYER_01
 10
242.4237257522787
 20
14.70205013888487
 30
0.0
 11
242.4228329441661
 21
14.70000419482272
 31
0.0
  0
LINE
  5
368
  8
LAYER_01
 10
242.4228329441661
 20
14.70000419482272
 30
0.0
 11
242.4219056697598
 21
14.69802852369657
 31
0.0
  0
LINE
  5
369
  8
LAYER_01
 10
242.4219056697598
 20
14.69802852369657
 30
0.0
 11
242.4209440313238
 21
14.69612267597206
 31
0.0
  0
LINE
  5
36A
  8
LAYER_01
 10
242.4209440313238
 20
14.69612267597206
 30
0.0
 11
242.4199481311221
 21
14.69428620211483
 31
0.0
  0
LINE
  5
36B
  8
LAYER_01
 10
242.4199481311221
 20
14.69428620211483
 30
0.0
 11
242.4189180714187
 21
14.69251865259052
 31
0.0
  0
LINE
  5
36C
  8
LAYER_01
 10
242.4189180714187
 20
14.69251865259052
 30
0.0
 11
242.4178539544778
 21
14.69081957786478
 31
0.0
  0
LINE
  5
36D
  8
LAYER_01
 10
242.4178539544778
 20
14.69081957786478
 30
0.0
 11
242.4167558825632
 21
14.68918852840324
 31
0.0
  0
LINE
  5
36E
  8
LAYER_01
 10
242.4167558825632
 20
14.68918852840324
 30
0.0
 11
242.4156239579391
 21
14.68762505467155
 31
0.0
  0
LINE
  5
36F
  8
LAYER_01
 10
242.4156239579391
 20
14.68762505467155
 30
0.0
 11
242.4144582828695
 21
14.68612870713535
 31
0.0
  0
LINE
  5
370
  8
LAYER_01
 10
242.4144582828695
 20
14.68612870713535
 30
0.0
 11
242.4132589596184
 21
14.68469903626027
 31
0.0
  0
LINE
  5
371
  8
LAYER_01
 10
242.4132589596184
 20
14.68469903626027
 30
0.0
 11
242.4120260904498
 21
14.68333559251196
 31
0.0
  0
LINE
  5
372
  8
LAYER_01
 10
242.4120260904498
 20
14.68333559251196
 30
0.0
 11
242.4107597776278
 21
14.68203792635606
 31
0.0
  0
LINE
  5
373
  8
LAYER_01
 10
242.4107597776278
 20
14.68203792635606
 30
0.0
 11
242.4094601234165
 21
14.6808055882582
 31
0.0
  0
LINE
  5
374
  8
LAYER_01
 10
242.4094601234165
 20
14.6808055882582
 30
0.0
 11
242.4081272300797
 21
14.67963812868405
 31
0.0
  0
LINE
  5
375
  8
LAYER_01
 10
242.4081272300797
 20
14.67963812868405
 30
0.0
 11
242.4067611998817
 21
14.67853509809922
 31
0.0
  0
LINE
  5
376
  8
LAYER_01
 10
242.4067611998817
 20
14.67853509809922
 30
0.0
 11
242.4053621350862
 21
14.67749604696937
 31
0.0
  0
LINE
  5
377
  8
LAYER_01
 10
242.4053621350862
 20
14.67749604696937
 30
0.0
 11
242.4039301379576
 21
14.67652052576013
 31
0.0
  0
LINE
  5
378
  8
LAYER_01
 10
242.4039301379576
 20
14.67652052576013
 30
0.0
 11
242.4024653107597
 21
14.67560808493714
 31
0.0
  0
LINE
  5
379
  8
LAYER_01
 10
242.4024653107597
 20
14.67560808493714
 30
0.0
 11
242.4009677557566
 21
14.67475827496605
 31
0.0
  0
LINE
  5
37A
  8
LAYER_01
 10
242.4009677557566
 20
14.67475827496605
 30
0.0
 11
242.3994375752123
 21
14.6739706463125
 31
0.0
  0
LINE
  5
37B
  8
LAYER_01
 10
242.3994375752123
 20
14.6739706463125
 30
0.0
 11
242.3978748713908
 21
14.67324474944213
 31
0.0
  0
LINE
  5
37C
  8
LAYER_01
 10
242.3978748713908
 20
14.67324474944213
 30
0.0
 11
242.3962797465562
 21
14.67258013482057
 31
0.0
  0
LINE
  5
37D
  8
LAYER_01
 10
242.3962797465562
 20
14.67258013482057
 30
0.0
 11
242.3946523029726
 21
14.67197635291348
 31
0.0
  0
LINE
  5
37E
  8
LAYER_01
 10
242.3946523029726
 20
14.67197635291348
 30
0.0
 11
242.3929926429038
 21
14.67143295418648
 31
0.0
  0
LINE
  5
37F
  8
LAYER_01
 10
242.3929926429038
 20
14.67143295418648
 30
0.0
 11
242.3913008686141
 21
14.67094948910523
 31
0.0
  0
LINE
  5
380
  8
LAYER_01
 10
242.3913008686141
 20
14.67094948910523
 30
0.0
 11
242.3895770823673
 21
14.67052550813536
 31
0.0
  0
LINE
  5
381
  8
LAYER_01
 10
242.3895770823673
 20
14.67052550813536
 30
0.0
 11
242.3878213864276
 21
14.67016056174252
 31
0.0
  0
LINE
  5
382
  8
LAYER_01
 10
242.3878213864276
 20
14.67016056174252
 30
0.0
 11
242.3860338830589
 21
14.66985420039234
 31
0.0
  0
LINE
  5
383
  8
LAYER_01
 10
242.3860338830589
 20
14.66985420039234
 30
0.0
 11
242.3842146745254
 21
14.66960597455047
 31
0.0
  0
LINE
  5
384
  8
LAYER_01
 10
242.3842146745254
 20
14.66960597455047
 30
0.0
 11
242.3823638630909
 21
14.66941543468254
 31
0.0
  0
LINE
  5
385
  8
LAYER_01
 10
242.3823638630909
 20
14.66941543468254
 30
0.0
 11
242.3804815510196
 21
14.6692821312542
 31
0.0
  0
LINE
  5
386
  8
LAYER_01
 10
242.3804815510196
 20
14.6692821312542
 30
0.0
 11
242.3785678405755
 21
14.66920561473109
 31
0.0
  0
LINE
  5
387
  8
LAYER_01
 10
242.3785678405755
 20
14.66920561473109
 30
0.0
 11
242.3766228340226
 21
14.66918543557885
 31
0.0
  0
LINE
  5
388
  8
LAYER_01
 10
242.3766228340226
 20
14.66918543557885
 30
0.0
 11
242.374646633625
 21
14.66922114426312
 31
0.0
  0
LINE
  5
389
  8
LAYER_01
 10
242.374646633625
 20
14.66922114426312
 30
0.0
 11
242.3726393416466
 21
14.66931229124954
 31
0.0
  0
LINE
  5
38A
  8
LAYER_01
 10
242.3726393416466
 20
14.66931229124954
 30
0.0
 11
242.3706010603515
 21
14.66945842700376
 31
0.0
  0
LINE
  5
38B
  8
LAYER_01
 10
242.3706010603515
 20
14.66945842700376
 30
0.0
 11
242.3685318920038
 21
14.66965910199141
 31
0.0
  0
LINE
  5
38C
  8
LAYER_01
 10
242.3685318920038
 20
14.66965910199141
 30
0.0
 11
242.3664319388675
 21
14.66991386667813
 31
0.0
  0
LINE
  5
38D
  8
LAYER_01
 10
242.3664319388675
 20
14.66991386667813
 30
0.0
 11
242.3643013032066
 21
14.67022227152957
 31
0.0
  0
LINE
  5
38E
  8
LAYER_01
 10
242.3643013032066
 20
14.67022227152957
 30
0.0
 11
242.3621400872851
 21
14.67058386701136
 31
0.0
  0
LINE
  5
38F
  8
LAYER_01
 10
242.3621400872851
 20
14.67058386701136
 30
0.0
 11
242.359948393367
 21
14.67099820358916
 31
0.0
  0
LINE
  5
390
  8
LAYER_01
 10
242.359948393367
 20
14.67099820358916
 30
0.0
 11
242.3577263237164
 21
14.67146483172859
 31
0.0
  0
LINE
  5
391
  8
LAYER_01
 10
242.3577263237164
 20
14.67146483172859
 30
0.0
 11
242.3554739805974
 21
14.6719833018953
 31
0.0
  0
LINE
  5
392
  8
LAYER_01
 10
242.3554739805974
 20
14.6719833018953
 30
0.0
 11
242.3531914662739
 21
14.67255316455493
 31
0.0
  0
LINE
  5
393
  8
LAYER_01
 10
242.3531914662739
 20
14.67255316455493
 30
0.0
 11
242.35087888301
 21
14.67317397017313
 31
0.0
  0
LINE
  5
394
  8
LAYER_01
 10
242.35087888301
 20
14.67317397017313
 30
0.0
 11
242.3461639187171
 21
14.67456661214776
 31
0.0
  0
LINE
  5
395
  8
LAYER_01
 10
242.3461639187171
 20
14.67456661214776
 30
0.0
 11
242.3413299058309
 21
14.67615763154433
 31
0.0
  0
LINE
  5
396
  8
LAYER_01
 10
242.3413299058309
 20
14.67615763154433
 30
0.0
 11
242.3363776624636
 21
14.67794343208798
 31
0.0
  0
LINE
  5
397
  8
LAYER_01
 10
242.3363776624636
 20
14.67794343208798
 30
0.0
 11
242.3313080067276
 21
14.67992041750381
 31
0.0
  0
LINE
  5
398
  8
LAYER_01
 10
242.3313080067276
 20
14.67992041750381
 30
0.0
 11
242.3261217567349
 21
14.68208499151696
 31
0.0
  0
LINE
  5
399
  8
LAYER_01
 10
242.3261217567349
 20
14.68208499151696
 30
0.0
 11
241.1796196299611
 21
15.18365508407689
 31
0.0
  0
ARC
  5
39A
  8
LAYER_01
 10
233.8916084507055
 20
-2.079608303885078
 30
0.0
 40
18.73860639831848
 50
67.11204618061278
 51
85.68448757106259
  0
LINE
  5
39B
  8
LAYER_01
 10
235.3016643143655
 20
16.60587034164232
 30
0.0
 11
234.811836247503
 21
16.60633317276954
 31
0.0
  0
LINE
  5
39C
  8
LAYER_01
 10
234.811836247503
 20
16.60633317276954
 30
0.0
 11
234.811836247503
 21
20.18821566444407
 31
0.0
  0
ARC
  5
39D
  8
LAYER_01
 10
199.7014533160101
 20
21.35917278549615
 30
0.0
 40
35.12990364597386
 50
358.0898515601432
 51
10.48153978473263
  0
ARC
  5
39E
  8
LAYER_01
 10
178.0486483411091
 20
17.37234094204434
 30
0.0
 40
57.14668305247329
 50
10.46274617986195
 51
15.15420331822551
  0
LINE
  5
39F
  8
LAYER_01
 10
233.2080986218448
 20
32.31149850286003
 30
0.0
 11
233.2039331417
 21
32.52579857138186
 31
0.0
  0
LINE
  5
3A0
  8
LAYER_01
 10
233.2039331417
 20
32.52579857138186
 30
0.0
 11
234.4711277415169
 21
31.02569346341785
 31
0.0
  0
LINE
  5
3A1
  8
LAYER_01
 10
234.4711277415169
 20
31.02569346341785
 30
0.0
 11
234.4713221305904
 21
31.02572586159677
 31
0.0
  0
ARC
  5
3A2
  8
LAYER_01
 10
-190.2112845050063
 20
20.1934508472324
 30
0.0
 40
40.83838714609067
 50
146.9495073996314
 51
176.0095858451621
210
0.0
220
0.0
230
-1.0
  0
ARC
  5
3A3
  8
LAYER_01
 10
-170.8969163674632
 20
19.32364009101389
 30
0.0
 40
60.16834721580805
 50
176.4632239345621
 51
183.08664126151
210
0.0
220
0.0
230
-1.0
  0
LINE
  5
3A4
  8
LAYER_01
 10
230.9779744663909
 20
16.08381534339199
 30
0.0
 11
230.8931884321969
 21
15.62249767396571
 31
0.0
  0
LINE
  5
3A5
  8
LAYER_01
 10
230.8931884321969
 20
15.62249767396571
 30
0.0
 11
230.1584486460587
 21
16.21400048285423
 31
0.0
  0
ARC
  5
3A6
  8
LAYER_01
 10
204.6884082716542
 20
-15.87752553925669
 30
0.0
 40
40.97058699971994
 50
51.56206835043304
 51
62.18627885626873
  0
LINE
  5
3A7
  8
LAYER_01
 10
223.8052213025514
 20
20.35969922538746
 30
0.0
 11
223.0850329270528
 21
20.70868778023933
 31
0.0
  0
LINE
  5
3A8
  8
LAYER_01
 10
223.0850329270528
 20
20.70868778023933
 30
0.0
 11
223.1570864769372
 21
22.11694867931932
 31
0.0
  0
LINE
  5
3A9
  8
LAYER_01
 10
223.1570864769372
 20
22.11694867931932
 30
0.0
 11
223.6248374990317
 21
26.83155944342187
 31
0.0
  0
LINE
  5
3AA
  8
LAYER_01
 10
223.6248374990317
 20
26.83155944342187
 30
0.0
 11
223.8203577968213
 21
28.64671068946898
 31
0.0
  0
LINE
  5
3AB
  8
LAYER_01
 10
223.8203577968213
 20
28.64671068946898
 30
0.0
 11
223.9534533847415
 21
30.35580984154911
 31
0.0
  0
LINE
  5
3AC
  8
LAYER_01
 10
223.9534533847415
 20
30.35580984154911
 30
0.0
 11
223.9962449925476
 21
31.19240066927617
 31
0.0
  0
LINE
  5
3AD
  8
LAYER_01
 10
223.9962449925476
 20
31.19240066927617
 30
0.0
 11
224.023014118943
 21
32.02865141782102
 31
0.0
  0
LINE
  5
3AE
  8
LAYER_01
 10
224.023014118943
 20
32.02865141782102
 30
0.0
 11
224.0336219959464
 21
32.87328640195351
 31
0.0
  0
LINE
  5
3AF
  8
LAYER_01
 10
224.0336219959464
 20
32.87328640195351
 30
0.0
 11
224.0279298555768
 21
33.73502993644348
 31
0.0
  0
LINE
  5
3B0
  8
LAYER_01
 10
224.0279298555768
 20
33.73502993644348
 30
0.0
 11
223.967090450794
 21
35.54473991557526
 31
0.0
  0
LINE
  5
3B1
  8
LAYER_01
 10
223.967090450794
 20
35.54473991557526
 30
0.0
 11
223.8393857607455
 21
37.52757587337513
 31
0.0
  0
LINE
  5
3B2
  8
LAYER_01
 10
223.8393857607455
 20
37.52757587337513
 30
0.0
 11
223.3789399494551
 21
42.29180379761417
 31
0.0
  0
LINE
  5
3B3
  8
LAYER_01
 10
223.3789399494551
 20
42.29180379761417
 30
0.0
 11
223.2452141518697
 21
44.15928111280289
 31
0.0
  0
LINE
  5
3B4
  8
LAYER_01
 10
223.2452141518697
 20
44.15928111280289
 30
0.0
 11
224.4416141024682
 21
42.46580515988961
 31
0.0
  0
LINE
  5
3B5
  8
LAYER_01
 10
224.4416141024682
 20
42.46580515988961
 30
0.0
 11
224.4416233590908
 21
42.46580515988964
 31
0.0
  0
ARC
  5
3B6
  8
LAYER_01
 10
-205.2169196870223
 20
43.53253242379127
 30
0.0
 40
25.38363567631934
 50
124.7577967352625
 51
171.6921005229184
210
0.0
220
0.0
230
-1.0
  0
ARC
  5
3B7
  8
LAYER_01
 10
-194.9613637611688
 20
41.57292424287831
 30
0.0
 40
35.81763548482687
 50
170.9607328716544
 51
181.7975170209418
210
0.0
220
0.0
230
-1.0
  0
LINE
  5
3B8
  8
LAYER_01
 10
230.7613741271668
 20
40.44941655783165
 30
0.0
 11
230.6773887908229
 21
39.00501780433892
 31
0.0
  0
LINE
  5
3B9
  8
LAYER_01
 10
230.6773887908229
 20
39.00501780433892
 30
0.0
 11
229.8570669009519
 21
40.51064911596183
 31
0.0
  0
ARC
  5
3BA
  8
LAYER_01
 10
190.1295158389304
 20
19.15810388655964
 30
0.0
 40
45.10221171028302
 50
28.25689558743735
 51
42.5709392613876
  0
LINE
  5
3BB
  8
LAYER_01
 10
223.3446025081273
 20
49.6698642211738
 30
0.0
 11
222.1834056319137
 21
50.9556646323047
 31
0.0
  0
LINE
  5
3BC
  8
LAYER_01
 10
222.1834056319137
 20
50.9556646323047
 30
0.0
 11
221.9112609291129
 21
52.42515346120361
 31
0.0
  0
ARC
  5
3BD
  8
LAYER_01
 10
163.0634156692136
 20
41.43031493813395
 30
0.0
 40
59.86614540691122
 50
10.58284444726038
 51
21.95574926831671
  0
LINE
  5
3BE
  8
LAYER_01
 10
218.5876428347341
 20
63.81369188517012
 30
0.0
 11
217.8835054427272
 21
65.44919361108879
 31
0.0
  0
LINE
  5
3BF
  8
LAYER_01
 10
217.8835054427272
 20
65.44919361108879
 30
0.0
 11
217.8826626597627
 21
65.45130136662158
 31
0.0
  0
LINE
  5
3C0
  8
LAYER_01
 10
217.8826626597627
 20
65.45130136662158
 30
0.0
 11
217.881886056869
 21
65.453357530829
 31
0.0
  0
LINE
  5
3C1
  8
LAYER_01
 10
217.881886056869
 20
65.453357530829
 30
0.0
 11
217.8811755835587
 21
65.45536213342373
 31
0.0
  0
LINE
  5
3C2
  8
LAYER_01
 10
217.8811755835587
 20
65.45536213342373
 30
0.0
 11
217.8805311893444
 21
65.45731520411856
 31
0.0
  0
LINE
  5
3C3
  8
LAYER_01
 10
217.8805311893444
 20
65.45731520411856
 30
0.0
 11
217.879952823739
 21
65.45921677262618
 31
0.0
  0
LINE
  5
3C4
  8
LAYER_01
 10
217.879952823739
 20
65.45921677262618
 30
0.0
 11
217.879440436255
 21
65.46106686865932
 31
0.0
  0
LINE
  5
3C5
  8
LAYER_01
 10
217.879440436255
 20
65.46106686865932
 30
0.0
 11
217.8789939764052
 21
65.4628655219307
 31
0.0
  0
LINE
  5
3C6
  8
LAYER_01
 10
217.8789939764052
 20
65.4628655219307
 30
0.0
 11
217.8786133937023
 21
65.4646127621531
 31
0.0
  0
LINE
  5
3C7
  8
LAYER_01
 10
217.8786133937023
 20
65.4646127621531
 30
0.0
 11
217.8782986376589
 21
65.46630861903921
 31
0.0
  0
LINE
  5
3C8
  8
LAYER_01
 10
217.8782986376589
 20
65.46630861903921
 30
0.0
 11
217.8780496577877
 21
65.46795312230175
 31
0.0
  0
LINE
  5
3C9
  8
LAYER_01
 10
217.8780496577877
 20
65.46795312230175
 30
0.0
 11
217.8778664036015
 21
65.46954630165348
 31
0.0
  0
LINE
  5
3CA
  8
LAYER_01
 10
217.8778664036015
 20
65.46954630165348
 30
0.0
 11
217.8777488246129
 21
65.47108818680712
 31
0.0
  0
LINE
  5
3CB
  8
LAYER_01
 10
217.8777488246129
 20
65.47108818680712
 30
0.0
 11
217.8776968703345
 21
65.4725788074754
 31
0.0
  0
LINE
  5
3CC
  8
LAYER_01
 10
217.8776968703345
 20
65.4725788074754
 30
0.0
 11
217.8777104902792
 21
65.47401819337105
 31
0.0
  0
LINE
  5
3CD
  8
LAYER_01
 10
217.8777104902792
 20
65.47401819337105
 30
0.0
 11
217.8777896339596
 21
65.4754063742068
 31
0.0
  0
LINE
  5
3CE
  8
LAYER_01
 10
217.8777896339596
 20
65.4754063742068
 30
0.0
 11
217.8779342508884
 21
65.47674337969536
 31
0.0
  0
LINE
  5
3CF
  8
LAYER_01
 10
217.8779342508884
 20
65.47674337969536
 30
0.0
 11
217.8781442905782
 21
65.4780292395495
 31
0.0
  0
LINE
  5
3D0
  8
LAYER_01
 10
217.8781442905782
 20
65.4780292395495
 30
0.0
 11
217.8784197025417
 21
65.47926398348194
 31
0.0
  0
LINE
  5
3D1
  8
LAYER_01
 10
217.8784197025417
 20
65.47926398348194
 30
0.0
 11
217.8787604362918
 21
65.48044764120539
 31
0.0
  0
LINE
  5
3D2
  8
LAYER_01
 10
217.8787604362918
 20
65.48044764120539
 30
0.0
 11
217.8791664413409
 21
65.4815802424326
 31
0.0
  0
LINE
  5
3D3
  8
LAYER_01
 10
217.8791664413409
 20
65.4815802424326
 30
0.0
 11
217.8796376672019
 21
65.48266181687629
 31
0.0
  0
LINE
  5
3D4
  8
LAYER_01
 10
217.8796376672019
 20
65.48266181687629
 30
0.0
 11
217.8801740633874
 21
65.48369239424918
 31
0.0
  0
LINE
  5
3D5
  8
LAYER_01
 10
217.8801740633874
 20
65.48369239424918
 30
0.0
 11
217.8807755794101
 21
65.48467200426401
 31
0.0
  0
LINE
  5
3D6
  8
LAYER_01
 10
217.8807755794101
 20
65.48467200426401
 30
0.0
 11
217.8814421647828
 21
65.48560067663351
 31
0.0
  0
LINE
  5
3D7
  8
LAYER_01
 10
217.8814421647828
 20
65.48560067663351
 30
0.0
 11
217.882173769018
 21
65.48647844107042
 31
0.0
  0
LINE
  5
3D8
  8
LAYER_01
 10
217.882173769018
 20
65.48647844107042
 30
0.0
 11
217.8829703416284
 21
65.48730532728746
 31
0.0
  0
LINE
  5
3D9
  8
LAYER_01
 10
217.8829703416284
 20
65.48730532728746
 30
0.0
 11
217.8838318321269
 21
65.48808136499738
 31
0.0
  0
LINE
  5
3DA
  8
LAYER_01
 10
217.8838318321269
 20
65.48808136499738
 30
0.0
 11
217.884758190026
 21
65.48880658391289
 31
0.0
  0
LINE
  5
3DB
  8
LAYER_01
 10
217.884758190026
 20
65.48880658391289
 30
0.0
 11
217.8857493648385
 21
65.48948101374673
 31
0.0
  0
LINE
  5
3DC
  8
LAYER_01
 10
217.8857493648385
 20
65.48948101374673
 30
0.0
 11
217.886805306077
 21
65.49010468421162
 31
0.0
  0
LINE
  5
3DD
  8
LAYER_01
 10
217.886805306077
 20
65.49010468421162
 30
0.0
 11
217.8879259632542
 21
65.49067762502028
 31
0.0
  0
LINE
  5
3DE
  8
LAYER_01
 10
217.8879259632542
 20
65.49067762502028
 30
0.0
 11
217.8891112858828
 21
65.49119986588545
 31
0.0
  0
LINE
  5
3DF
  8
LAYER_01
 10
217.8891112858828
 20
65.49119986588545
 30
0.0
 11
217.8903612234756
 21
65.49167143651988
 31
0.0
  0
LINE
  5
3E0
  8
LAYER_01
 10
217.8903612234756
 20
65.49167143651988
 30
0.0
 11
217.8916757255451
 21
65.49209236663627
 31
0.0
  0
LINE
  5
3E1
  8
LAYER_01
 10
217.8916757255451
 20
65.49209236663627
 30
0.0
 11
217.8930547416042
 21
65.49246268594739
 31
0.0
  0
LINE
  5
3E2
  8
LAYER_01
 10
217.8930547416042
 20
65.49246268594739
 30
0.0
 11
217.8944982211654
 21
65.49278242416592
 31
0.0
  0
LINE
  5
3E3
  8
LAYER_01
 10
217.8944982211654
 20
65.49278242416592
 30
0.0
 11
217.8960061137415
 21
65.49305161100463
 31
0.0
  0
LINE
  5
3E4
  8
LAYER_01
 10
217.8960061137415
 20
65.49305161100463
 30
0.0
 11
217.8975783688452
 21
65.49327027617623
 31
0.0
  0
LINE
  5
3E5
  8
LAYER_01
 10
217.8975783688452
 20
65.49327027617623
 30
0.0
 11
217.8992149359891
 21
65.49343844939347
 31
0.0
  0
LINE
  5
3E6
  8
LAYER_01
 10
217.8992149359891
 20
65.49343844939347
 30
0.0
 11
217.9009157646859
 21
65.49355616036905
 31
0.0
  0
LINE
  5
3E7
  8
LAYER_01
 10
217.9009157646859
 20
65.49355616036905
 30
0.0
 11
217.9026808044484
 21
65.49362343881573
 31
0.0
  0
LINE
  5
3E8
  8
LAYER_01
 10
217.9026808044484
 20
65.49362343881573
 30
0.0
 11
217.9045100047892
 21
65.49364031444622
 31
0.0
  0
LINE
  5
3E9
  8
LAYER_01
 10
217.9045100047892
 20
65.49364031444622
 30
0.0
 11
217.906403315221
 21
65.49360681697328
 31
0.0
  0
LINE
  5
3EA
  8
LAYER_01
 10
217.906403315221
 20
65.49360681697328
 30
0.0
 11
217.9083606852565
 21
65.4935229761096
 31
0.0
  0
LINE
  5
3EB
  8
LAYER_01
 10
217.9083606852565
 20
65.4935229761096
 30
0.0
 11
217.9103820644085
 21
65.49338882156793
 31
0.0
  0
LINE
  5
3EC
  8
LAYER_01
 10
217.9103820644085
 20
65.49338882156793
 30
0.0
 11
217.9124674021894
 21
65.493204383061
 31
0.0
  0
LINE
  5
3ED
  8
LAYER_01
 10
217.9124674021894
 20
65.493204383061
 30
0.0
 11
217.9146166481122
 21
65.49296969030152
 31
0.0
  0
LINE
  5
3EE
  8
LAYER_01
 10
217.9146166481122
 20
65.49296969030152
 30
0.0
 11
217.9168297516894
 21
65.49268477300227
 31
0.0
  0
LINE
  5
3EF
  8
LAYER_01
 10
217.9168297516894
 20
65.49268477300227
 30
0.0
 11
217.921447329858
 21
65.49196438363525
 31
0.0
  0
LINE
  5
3F0
  8
LAYER_01
 10
217.921447329858
 20
65.49196438363525
 30
0.0
 11
217.9263197327967
 21
65.4910434526618
 31
0.0
  0
LINE
  5
3F1
  8
LAYER_01
 10
217.9263197327967
 20
65.4910434526618
 30
0.0
 11
217.9314465566071
 21
65.48992221778374
 31
0.0
  0
LINE
  5
3F2
  8
LAYER_01
 10
217.9314465566071
 20
65.48992221778374
 30
0.0
 11
217.9368273973907
 21
65.48860091670295
 31
0.0
  0
LINE
  5
3F3
  8
LAYER_01
 10
217.9368273973907
 20
65.48860091670295
 30
0.0
 11
217.9424618512489
 21
65.48707978712123
 31
0.0
  0
LINE
  5
3F4
  8
LAYER_01
 10
217.9424618512489
 20
65.48707978712123
 30
0.0
 11
217.9483495142834
 21
65.48535906674046
 31
0.0
  0
LINE
  5
3F5
  8
LAYER_01
 10
217.9483495142834
 20
65.48535906674046
 30
0.0
 11
217.9608828522871
 21
65.48131980438905
 31
0.0
  0
LINE
  5
3F6
  8
LAYER_01
 10
217.9608828522871
 20
65.48131980438905
 30
0.0
 11
217.9744241802139
 21
65.47648503126345
 31
0.0
  0
LINE
  5
3F7
  8
LAYER_01
 10
217.9744241802139
 20
65.47648503126345
 30
0.0
 11
217.988970266876
 21
65.47085664897843
 31
0.0
  0
LINE
  5
3F8
  8
LAYER_01
 10
217.988970266876
 20
65.47085664897843
 30
0.0
 11
218.0045178810855
 21
65.46443655914871
 31
0.0
  0
LINE
  5
3F9
  8
LAYER_01
 10
218.0045178810855
 20
65.46443655914871
 30
0.0
 11
218.0210637916547
 21
65.45722666338902
 31
0.0
  0
LINE
  5
3FA
  8
LAYER_01
 10
218.0210637916547
 20
65.45722666338902
 30
0.0
 11
218.0571375771206
 21
65.4404450605387
 31
0.0
  0
LINE
  5
3FB
  8
LAYER_01
 10
218.0571375771206
 20
65.4404450605387
 30
0.0
 11
218.0971657737711
 21
65.42052705334542
 31
0.0
  0
LINE
  5
3FC
  8
LAYER_01
 10
218.0971657737711
 20
65.42052705334542
 30
0.0
 11
218.188982002615
 21
65.37134267760149
 31
0.0
  0
LINE
  5
3FD
  8
LAYER_01
 10
218.188982002615
 20
65.37134267760149
 30
0.0
 11
218.2963056821656
 21
65.30979523950046
 31
0.0
  0
LINE
  5
3FE
  8
LAYER_01
 10
218.2963056821656
 20
65.30979523950046
 30
0.0
 11
218.5566482093019
 21
65.15009798959997
 31
0.0
  0
LINE
  5
3FF
  8
LAYER_01
 10
218.5566482093019
 20
65.15009798959997
 30
0.0
 11
218.8765389870107
 21
64.94240893038982
 31
0.0
  0
LINE
  5
400
  8
LAYER_01
 10
218.8765389870107
 20
64.94240893038982
 30
0.0
 11
219.6883478214703
 21
64.38694989102395
 31
0.0
  0
LINE
  5
401
  8
LAYER_01
 10
266.4349446856718
 20
105.0066195087178
 30
0.0984545733122246
 11
240.4703521642824
 21
105.0061967900935
 31
0.0984545733122246
  0
LINE
  5
402
  8
LAYER_01
 10
240.4703521642824
 20
105.0061967900935
 30
0.0984545733122246
 11
240.5061187006416
 21
105.0036743987341
 31
0.0984545733122246
  0
LINE
  5
403
  8
LAYER_01
 10
240.5061187006416
 20
105.0036743987341
 30
0.0984545733122246
 11
240.5423784171587
 21
104.9994884667241
 31
0.0984545733122246
  0
LINE
  5
404
  8
LAYER_01
 10
240.5423784171587
 20
104.9994884667241
 30
0.0984545733122246
 11
240.5791281032999
 21
104.9936474473364
 31
0.0984545733122246
  0
LINE
  5
405
  8
LAYER_01
 10
240.5791281032999
 20
104.9936474473364
 30
0.0984545733122246
 11
240.6163645485313
 21
104.9861597938438
 31
0.0984545733122246
  0
LINE
  5
406
  8
LAYER_01
 10
240.6163645485313
 20
104.9861597938438
 30
0.0984545733122246
 11
240.6540845423191
 21
104.9770339595189
 31
0.0984545733122246
  0
LINE
  5
407
  8
LAYER_01
 10
240.6540845423191
 20
104.9770339595189
 30
0.0984545733122246
 11
240.6922848741295
 21
104.9662783976347
 31
0.0984545733122246
  0
LINE
  5
408
  8
LAYER_01
 10
240.6922848741295
 20
104.9662783976347
 30
0.0984545733122246
 11
240.7309623334286
 21
104.9539015614639
 31
0.0984545733122246
  0
LINE
  5
409
  8
LAYER_01
 10
240.7309623334286
 20
104.9539015614639
 30
0.0984545733122246
 11
240.7701137096825
 21
104.9399119042793
 31
0.0984545733122246
  0
LINE
  5
40A
  8
LAYER_01
 10
240.7701137096825
 20
104.9399119042793
 30
0.0984545733122246
 11
240.8097357923575
 21
104.9243178793536
 31
0.0984545733122246
  0
LINE
  5
40B
  8
LAYER_01
 10
240.8097357923575
 20
104.9243178793536
 30
0.0984545733122246
 11
240.8498253709197
 21
104.9071279399597
 31
0.0984545733122246
  0
LINE
  5
40C
  8
LAYER_01
 10
240.8498253709197
 20
104.9071279399597
 30
0.0984545733122246
 11
240.8903792348353
 21
104.8883505393703
 31
0.0984545733122246
  0
LINE
  5
40D
  8
LAYER_01
 10
240.8903792348353
 20
104.8883505393703
 30
0.0984545733122246
 11
240.9313941735704
 21
104.8679941308583
 31
0.0984545733122246
  0
LINE
  5
40E
  8
LAYER_01
 10
240.9313941735704
 20
104.8679941308583
 30
0.0984545733122246
 11
240.9728669765911
 21
104.8460671676963
 31
0.0984545733122246
  0
LINE
  5
40F
  8
LAYER_01
 10
240.9728669765911
 20
104.8460671676963
 30
0.0984545733122246
 11
241.0147944333638
 21
104.8225781031573
 31
0.0984545733122246
  0
LINE
  5
410
  8
LAYER_01
 10
241.0147944333638
 20
104.8225781031573
 30
0.0984545733122246
 11
241.0571733333544
 21
104.7975353905139
 31
0.0984545733122246
  0
LINE
  5
411
  8
LAYER_01
 10
241.0571733333544
 20
104.7975353905139
 30
0.0984545733122246
 11
241.1000004660292
 21
104.7709474830391
 31
0.0984545733122246
  0
LINE
  5
412
  8
LAYER_01
 10
241.1000004660292
 20
104.7709474830391
 30
0.0984545733122246
 11
241.1432726208543
 21
104.7428228340054
 31
0.0984545733122246
  0
LINE
  5
413
  8
LAYER_01
 10
241.1432726208543
 20
104.7428228340054
 30
0.0984545733122246
 11
241.186986587296
 21
104.7131698966858
 31
0.0984545733122246
  0
LINE
  5
414
  8
LAYER_01
 10
241.186986587296
 20
104.7131698966858
 30
0.0984545733122246
 11
241.2311391548202
 21
104.681997124353
 31
0.0984545733122246
  0
LINE
  5
415
  8
LAYER_01
 10
241.2311391548202
 20
104.681997124353
 30
0.0984545733122246
 11
241.2757271128933
 21
104.6493129702798
 31
0.0984545733122246
  0
LINE
  5
416
  8
LAYER_01
 10
241.2757271128933
 20
104.6493129702798
 30
0.0984545733122246
 11
241.3661963585506
 21
104.5794443300033
 31
0.0984545733122246
  0
LINE
  5
417
  8
LAYER_01
 10
241.3661963585506
 20
104.5794443300033
 30
0.0984545733122246
 11
241.458368639997
 21
104.5036316020387
 31
0.0984545733122246
  0
LINE
  5
418
  8
LAYER_01
 10
241.458368639997
 20
104.5036316020387
 30
0.0984545733122246
 11
241.552218272962
 21
104.4219424125682
 31
0.0984545733122246
  0
LINE
  5
419
  8
LAYER_01
 10
241.552218272962
 20
104.4219424125682
 30
0.0984545733122246
 11
241.6477195731747
 21
104.3344443877741
 31
0.0984545733122246
  0
LINE
  5
41A
  8
LAYER_01
 10
241.6477195731747
 20
104.3344443877741
 30
0.0984545733122246
 11
241.7448468563645
 21
104.2412051538386
 31
0.0984545733122246
  0
LINE
  5
41B
  8
LAYER_01
 10
241.7448468563645
 20
104.2412051538386
 30
0.0984545733122246
 11
241.8435744382606
 21
104.1422923369441
 31
0.0984545733122246
  0
LINE
  5
41C
  8
LAYER_01
 10
241.8435744382606
 20
104.1422923369441
 30
0.0984545733122246
 11
241.9438766345924
 21
104.0377735632728
 31
0.0984545733122246
  0
LINE
  5
41D
  8
LAYER_01
 10
241.9438766345924
 20
104.0377735632728
 30
0.0984545733122246
 11
242.045727761089
 21
103.927716459007
 31
0.0984545733122246
  0
LINE
  5
41E
  8
LAYER_01
 10
242.045727761089
 20
103.927716459007
 30
0.0984545733122246
 11
242.2539740674944
 21
103.691257763421
 31
0.0984545733122246
  0
LINE
  5
41F
  8
LAYER_01
 10
242.2539740674944
 20
103.691257763421
 30
0.0984545733122246
 11
242.4681078833109
 21
103.4334572596444
 31
0.0984545733122246
  0
LINE
  5
420
  8
LAYER_01
 10
242.4681078833109
 20
103.4334572596444
 30
0.0984545733122246
 11
242.6879237343729
 21
103.1548559571354
 31
0.0984545733122246
  0
LINE
  5
421
  8
LAYER_01
 10
242.6879237343729
 20
103.1548559571354
 30
0.0984545733122246
 11
242.9132161465148
 21
102.8559948653522
 31
0.0984545733122246
  0
LINE
  5
422
  8
LAYER_01
 10
242.9132161465148
 20
102.8559948653522
 30
0.0984545733122246
 11
243.1437796455708
 21
102.5374149937531
 31
0.0984545733122246
  0
LINE
  5
423
  8
LAYER_01
 10
243.1437796455708
 20
102.5374149937531
 30
0.0984545733122246
 11
243.6198980077626
 21
101.8432629489399
 31
0.0984545733122246
  0
LINE
  5
424
  8
LAYER_01
 10
243.6198980077626
 20
101.8432629489399
 30
0.0984545733122246
 11
244.1146350276227
 21
101.0767278983617
 31
0.0984545733122246
  0
LINE
  5
425
  8
LAYER_01
 10
244.1146350276227
 20
101.0767278983617
 30
0.0984545733122246
 11
244.6263469118259
 21
100.2421379176844
 31
0.0984545733122246
  0
LINE
  5
426
  8
LAYER_01
 10
244.6263469118259
 20
100.2421379176844
 30
0.0984545733122246
 11
245.6941200999592
 21
98.38610546869565
 31
0.0984545733122246
  0
LINE
  5
427
  8
LAYER_01
 10
245.6941200999592
 20
98.38610546869565
 30
0.0984545733122246
 11
246.8100672255588
 21
96.30979020730055
 31
0.0984545733122246
  0
LINE
  5
428
  8
LAYER_01
 10
246.8100672255588
 20
96.30979020730055
 30
0.0984545733122246
 11
247.9610379420211
 21
94.04781673882593
 31
0.0984545733122246
  0
LINE
  5
429
  8
LAYER_01
 10
247.9610379420211
 20
94.04781673882593
 30
0.0984545733122246
 11
250.3154487611192
 21
89.10539360194534
 31
0.0984545733122246
  0
LINE
  5
42A
  8
LAYER_01
 10
250.3154487611192
 20
89.10539360194534
 30
0.0984545733122246
 11
252.6521497844243
 21
83.83583290066849
 31
0.0984545733122246
  0
LINE
  5
42B
  8
LAYER_01
 10
252.6521497844243
 20
83.83583290066849
 30
0.0984545733122246
 11
254.8659382391071
 21
78.51613147761
 31
0.0984545733122246
  0
LINE
  5
42C
  8
LAYER_01
 10
254.8659382391071
 20
78.51613147761
 30
0.0984545733122246
 11
256.8516113523384
 21
73.42328617538448
 31
0.0984545733122246
  0
LINE
  5
42D
  8
LAYER_01
 10
256.8516113523384
 20
73.42328617538448
 30
0.0984545733122246
 11
258.5343769944222
 21
68.75840987330115
 31
0.0984545733122246
  0
LINE
  5
42E
  8
LAYER_01
 10
258.5343769944222
 20
68.75840987330115
 30
0.0984545733122246
 11
259.9231114890091
 21
64.52615075871782
 31
0.0984545733122246
  0
LINE
  5
42F
  8
LAYER_01
 10
259.9231114890091
 20
64.52615075871782
 30
0.0984545733122246
 11
261.059721188602
 21
60.65131351913449
 31
0.0984545733122246
  0
LINE
  5
430
  8
LAYER_01
 10
261.059721188602
 20
60.65131351913449
 30
0.0984545733122246
 11
261.986112445704
 21
57.05870284205116
 31
0.0984545733122246
  0
LINE
  5
431
  8
LAYER_01
 10
261.986112445704
 20
57.05870284205116
 30
0.0984545733122246
 11
262.7441916128179
 21
53.67312341496783
 31
0.0984545733122246
  0
LINE
  5
432
  8
LAYER_01
 10
262.7441916128179
 20
53.67312341496783
 30
0.0984545733122246
 11
263.375865042447
 21
50.4193799253845
 31
0.0984545733122246
  0
LINE
  5
433
  8
LAYER_01
 10
263.375865042447
 20
50.4193799253845
 30
0.0984545733122246
 11
264.4276200992624
 21
44.00661950871785
 31
0.0984545733122246
  0
LINE
  5
434
  8
LAYER_01
 10
264.4276200992624
 20
44.00661950871785
 30
0.0984545733122246
 11
266.288886499745
 21
30.75719161334215
 31
0.0984545733122246
  0
LINE
  5
435
  8
LAYER_01
 10
266.288886499745
 20
30.75719161334215
 30
0.0984545733122246
 11
266.98617471995
 21
24.50855036182491
 31
0.0984545733122246
  0
LINE
  5
436
  8
LAYER_01
 10
266.98617471995
 20
24.50855036182491
 30
0.0984545733122246
 11
267.2363682275118
 21
21.64249813193881
 31
0.0984545733122246
  0
LINE
  5
437
  8
LAYER_01
 10
267.2363682275118
 20
21.64249813193881
 30
0.0984545733122246
 11
267.4056463400344
 21
19.01119634571242
 31
0.0984545733122246
  0
LINE
  5
438
  8
LAYER_01
 10
267.4056463400344
 20
19.01119634571242
 30
0.0984545733122246
 11
267.4823668148211
 21
16.95425147971471
 31
0.0984545733122246
  0
LINE
  5
439
  8
LAYER_01
 10
267.4823668148211
 20
16.95425147971471
 30
0.0984545733122246
 11
267.4869692201202
 21
10.27111113966103
 31
0.0984545733122246
  0
LINE
  5
43A
  8
LAYER_01
 10
267.4869692201202
 20
10.27111113966103
 30
0.0984545733122246
 11
267.5091881744825
 21
8.84754079708133
 31
0.0984545733122246
  0
LINE
  5
43B
  8
LAYER_01
 10
267.5091881744825
 20
8.84754079708133
 30
0.0984545733122246
 11
267.5367456607628
 21
8.15373289435583
 31
0.0984545733122246
  0
LINE
  5
43C
  8
LAYER_01
 10
267.5367456607628
 20
8.15373289435583
 30
0.0984545733122246
 11
267.5784897606594
 21
7.46727833605488
 31
0.0984545733122246
  0
LINE
  5
43D
  8
LAYER_01
 10
267.5784897606594
 20
7.46727833605488
 30
0.0984545733122246
 11
267.6368364298345
 21
6.784703496214718
 31
0.0984545733122246
  0
LINE
  5
43E
  8
LAYER_01
 10
267.6368364298345
 20
6.784703496214718
 30
0.0984545733122246
 11
267.7142016239508
 21
6.102534748871577
 31
0.0984545733122246
  0
LINE
  5
43F
  8
LAYER_01
 10
267.7142016239508
 20
6.102534748871577
 30
0.0984545733122246
 11
267.2838244508784
 21
6.750030837510039
 31
0.0984545733122246
  0
LINE
  5
440
  8
LAYER_01
 10
267.2838244508784
 20
6.750030837510039
 30
0.0984545733122246
 11
266.8316203619145
 21
7.382476216835681
 31
0.0984545733122246
  0
LINE
  5
441
  8
LAYER_01
 10
266.8316203619145
 20
7.382476216835681
 30
0.0984545733122246
 11
266.3581152202003
 21
7.999135423101213
 31
0.0984545733122246
  0
LINE
  5
442
  8
LAYER_01
 10
266.3581152202003
 20
7.999135423101213
 30
0.0984545733122246
 11
265.8638596596311
 21
8.59929135013219
 31
0.0984545733122246
  0
LINE
  5
443
  8
LAYER_01
 10
265.8638596596311
 20
8.59929135013219
 30
0.0984545733122246
 11
265.3494284445384
 21
9.182246083230853
 31
0.0984545733122246
  0
LINE
  5
444
  8
LAYER_01
 10
265.3494284445384
 20
9.182246083230853
 30
0.0984545733122246
 11
264.8154198012984
 21
9.747321710778923
 31
0.0984545733122246
  0
LINE
  5
445
  8
LAYER_01
 10
264.8154198012984
 20
9.747321710778923
 30
0.0984545733122246
 11
264.2624547226622
 21
10.29386111257242
 31
0.0984545733122246
  0
LINE
  5
446
  8
LAYER_01
 10
264.2624547226622
 20
10.29386111257242
 30
0.0984545733122246
 11
263.6911762456093
 21
10.82122872398041
 31
0.0984545733122246
  0
LINE
  5
447
  8
LAYER_01
 10
263.6911762456093
 20
10.82122872398041
 30
0.0984545733122246
 11
263.1022487035709
 21
11.32881127503241
 31
0.0984545733122246
  0
LINE
  5
448
  8
LAYER_01
 10
263.1022487035709
 20
11.32881127503241
 30
0.0984545733122246
 11
262.4963569538787
 21
11.81601850358798
 31
0.0984545733122246
  0
LINE
  5
449
  8
LAYER_01
 10
262.4963569538787
 20
11.81601850358798
 30
0.0984545733122246
 11
261.8742055813511
 21
12.28228384174652
 31
0.0984545733122246
  0
LINE
  5
44A
  8
LAYER_01
 10
261.8742055813511
 20
12.28228384174652
 30
0.0984545733122246
 11
261.2365180789486
 21
12.72706507469535
 31
0.0984545733122246
  0
LINE
  5
44B
  8
LAYER_01
 10
261.2365180789486
 20
12.72706507469535
 30
0.0984545733122246
 11
260.5840360064208
 21
13.14984497125371
 31
0.0984545733122246
  0
LINE
  5
44C
  8
LAYER_01
 10
260.5840360064208
 20
13.14984497125371
 30
0.0984545733122246
 11
259.9175181279612
 21
13.55013188535104
 31
0.0984545733122246
  0
LINE
  5
44D
  8
LAYER_01
 10
259.9175181279612
 20
13.55013188535104
 30
0.0984545733122246
 11
259.5799968134804
 21
13.73435765067468
 31
0.0984545733122246
  0
LINE
  5
44E
  8
LAYER_01
 10
259.5799968134804
 20
13.73435765067468
 30
0.0984545733122246
 11
259.3145143321839
 21
13.88564373367729
 31
0.0984545733122246
  0
LINE
  5
44F
  8
LAYER_01
 10
259.3145143321839
 20
13.88564373367729
 30
0.0984545733122246
 11
259.206426610415
 21
13.95084055018539
 31
0.0984545733122246
  0
LINE
  5
450
  8
LAYER_01
 10
259.206426610415
 20
13.95084055018539
 30
0.0984545733122246
 11
259.1135153446644
 21
14.01008983316583
 31
0.0984545733122246
  0
LINE
  5
451
  8
LAYER_01
 10
259.1135153446644
 20
14.01008983316583
 30
0.0984545733122246
 11
259.0724557523504
 21
14.03772241906784
 31
0.0984545733122246
  0
LINE
  5
452
  8
LAYER_01
 10
259.0724557523504
 20
14.03772241906784
 30
0.0984545733122246
 11
259.0348361175062
 21
14.0641540449695
 31
0.0984545733122246
  0
LINE
  5
453
  8
LAYER_01
 10
259.0348361175062
 20
14.0641540449695
 30
0.0984545733122246
 11
259.0005383879536
 21
14.08948001866469
 31
0.0984545733122246
  0
LINE
  5
454
  8
LAYER_01
 10
259.0005383879536
 20
14.08948001866469
 30
0.0984545733122246
 11
258.9694445115144
 21
14.11379564794726
 31
0.0984545733122246
  0
LINE
  5
455
  8
LAYER_01
 10
258.9694445115144
 20
14.11379564794726
 30
0.0984545733122246
 11
258.9550621269067
 21
14.1256043671194
 31
0.0984545733122246
  0
LINE
  5
456
  8
LAYER_01
 10
258.9550621269067
 20
14.1256043671194
 30
0.0984545733122246
 11
258.9414364360104
 21
14.13719624061108
 31
0.0984545733122246
  0
LINE
  5
457
  8
LAYER_01
 10
258.9414364360104
 20
14.13719624061108
 30
0.0984545733122246
 11
258.9285526823033
 21
14.14858318189653
 31
0.0984545733122246
  0
LINE
  5
458
  8
LAYER_01
 10
258.9285526823033
 20
14.14858318189653
 30
0.0984545733122246
 11
258.9163961092632
 21
14.15977710444998
 31
0.0984545733122246
  0
LINE
  5
459
  8
LAYER_01
 10
258.9163961092632
 20
14.15977710444998
 30
0.0984545733122246
 11
258.9049519603678
 21
14.17078992174568
 31
0.0984545733122246
  0
LINE
  5
45A
  8
LAYER_01
 10
258.9049519603678
 20
14.17078992174568
 30
0.0984545733122246
 11
258.8942054790948
 21
14.18163354725785
 31
0.0984545733122246
  0
LINE
  5
45B
  8
LAYER_01
 10
258.8942054790948
 20
14.18163354725785
 30
0.0984545733122246
 11
258.8841419089218
 21
14.19231989446072
 31
0.0984545733122246
  0
LINE
  5
45C
  8
LAYER_01
 10
258.8841419089218
 20
14.19231989446072
 30
0.0984545733122246
 11
258.8747464933267
 21
14.20286087682853
 31
0.0984545733122246
  0
LINE
  5
45D
  8
LAYER_01
 10
258.8747464933267
 20
14.20286087682853
 30
0.0984545733122246
 11
258.8660044757871
 21
14.21326840783551
 31
0.0984545733122246
  0
LINE
  5
45E
  8
LAYER_01
 10
258.8660044757871
 20
14.21326840783551
 30
0.0984545733122246
 11
258.8579010997808
 21
14.22355440095589
 31
0.0984545733122246
  0
LINE
  5
45F
  8
LAYER_01
 10
258.8579010997808
 20
14.22355440095589
 30
0.0984545733122246
 11
258.8504216087855
 21
14.23373076966391
 31
0.0984545733122246
  0
LINE
  5
460
  8
LAYER_01
 10
258.8504216087855
 20
14.23373076966391
 30
0.0984545733122246
 11
258.8469112087537
 21
14.23878156782397
 31
0.0984545733122246
  0
LINE
  5
461
  8
LAYER_01
 10
258.8469112087537
 20
14.23878156782397
 30
0.0984545733122246
 11
258.8435512462788
 21
14.24380942743378
 31
0.0984545733122246
  0
LINE
  5
462
  8
LAYER_01
 10
258.8435512462788
 20
14.24380942743378
 30
0.0984545733122246
 11
258.8403398767956
 21
14.24881583767762
 31
0.0984545733122246
  0
LINE
  5
463
  8
LAYER_01
 10
258.8403398767956
 20
14.24881583767762
 30
0.0984545733122246
 11
258.8372752557386
 21
14.25380228773976
 31
0.0984545733122246
  0
LINE
  5
464
  8
LAYER_01
 10
258.8372752557386
 20
14.25380228773976
 30
0.0984545733122246
 11
258.8343555385427
 21
14.25877026680448
 31
0.0984545733122246
  0
LINE
  5
465
  8
LAYER_01
 10
258.8343555385427
 20
14.25877026680448
 30
0.0984545733122246
 11
258.8315788806426
 21
14.26372126405607
 31
0.0984545733122246
  0
LINE
  5
466
  8
LAYER_01
 10
258.8315788806426
 20
14.26372126405607
 30
0.0984545733122246
 11
258.8289434374729
 21
14.26865676867879
 31
0.0984545733122246
  0
LINE
  5
467
  8
LAYER_01
 10
258.8289434374729
 20
14.26865676867879
 30
0.0984545733122246
 11
258.8264473644684
 21
14.27357826985693
 31
0.0984545733122246
  0
LINE
  5
468
  8
LAYER_01
 10
258.8264473644684
 20
14.27357826985693
 30
0.0984545733122246
 11
258.8240888170637
 21
14.27848725677478
 31
0.0984545733122246
  0
LINE
  5
469
  8
LAYER_01
 10
258.8240888170637
 20
14.27848725677478
 30
0.0984545733122246
 11
258.8218659506938
 21
14.2833852186166
 31
0.0984545733122246
  0
LINE
  5
46A
  8
LAYER_01
 10
258.8218659506938
 20
14.2833852186166
 30
0.0984545733122246
 11
258.8197769207932
 21
14.28827364456668
 31
0.0984545733122246
  0
LINE
  5
46B
  8
LAYER_01
 10
258.8197769207932
 20
14.28827364456668
 30
0.0984545733122246
 11
258.8178198827965
 21
14.29315402380929
 31
0.0984545733122246
  0
LINE
  5
46C
  8
LAYER_01
 10
258.8178198827965
 20
14.29315402380929
 30
0.0984545733122246
 11
258.8159929921386
 21
14.29802784552872
 31
0.0984545733122246
  0
LINE
  5
46D
  8
LAYER_01
 10
258.8159929921386
 20
14.29802784552872
 30
0.0984545733122246
 11
258.8142944042542
 21
14.30289659890924
 31
0.0984545733122246
  0
LINE
  5
46E
  8
LAYER_01
 10
258.8142944042542
 20
14.30289659890924
 30
0.0984545733122246
 11
258.812722274578
 21
14.30776177313513
 31
0.0984545733122246
  0
LINE
  5
46F
  8
LAYER_01
 10
258.812722274578
 20
14.30776177313513
 30
0.0984545733122246
 11
258.8112747585447
 21
14.31262485739068
 31
0.0984545733122246
  0
LINE
  5
470
  8
LAYER_01
 10
258.8112747585447
 20
14.31262485739068
 30
0.0984545733122246
 11
258.809950011589
 21
14.31748734086016
 31
0.0984545733122246
  0
LINE
  5
471
  8
LAYER_01
 10
258.809950011589
 20
14.31748734086016
 30
0.0984545733122246
 11
258.8087461891456
 21
14.32235071272785
 31
0.0984545733122246
  0
LINE
  5
472
  8
LAYER_01
 10
258.8087461891456
 20
14.32235071272785
 30
0.0984545733122246
 11
258.8076614466493
 21
14.32721646217803
 31
0.0984545733122246
  0
LINE
  5
473
  8
LAYER_01
 10
258.8076614466493
 20
14.32721646217803
 30
0.0984545733122246
 11
258.8066939395347
 21
14.33208607839498
 31
0.0984545733122246
  0
LINE
  5
474
  8
LAYER_01
 10
258.8066939395347
 20
14.33208607839498
 30
0.0984545733122246
 11
258.8058418232366
 21
14.33696105056297
 31
0.0984545733122246
  0
LINE
  5
475
  8
LAYER_01
 10
258.8058418232366
 20
14.33696105056297
 30
0.0984545733122246
 11
258.8051032531897
 21
14.34184286786629
 31
0.0984545733122246
  0
LINE
  5
476
  8
LAYER_01
 10
258.8051032531897
 20
14.34184286786629
 30
0.0984545733122246
 11
258.8044763848288
 21
14.34673301948922
 31
0.0984545733122246
  0
LINE
  5
477
  8
LAYER_01
 10
258.8044763848288
 20
14.34673301948922
 30
0.0984545733122246
 11
258.8039593735884
 21
14.35163299461603
 31
0.0984545733122246
  0
LINE
  5
478
  8
LAYER_01
 10
258.8039593735884
 20
14.35163299461603
 30
0.0984545733122246
 11
258.8035503749034
 21
14.356544282431
 31
0.0984545733122246
  0
LINE
  5
479
  8
LAYER_01
 10
258.8035503749034
 20
14.356544282431
 30
0.0984545733122246
 11
258.8032475442084
 21
14.36146837211841
 31
0.0984545733122246
  0
LINE
  5
47A
  8
LAYER_01
 10
258.8032475442084
 20
14.36146837211841
 30
0.0984545733122246
 11
258.8030490369381
 21
14.36640675286255
 31
0.0984545733122246
  0
LINE
  5
47B
  8
LAYER_01
 10
258.8030490369381
 20
14.36640675286255
 30
0.0984545733122246
 11
258.8029530085274
 21
14.37136091384769
 31
0.0984545733122246
  0
LINE
  5
47C
  8
LAYER_01
 10
258.8029530085274
 20
14.37136091384769
 30
0.0984545733122246
 11
258.8029576144109
 21
14.3763323442581
 31
0.0984545733122246
  0
LINE
  5
47D
  8
LAYER_01
 10
258.8029576144109
 20
14.3763323442581
 30
0.0984545733122246
 11
258.8030610100233
 21
14.38132253327808
 31
0.0984545733122246
  0
LINE
  5
47E
  8
LAYER_01
 10
258.8030610100233
 20
14.38132253327808
 30
0.0984545733122246
 11
258.8032613507993
 21
14.38633297009189
 31
0.0984545733122246
  0
LINE
  5
47F
  8
LAYER_01
 10
258.8032613507993
 20
14.38633297009189
 30
0.0984545733122246
 11
258.8035567921737
 21
14.39136514388382
 31
0.0984545733122246
  0
LINE
  5
480
  8
LAYER_01
 10
258.8035567921737
 20
14.39136514388382
 30
0.0984545733122246
 11
258.8039454895811
 21
14.39642054383815
 31
0.0984545733122246
  0
LINE
  5
481
  8
LAYER_01
 10
258.8039454895811
 20
14.39642054383815
 30
0.0984545733122246
 11
258.8044255984562
 21
14.40150065913915
 31
0.0984545733122246
  0
LINE
  5
482
  8
LAYER_01
 10
258.8044255984562
 20
14.40150065913915
 30
0.0984545733122246
 11
258.8056526723487
 21
14.41174099251829
 31
0.0984545733122246
  0
LINE
  5
483
  8
LAYER_01
 10
258.8056526723487
 20
14.41174099251829
 30
0.0984545733122246
 11
258.8072232573289
 21
14.42209805749548
 31
0.0984545733122246
  0
LINE
  5
484
  8
LAYER_01
 10
258.8072232573289
 20
14.42209805749548
 30
0.0984545733122246
 11
258.8091225968745
 21
14.43258376754494
 31
0.0984545733122246
  0
LINE
  5
485
  8
LAYER_01
 10
258.8091225968745
 20
14.43258376754494
 30
0.0984545733122246
 11
258.8113359344632
 21
14.44321003614093
 31
0.0984545733122246
  0
LINE
  5
486
  8
LAYER_01
 10
258.8113359344632
 20
14.44321003614093
 30
0.0984545733122246
 11
258.826800592716
 21
14.5168016993183
 31
0.0984545733122246
  0
LINE
  5
487
  8
LAYER_01
 10
258.826800592716
 20
14.5168016993183
 30
0.0984545733122246
 11
258.8418719391865
 21
14.595786358878
 31
0.0984545733122246
  0
LINE
  5
488
  8
LAYER_01
 10
258.8418719391865
 20
14.595786358878
 30
0.0984545733122246
 11
258.8708270292538
 21
14.76932824212289
 31
0.0984545733122246
  0
LINE
  5
489
  8
LAYER_01
 10
258.8708270292538
 20
14.76932824212289
 30
0.0984545733122246
 11
258.8981858696111
 21
14.96262283583267
 31
0.0984545733122246
  0
LINE
  5
48A
  8
LAYER_01
 10
258.8981858696111
 20
14.96262283583267
 30
0.0984545733122246
 11
258.9239331252046
 21
15.1744572899644
 31
0.0984545733122246
  0
LINE
  5
48B
  8
LAYER_01
 10
258.9239331252046
 20
15.1744572899644
 30
0.0984545733122246
 11
258.9705315418846
 21
15.64889437932204
 31
0.0984545733122246
  0
LINE
  5
48C
  8
LAYER_01
 10
258.9705315418846
 20
15.64889437932204
 30
0.0984545733122246
 11
259.0104995988625
 21
16.18293670985233
 31
0.0984545733122246
  0
LINE
  5
48D
  8
LAYER_01
 10
259.0104995988625
 20
16.18293670985233
 30
0.0984545733122246
 11
259.0700539119873
 21
17.39102589305715
 31
0.0984545733122246
  0
LINE
  5
48E
  8
LAYER_01
 10
259.0700539119873
 20
17.39102589305715
 30
0.0984545733122246
 11
259.1016146211295
 21
18.7211024368313
 31
0.0984545733122246
  0
LINE
  5
48F
  8
LAYER_01
 10
259.1016146211295
 20
18.7211024368313
 30
0.0984545733122246
 11
259.1042002828396
 21
20.09554393842722
 31
0.0984545733122246
  0
LINE
  5
490
  8
LAYER_01
 10
259.1042002828396
 20
20.09554393842722
 30
0.0984545733122246
 11
259.076829453668
 21
21.43672799509736
 31
0.0984545733122246
  0
LINE
  5
491
  8
LAYER_01
 10
259.076829453668
 20
21.43672799509736
 30
0.0984545733122246
 11
259.0185206901652
 21
22.66703220409413
 31
0.0984545733122246
  0
LINE
  5
492
  8
LAYER_01
 10
259.0185206901652
 20
22.66703220409413
 30
0.0984545733122246
 11
258.9774578819618
 21
23.2163473648564
 31
0.0984545733122246
  0
LINE
  5
493
  8
LAYER_01
 10
258.9774578819618
 20
23.2163473648564
 30
0.0984545733122246
 11
258.9282925488818
 21
23.70883416267
 31
0.0984545733122246
  0
LINE
  5
494
  8
LAYER_01
 10
258.9282925488818
 20
23.70883416267
 30
0.0984545733122246
 11
258.8411057807284
 21
24.39693837051746
 31
0.0984545733122246
  0
LINE
  5
495
  8
LAYER_01
 10
258.8411057807284
 20
24.39693837051746
 30
0.0984545733122246
 11
258.7399500437816
 21
25.07377644875348
 31
0.0984545733122246
  0
LINE
  5
496
  8
LAYER_01
 10
258.7399500437816
 20
25.07377644875348
 30
0.0984545733122246
 11
258.6249369134459
 21
25.73915970206348
 31
0.0984545733122246
  0
LINE
  5
497
  8
LAYER_01
 10
258.6249369134459
 20
25.73915970206348
 30
0.0984545733122246
 11
258.4961779651259
 21
26.39289943513292
 31
0.0984545733122246
  0
LINE
  5
498
  8
LAYER_01
 10
258.4961779651259
 20
26.39289943513292
 30
0.0984545733122246
 11
258.3537847742261
 21
27.03480695264723
 31
0.0984545733122246
  0
LINE
  5
499
  8
LAYER_01
 10
258.3537847742261
 20
27.03480695264723
 30
0.0984545733122246
 11
258.197868916151
 21
27.66469355929186
 31
0.0984545733122246
  0
LINE
  5
49A
  8
LAYER_01
 10
258.197868916151
 20
27.66469355929186
 30
0.0984545733122246
 11
258.0285419663051
 21
28.28237055975224
 31
0.0984545733122246
  0
LINE
  5
49B
  8
LAYER_01
 10
258.0285419663051
 20
28.28237055975224
 30
0.0984545733122246
 11
257.845915500093
 21
28.88764925871382
 31
0.0984545733122246
  0
LINE
  5
49C
  8
LAYER_01
 10
257.845915500093
 20
28.88764925871382
 30
0.0984545733122246
 11
257.6501010929191
 21
29.48034096086203
 31
0.0984545733122246
  0
LINE
  5
49D
  8
LAYER_01
 10
257.6501010929191
 20
29.48034096086203
 30
0.0984545733122246
 11
257.4412103201879
 21
30.06025697088233
 31
0.0984545733122246
  0
LINE
  5
49E
  8
LAYER_01
 10
257.4412103201879
 20
30.06025697088233
 30
0.0984545733122246
 11
257.219354757304
 21
30.62720859346015
 31
0.0984545733122246
  0
LINE
  5
49F
  8
LAYER_01
 10
257.219354757304
 20
30.62720859346015
 30
0.0984545733122246
 11
256.9846459796719
 21
31.18100713328093
 31
0.0984545733122246
  0
LINE
  5
4A0
  8
LAYER_01
 10
256.9846459796719
 20
31.18100713328093
 30
0.0984545733122246
 11
256.7371955626961
 21
31.72146389503012
 31
0.0984545733122246
  0
LINE
  5
4A1
  8
LAYER_01
 10
256.7371955626961
 20
31.72146389503012
 30
0.0984545733122246
 11
256.4771150817811
 21
32.24839018339315
 31
0.0984545733122246
  0
LINE
  5
4A2
  8
LAYER_01
 10
256.4771150817811
 20
32.24839018339315
 30
0.0984545733122246
 11
256.2045161123315
 21
32.76159730305547
 31
0.0984545733122246
  0
LINE
  5
4A3
  8
LAYER_01
 10
256.2045161123315
 20
32.76159730305547
 30
0.0984545733122246
 11
255.9195102297516
 21
33.26089655870251
 31
0.0984545733122246
  0
LINE
  5
4A4
  8
LAYER_01
 10
255.9195102297516
 20
33.26089655870251
 30
0.0984545733122246
 11
255.6222090094462
 21
33.74609925501971
 31
0.0984545733122246
  0
LINE
  5
4A5
  8
LAYER_01
 10
255.6222090094462
 20
33.74609925501971
 30
0.0984545733122246
 11
255.3127240268196
 21
34.21701669669254
 31
0.0984545733122246
  0
LINE
  5
4A6
  8
LAYER_01
 10
255.3127240268196
 20
34.21701669669254
 30
0.0984545733122246
 11
254.9911668572764
 21
34.67346018840642
 31
0.0984545733122246
  0
LINE
  5
4A7
  8
LAYER_01
 10
254.9911668572764
 20
34.67346018840642
 30
0.0984545733122246
 11
254.657649076221
 21
35.11524103484679
 31
0.0984545733122246
  0
LINE
  5
4A8
  8
LAYER_01
 10
254.657649076221
 20
35.11524103484679
 30
0.0984545733122246
 11
254.3122822590582
 21
35.54217054069909
 31
0.0984545733122246
  0
LINE
  5
4A9
  8
LAYER_01
 10
254.3122822590582
 20
35.54217054069909
 30
0.0984545733122246
 11
253.9551779811922
 21
35.95406001064877
 31
0.0984545733122246
  0
LINE
  5
4AA
  8
LAYER_01
 10
253.9551779811922
 20
35.95406001064877
 30
0.0984545733122246
 11
253.7722591618094
 21
36.15430576487432
 31
0.0984545733122246
  0
LINE
  5
4AB
  8
LAYER_01
 10
253.7722591618094
 20
36.15430576487432
 30
0.0984545733122246
 11
253.5864478180276
 21
36.35072074938127
 31
0.0984545733122246
  0
LINE
  5
4AC
  8
LAYER_01
 10
253.5864478180276
 20
36.35072074938127
 30
0.0984545733122246
 11
253.3977578967723
 21
36.54328137725527
 31
0.0984545733122246
  0
LINE
  5
4AD
  8
LAYER_01
 10
253.3977578967723
 20
36.54328137725527
 30
0.0984545733122246
 11
253.2062033449691
 21
36.73196406158202
 31
0.0984545733122246
  0
LINE
  5
4AE
  8
LAYER_01
 10
253.2062033449691
 20
36.73196406158202
 30
0.0984545733122246
 11
253.0117981095435
 21
36.91674521544719
 31
0.0984545733122246
  0
LINE
  5
4AF
  8
LAYER_01
 10
253.0117981095435
 20
36.91674521544719
 30
0.0984545733122246
 11
252.814556137421
 21
37.09760125193647
 31
0.0984545733122246
  0
LINE
  5
4B0
  8
LAYER_01
 10
252.814556137421
 20
37.09760125193647
 30
0.0984545733122246
 11
252.6144913755273
 21
37.27450858413553
 31
0.0984545733122246
  0
LINE
  5
4B1
  8
LAYER_01
 10
252.6144913755273
 20
37.27450858413553
 30
0.0984545733122246
 11
252.4116177707879
 21
37.44744362513006
 31
0.0984545733122246
  0
LINE
  5
4B2
  8
LAYER_01
 10
252.4116177707879
 20
37.44744362513006
 30
0.0984545733122246
 11
252.2059492701283
 21
37.61638278800574
 31
0.0984545733122246
  0
LINE
  5
4B3
  8
LAYER_01
 10
252.2059492701283
 20
37.61638278800574
 30
0.0984545733122246
 11
251.9974998204742
 21
37.78130248584824
 31
0.0984545733122246
  0
LINE
  5
4B4
  8
LAYER_01
 10
251.9974998204742
 20
37.78130248584824
 30
0.0984545733122246
 11
251.7862833687512
 21
37.94217913174325
 31
0.0984545733122246
  0
LINE
  5
4B5
  8
LAYER_01
 10
251.7862833687512
 20
37.94217913174325
 30
0.0984545733122246
 11
251.5723138618847
 21
38.09898913877643
 31
0.0984545733122246
  0
LINE
  5
4B6
  8
LAYER_01
 10
251.5723138618847
 20
38.09898913877643
 30
0.0984545733122246
 11
251.3556052468003
 21
38.25170892003349
 31
0.0984545733122246
  0
LINE
  5
4B7
  8
LAYER_01
 10
251.3556052468003
 20
38.25170892003349
 30
0.0984545733122246
 11
251.1361714704236
 21
38.40031488860009
 31
0.0984545733122246
  0
LINE
  5
4B8
  8
LAYER_01
 10
251.1361714704236
 20
38.40031488860009
 30
0.0984545733122246
 11
250.9140264796802
 21
38.54478345756193
 31
0.0984545733122246
  0
LINE
  5
4B9
  8
LAYER_01
 10
250.9140264796802
 20
38.54478345756193
 30
0.0984545733122246
 11
250.6891842214956
 21
38.68509104000466
 31
0.0984545733122246
  0
LINE
  5
4BA
  8
LAYER_01
 10
250.6891842214956
 20
38.68509104000466
 30
0.0984545733122246
 11
250.4616586427953
 21
38.82121404901399
 31
0.0984545733122246
  0
LINE
  5
4BB
  8
LAYER_01
 10
250.4616586427953
 20
38.82121404901399
 30
0.0984545733122246
 11
250.2314636905051
 21
38.95312889767558
 31
0.0984545733122246
  0
LINE
  5
4BC
  8
LAYER_01
 10
250.2314636905051
 20
38.95312889767558
 30
0.0984545733122246
 11
249.9986133115503
 21
39.08081199907512
 31
0.0984545733122246
  0
LINE
  5
4BD
  8
LAYER_01
 10
249.9986133115503
 20
39.08081199907512
 30
0.0984545733122246
 11
249.7631214528567
 21
39.20423976629829
 31
0.0984545733122246
  0
LINE
  5
4BE
  8
LAYER_01
 10
249.7631214528567
 20
39.20423976629829
 30
0.0984545733122246
 11
249.6772772232269
 21
39.23359884733033
 31
0.0984545733122246
  0
LINE
  5
4BF
  8
LAYER_01
 10
249.6772772232269
 20
39.23359884733033
 30
0.0984545733122246
 11
249.5924943096335
 21
39.26589505395624
 31
0.0984545733122246
  0
LINE
  5
4C0
  8
LAYER_01
 10
249.5924943096335
 20
39.26589505395624
 30
0.0984545733122246
 11
249.5088731709858
 21
39.30109011853976
 31
0.0984545733122246
  0
LINE
  5
4C1
  8
LAYER_01
 10
249.5088731709858
 20
39.30109011853976
 30
0.0984545733122246
 11
249.4265128896105
 21
39.33914233860061
 31
0.0984545733122246
  0
LINE
  5
4C2
  8
LAYER_01
 10
249.4265128896105
 20
39.33914233860061
 30
0.0984545733122246
 11
249.3455110538499
 21
39.38000662622731
 31
0.0984545733122246
  0
LINE
  5
4C3
  8
LAYER_01
 10
249.3455110538499
 20
39.38000662622731
 30
0.0984545733122246
 11
249.2659636424307
 21
39.42363456150132
 31
0.0984545733122246
  0
LINE
  5
4C4
  8
LAYER_01
 10
249.2659636424307
 20
39.42363456150132
 30
0.0984545733122246
 11
249.1879649107376
 21
39.4699744498702
 31
0.0984545733122246
  0
LINE
  5
4C5
  8
LAYER_01
 10
249.1879649107376
 20
39.4699744498702
 30
0.0984545733122246
 11
249.1116072791317
 21
39.51897138339991
 31
0.0984545733122246
  0
LINE
  5
4C6
  8
LAYER_01
 10
249.1116072791317
 20
39.51897138339991
 30
0.0984545733122246
 11
249.0369812234415
 21
39.5705673058352
 31
0.0984545733122246
  0
LINE
  5
4C7
  8
LAYER_01
 10
249.0369812234415
 20
39.5705673058352
 30
0.0984545733122246
 11
248.9641751677593
 21
39.62470108138957
 31
0.0984545733122246
  0
LINE
  5
4C8
  8
LAYER_01
 10
248.9641751677593
 20
39.62470108138957
 30
0.0984545733122246
 11
248.8932753796663
 21
39.68130856718594
 31
0.0984545733122246
  0
LINE
  5
4C9
  8
LAYER_01
 10
248.8932753796663
 20
39.68130856718594
 30
0.0984545733122246
 11
248.8243658680163
 21
39.740322689258
 31
0.0984545733122246
  0
LINE
  5
4CA
  8
LAYER_01
 10
248.8243658680163
 20
39.740322689258
 30
0.0984545733122246
 11
248.7575282833926
 21
39.80167352202692
 31
0.0984545733122246
  0
LINE
  5
4CB
  8
LAYER_01
 10
248.7575282833926
 20
39.80167352202692
 30
0.0984545733122246
 11
248.6928418213611
 21
39.86528837115532
 31
0.0984545733122246
  0
LINE
  5
4CC
  8
LAYER_01
 10
248.6928418213611
 20
39.86528837115532
 30
0.0984545733122246
 11
248.6303831286319
 21
39.93109185968275
 31
0.0984545733122246
  0
LINE
  5
4CD
  8
LAYER_01
 10
248.6303831286319
 20
39.93109185968275
 30
0.0984545733122246
 11
248.5702262122412
 21
39.99900601733884
 31
0.0984545733122246
  0
LINE
  5
4CE
  8
LAYER_01
 10
248.5702262122412
 20
39.99900601733884
 30
0.0984545733122246
 11
248.5124423518599
 21
40.06895037293098
 31
0.0984545733122246
  0
LINE
  5
4CF
  8
LAYER_01
 10
248.5124423518599
 20
40.06895037293098
 30
0.0984545733122246
 11
248.4571000153349
 21
40.14084204969382
 31
0.0984545733122246
  0
LINE
  5
4D0
  8
LAYER_01
 10
248.4571000153349
 20
40.14084204969382
 30
0.0984545733122246
 11
248.4042647775626
 21
40.21459586348893
 31
0.0984545733122246
  0
LINE
  5
4D1
  8
LAYER_01
 10
248.4042647775626
 20
40.21459586348893
 30
0.0984545733122246
 11
248.3539992427885
 21
40.29012442374034
 31
0.0984545733122246
  0
LINE
  5
4D2
  8
LAYER_01
 10
248.3539992427885
 20
40.29012442374034
 30
0.0984545733122246
 11
248.3063629704281
 21
40.36733823698268
 31
0.0984545733122246
  0
LINE
  5
4D3
  8
LAYER_01
 10
248.3063629704281
 20
40.36733823698268
 30
0.0984545733122246
 11
248.2614124044954
 21
40.44614581290088
 31
0.0984545733122246
  0
LINE
  5
4D4
  8
LAYER_01
 10
248.2614124044954
 20
40.44614581290088
 30
0.0984545733122246
 11
248.2192008067221
 21
40.52645377273828
 31
0.0984545733122246
  0
LINE
  5
4D5
  8
LAYER_01
 10
248.2192008067221
 20
40.52645377273828
 30
0.0984545733122246
 11
248.1797781934487
 21
40.60816695993882
 31
0.0984545733122246
  0
LINE
  5
4D6
  8
LAYER_01
 10
248.1797781934487
 20
40.60816695993882
 30
0.0984545733122246
 11
248.1431912763597
 21
40.69118855289932
 31
0.0984545733122246
  0
LINE
  5
4D7
  8
LAYER_01
 10
248.1431912763597
 20
40.69118855289932
 30
0.0984545733122246
 11
247.864754159329
 21
41.16801754257653
 31
0.0984545733122246
  0
LINE
  5
4D8
  8
LAYER_01
 10
247.864754159329
 20
41.16801754257653
 30
0.0984545733122246
 11
247.5700157370714
 21
41.6349462052029
 31
0.0984545733122246
  0
LINE
  5
4D9
  8
LAYER_01
 10
247.5700157370714
 20
41.6349462052029
 30
0.0984545733122246
 11
247.2593276436835
 21
42.09141747720584
 31
0.0984545733122246
  0
LINE
  5
4DA
  8
LAYER_01
 10
247.2593276436835
 20
42.09141747720584
 30
0.0984545733122246
 11
246.9330605418236
 21
42.53688677107567
 31
0.0984545733122246
  0
LINE
  5
4DB
  8
LAYER_01
 10
246.9330605418236
 20
42.53688677107567
 30
0.0984545733122246
 11
246.5916036804967
 21
42.97082262507919
 31
0.0984545733122246
  0
LINE
  5
4DC
  8
LAYER_01
 10
246.5916036804967
 20
42.97082262507919
 30
0.0984545733122246
 11
246.2353644306662
 21
43.3927073373136
 31
0.0984545733122246
  0
LINE
  5
4DD
  8
LAYER_01
 10
246.2353644306662
 20
43.3927073373136
 30
0.0984545733122246
 11
245.8647677992442
 21
43.80203758334449
 31
0.0984545733122246
  0
LINE
  5
4DE
  8
LAYER_01
 10
245.8647677992442
 20
43.80203758334449
 30
0.0984545733122246
 11
245.4802559220433
 21
44.19832501669095
 31
0.0984545733122246
  0
LINE
  5
4DF
  8
LAYER_01
 10
245.4802559220433
 20
44.19832501669095
 30
0.0984545733122246
 11
245.0822875362904
 21
44.58109685144142
 31
0.0984545733122246
  0
LINE
  5
4E0
  8
LAYER_01
 10
245.0822875362904
 20
44.58109685144142
 30
0.0984545733122246
 11
244.6713374333372
 21
44.94989642630517
 31
0.0984545733122246
  0
LINE
  5
4E1
  8
LAYER_01
 10
244.6713374333372
 20
44.94989642630517
 30
0.0984545733122246
 11
244.247895892215
 21
45.30428374942647
 31
0.0984545733122246
  0
LINE
  5
4E2
  8
LAYER_01
 10
244.247895892215
 20
45.30428374942647
 30
0.0984545733122246
 11
243.8124680947143
 21
45.64383602331165
 31
0.0984545733122246
  0
LINE
  5
4E3
  8
LAYER_01
 10
243.8124680947143
 20
45.64383602331165
 30
0.0984545733122246
 11
243.3655735226827
 21
45.96814814924235
 31
0.0984545733122246
  0
LINE
  5
4E4
  8
LAYER_01
 10
243.3655735226827
 20
45.96814814924235
 30
0.0984545733122246
 11
242.9077453382644
 21
46.27683321057378
 31
0.0984545733122246
  0
LINE
  5
4E5
  8
LAYER_01
 10
242.9077453382644
 20
46.27683321057378
 30
0.0984545733122246
 11
242.4395297478169
 21
46.56952293434083
 31
0.0984545733122246
  0
LINE
  5
4E6
  8
LAYER_01
 10
242.4395297478169
 20
46.56952293434083
 30
0.0984545733122246
 11
241.9614853502663
 21
46.84586813062172
 31
0.0984545733122246
  0
LINE
  5
4E7
  8
LAYER_01
 10
241.9614853502663
 20
46.84586813062172
 30
0.0984545733122246
 11
241.8916436820213
 21
46.87038452456681
 31
0.0984545733122246
  0
LINE
  5
4E8
  8
LAYER_01
 10
241.8916436820213
 20
46.87038452456681
 30
0.0984545733122246
 11
241.8226760059699
 21
46.89726150087329
 31
0.0984545733122246
  0
LINE
  5
4E9
  8
LAYER_01
 10
241.8226760059699
 20
46.89726150087329
 30
0.0984545733122246
 11
241.7546620813345
 21
46.92646797705648
 31
0.0984545733122246
  0
LINE
  5
4EA
  8
LAYER_01
 10
241.7546620813345
 20
46.92646797705648
 30
0.0984545733122246
 11
241.6876805643508
 21
46.95797017662898
 31
0.0984545733122246
  0
LINE
  5
4EB
  8
LAYER_01
 10
241.6876805643508
 20
46.95797017662898
 30
0.0984545733122246
 11
241.6218089173032
 21
46.99173166816227
 31
0.0984545733122246
  0
LINE
  5
4EC
  8
LAYER_01
 10
241.6218089173032
 20
46.99173166816227
 30
0.0984545733122246
 11
241.5571233189418
 21
47.02771340741899
 31
0.0984545733122246
  0
LINE
  5
4ED
  8
LAYER_01
 10
241.5571233189418
 20
47.02771340741899
 30
0.0984545733122246
 11
241.493698576384
 21
47.06587378250615
 31
0.0984545733122246
  0
LINE
  5
4EE
  8
LAYER_01
 10
241.493698576384
 20
47.06587378250615
 30
0.0984545733122246
 11
241.431608038602
 21
47.1061686619984
 31
0.0984545733122246
  0
LINE
  5
4EF
  8
LAYER_01
 10
241.431608038602
 20
47.1061686619984
 30
0.0984545733122246
 11
241.3709235115975
 21
47.14855144597436
 31
0.0984545733122246
  0
LINE
  5
4F0
  8
LAYER_01
 10
241.3709235115975
 20
47.14855144597436
 30
0.0984545733122246
 11
241.3117151753586
 21
47.19297311990879
 31
0.0984545733122246
  0
LINE
  5
4F1
  8
LAYER_01
 10
241.3117151753586
 20
47.19297311990879
 30
0.0984545733122246
 11
241.2540515026995
 21
47.23938231135626
 31
0.0984545733122246
  0
LINE
  5
4F2
  8
LAYER_01
 10
241.2540515026995
 20
47.23938231135626
 30
0.0984545733122246
 11
241.1979991800738
 21
47.28772534936152
 31
0.0984545733122246
  0
LINE
  5
4F3
  8
LAYER_01
 10
241.1979991800738
 20
47.28772534936152
 30
0.0984545733122246
 11
241.1436230304525
 21
47.33794632652933
 31
0.0984545733122246
  0
LINE
  5
4F4
  8
LAYER_01
 10
241.1436230304525
 20
47.33794632652933
 30
0.0984545733122246
 11
241.090985938359
 21
47.38998716367937
 31
0.0984545733122246
  0
LINE
  5
4F5
  8
LAYER_01
 10
241.090985938359
 20
47.38998716367937
 30
0.0984545733122246
 11
241.0401487771443
 21
47.44378767701285
 31
0.0984545733122246
  0
LINE
  5
4F6
  8
LAYER_01
 10
241.0401487771443
 20
47.44378767701285
 30
0.0984545733122246
 11
240.9911703385887
 21
47.49928564771422
 31
0.0984545733122246
  0
LINE
  5
4F7
  8
LAYER_01
 10
240.9911703385887
 20
47.49928564771422
 30
0.0984545733122246
 11
240.9441072649107
 21
47.55641689390515
 31
0.0984545733122246
  0
LINE
  5
4F8
  8
LAYER_01
 10
240.9441072649107
 20
47.55641689390515
 30
0.0984545733122246
 11
240.8990139832624
 21
47.61511534486859
 31
0.0984545733122246
  0
LINE
  5
4F9
  8
LAYER_01
 10
240.8990139832624
 20
47.61511534486859
 30
0.0984545733122246
 11
240.8559426427852
 21
47.67531311745871
 31
0.0984545733122246
  0
LINE
  5
4FA
  8
LAYER_01
 10
240.8559426427852
 20
47.67531311745871
 30
0.0984545733122246
 11
240.8149430543009
 21
47.73694059460539
 31
0.0984545733122246
  0
LINE
  5
4FB
  8
LAYER_01
 10
240.8149430543009
 20
47.73694059460539
 30
0.0984545733122246
 11
240.7760626327075
 21
47.79992650582398
 31
0.0984545733122246
  0
LINE
  5
4FC
  8
LAYER_01
 10
240.7760626327075
 20
47.79992650582398
 30
0.0984545733122246
 11
240.7393463421443
 21
47.86419800963883
 31
0.0984545733122246
  0
LINE
  5
4FD
  8
LAYER_01
 10
240.7393463421443
 20
47.86419800963883
 30
0.0984545733122246
 11
240.7048366439929
 21
47.92968077782109
 31
0.0984545733122246
  0
LINE
  5
4FE
  8
LAYER_01
 10
240.7048366439929
 20
47.92968077782109
 30
0.0984545733122246
 11
240.6725734477709
 21
47.99629908134843
 31
0.0984545733122246
  0
LINE
  5
4FF
  8
LAYER_01
 10
240.6725734477709
 20
47.99629908134843
 30
0.0984545733122246
 11
240.3204673058895
 21
48.67487601391354
 31
0.0984545733122246
  0
LINE
  5
500
  8
LAYER_01
 10
240.3204673058895
 20
48.67487601391354
 30
0.0984545733122246
 11
239.9459220625353
 21
49.34133025033256
 31
0.0984545733122246
  0
LINE
  5
501
  8
LAYER_01
 10
239.9459220625353
 20
49.34133025033256
 30
0.0984545733122246
 11
239.5493545771568
 21
49.99492004377966
 31
0.0984545733122246
  0
LINE
  5
502
  8
LAYER_01
 10
239.5493545771568
 20
49.99492004377966
 30
0.0984545733122246
 11
239.1312062194022
 21
50.6349179652351
 31
0.0984545733122246
  0
LINE
  5
503
  8
LAYER_01
 10
239.1312062194022
 20
50.6349179652351
 30
0.0984545733122246
 11
238.691942377891
 21
51.26061171308701
 31
0.0984545733122246
  0
LINE
  5
504
  8
LAYER_01
 10
238.691942377891
 20
51.26061171308701
 30
0.0984545733122246
 11
238.232051942245
 21
51.87130490591086
 31
0.0984545733122246
  0
LINE
  5
505
  8
LAYER_01
 10
238.232051942245
 20
51.87130490591086
 30
0.0984545733122246
 11
237.7520467589679
 21
52.46631785752182
 31
0.0984545733122246
  0
LINE
  5
506
  8
LAYER_01
 10
237.7520467589679
 20
52.46631785752182
 30
0.0984545733122246
 11
237.2524610617696
 21
53.04498833345346
 31
0.0984545733122246
  0
LINE
  5
507
  8
LAYER_01
 10
237.2524610617696
 20
53.04498833345346
 30
0.0984545733122246
 11
236.7338508769827
 21
53.60667228800042
 31
0.0984545733122246
  0
LINE
  5
508
  8
LAYER_01
 10
236.7338508769827
 20
53.60667228800042
 30
0.0984545733122246
 11
236.1967934047173
 21
54.15074458102911
 31
0.0984545733122246
  0
LINE
  5
509
  8
LAYER_01
 10
236.1967934047173
 20
54.15074458102911
 30
0.0984545733122246
 11
235.6418863764473
 21
54.67659967374631
 31
0.0984545733122246
  0
LINE
  5
50A
  8
LAYER_01
 10
235.6418863764473
 20
54.67659967374631
 30
0.0984545733122246
 11
235.0697473897574
 21
55.1836523026416
 31
0.0984545733122246
  0
LINE
  5
50B
  8
LAYER_01
 10
235.0697473897574
 20
55.1836523026416
 30
0.0984545733122246
 11
234.4810132209684
 21
55.67133813087573
 31
0.0984545733122246
  0
LINE
  5
50C
  8
LAYER_01
 10
234.4810132209684
 20
55.67133813087573
 30
0.0984545733122246
 11
233.8763391164229
 21
56.13911437637106
 31
0.0984545733122246
  0
LINE
  5
50D
  8
LAYER_01
 10
233.8763391164229
 20
56.13911437637106
 30
0.0984545733122246
 11
233.2563980632078
 21
56.58646041591849
 31
0.0984545733122246
  0
LINE
  5
50E
  8
LAYER_01
 10
233.2563980632078
 20
56.58646041591849
 30
0.0984545733122246
 11
232.6218800401444
 21
57.01287836461186
 31
0.0984545733122246
  0
LINE
  5
50F
  8
LAYER_01
 10
232.6218800401444
 20
57.01287836461186
 30
0.0984545733122246
 11
231.9734912498539
 21
57.41789362998551
 31
0.0984545733122246
  0
LINE
  5
510
  8
LAYER_01
 10
231.9734912498539
 20
57.41789362998551
 30
0.0984545733122246
 11
231.3119533327743
 21
57.80105544022185
 31
0.0984545733122246
  0
LINE
  5
511
  8
LAYER_01
 10
231.3119533327743
 20
57.80105544022185
 30
0.0984545733122246
 11
230.6380025639873
 21
58.16193734585242
 31
0.0984545733122246
  0
LINE
  5
512
  8
LAYER_01
 10
230.6380025639873
 20
58.16193734585242
 30
0.0984545733122246
 11
230.5431398662279
 21
58.19517693004192
 31
0.0984545733122246
  0
LINE
  5
513
  8
LAYER_01
 10
230.5431398662279
 20
58.19517693004192
 30
0.0984545733122246
 11
230.4494888491124
 21
58.23169115160582
 31
0.0984545733122246
  0
LINE
  5
514
  8
LAYER_01
 10
230.4494888491124
 20
58.23169115160582
 30
0.0984545733122246
 11
230.3571625135623
 21
58.27143595185898
 31
0.0984545733122246
  0
LINE
  5
515
  8
LAYER_01
 10
230.3571625135623
 20
58.27143595185898
 30
0.0984545733122246
 11
230.266272262117
 21
58.31436337404392
 31
0.0984545733122246
  0
LINE
  5
516
  8
LAYER_01
 10
230.266272262117
 20
58.31436337404392
 30
0.0984545733122246
 11
230.1769277645112
 21
58.36042162119755
 31
0.0984545733122246
  0
LINE
  5
517
  8
LAYER_01
 10
230.1769277645112
 20
58.36042162119755
 30
0.0984545733122246
 11
230.0892368253476
 21
58.40955511864921
 31
0.0984545733122246
  0
LINE
  5
518
  8
LAYER_01
 10
230.0892368253476
 20
58.40955511864921
 30
0.0984545733122246
 11
230.003305254016
 21
58.46170458107889
 31
0.0984545733122246
  0
LINE
  5
519
  8
LAYER_01
 10
230.003305254016
 20
58.46170458107889
 30
0.0984545733122246
 11
229.9192367370228
 21
58.51680708405161
 31
0.0984545733122246
  0
LINE
  5
51A
  8
LAYER_01
 10
229.9192367370228
 20
58.51680708405161
 30
0.0984545733122246
 11
229.8371327128821
 21
58.57479613994258
 31
0.0984545733122246
  0
LINE
  5
51B
  8
LAYER_01
 10
229.8371327128821
 20
58.57479613994258
 30
0.0984545733122246
 11
229.7570922497162
 21
58.63560177816323
 31
0.0984545733122246
  0
LINE
  5
51C
  8
LAYER_01
 10
229.7570922497162
 20
58.63560177816323
 30
0.0984545733122246
 11
229.6792119257196
 21
58.69915062958854
 31
0.0984545733122246
  0
LINE
  5
51D
  8
LAYER_01
 10
229.6792119257196
 20
58.69915062958854
 30
0.0984545733122246
 11
229.6035857126265
 21
58.76536601508486
 31
0.0984545733122246
  0
LINE
  5
51E
  8
LAYER_01
 10
229.6035857126265
 20
58.76536601508486
 30
0.0984545733122246
 11
229.5303048623215
 21
58.83416803803337
 31
0.0984545733122246
  0
LINE
  5
51F
  8
LAYER_01
 10
229.5303048623215
 20
58.83416803803337
 30
0.0984545733122246
 11
229.4594577967344
 21
58.90547368073419
 31
0.0984545733122246
  0
LINE
  5
520
  8
LAYER_01
 10
229.4594577967344
 20
58.90547368073419
 30
0.0984545733122246
 11
229.391130001149
 21
58.97919690457634
 31
0.0984545733122246
  0
LINE
  5
521
  8
LAYER_01
 10
229.391130001149
 20
58.97919690457634
 30
0.0984545733122246
 11
229.3254039210545
 21
59.05524875385459
 31
0.0984545733122246
  0
LINE
  5
522
  8
LAYER_01
 10
229.3254039210545
 20
59.05524875385459
 30
0.0984545733122246
 11
229.2623588626654
 21
59.13353746310438
 31
0.0984545733122246
  0
LINE
  5
523
  8
LAYER_01
 10
229.2623588626654
 20
59.13353746310438
 30
0.0984545733122246
 11
229.20207089723
 21
59.21396856782693
 31
0.0984545733122246
  0
LINE
  5
524
  8
LAYER_01
 10
229.20207089723
 20
59.21396856782693
 30
0.0984545733122246
 11
229.1446127692403
 21
59.29644501847319
 31
0.0984545733122246
  0
LINE
  5
525
  8
LAYER_01
 10
229.1446127692403
 20
59.29644501847319
 30
0.0984545733122246
 11
229.0900538086586
 21
59.38086729754384
 31
0.0984545733122246
  0
LINE
  5
526
  8
LAYER_01
 10
229.0900538086586
 20
59.38086729754384
 30
0.0984545733122246
 11
229.0384598472618
 21
59.46713353967025
 31
0.0984545733122246
  0
LINE
  5
527
  8
LAYER_01
 10
229.0384598472618
 20
59.46713353967025
 30
0.0984545733122246
 11
228.9898931392079
 21
59.55513965452617
 31
0.0984545733122246
  0
LINE
  5
528
  8
LAYER_01
 10
228.9898931392079
 20
59.55513965452617
 30
0.0984545733122246
 11
228.944412285919
 21
59.64477945242533
 31
0.0984545733122246
  0
LINE
  5
529
  8
LAYER_01
 10
228.944412285919
 20
59.64477945242533
 30
0.0984545733122246
 11
228.9020721653725
 21
59.73594477245077
 31
0.0984545733122246
  0
LINE
  5
52A
  8
LAYER_01
 10
228.9020721653725
 20
59.73594477245077
 30
0.0984545733122246
 11
228.3669798437449
 21
60.55907395730514
 31
0.0984545733122246
  0
LINE
  5
52B
  8
LAYER_01
 10
228.3669798437449
 20
60.55907395730514
 30
0.0984545733122246
 11
227.80477547925
 21
61.36392903753182
 31
0.0984545733122246
  0
LINE
  5
52C
  8
LAYER_01
 10
227.80477547925
 20
61.36392903753182
 30
0.0984545733122246
 11
227.2160826026008
 21
62.1496173628888
 31
0.0984545733122246
  0
LINE
  5
52D
  8
LAYER_01
 10
227.2160826026008
 20
62.1496173628888
 30
0.0984545733122246
 11
226.6015541224374
 21
62.91526754064097
 31
0.0984545733122246
  0
LINE
  5
52E
  8
LAYER_01
 10
226.6015541224374
 20
62.91526754064097
 30
0.0984545733122246
 11
225.961871601205
 21
63.66003040199588
 31
0.0984545733122246
  0
LINE
  5
52F
  8
LAYER_01
 10
225.961871601205
 20
63.66003040199588
 30
0.0984545733122246
 11
225.2977444992403
 21
64.38307994390838
 31
0.0984545733122246
  0
LINE
  5
530
  8
LAYER_01
 10
225.2977444992403
 20
64.38307994390838
 30
0.0984545733122246
 11
224.609909387925
 21
65.08361424518243
 31
0.0984545733122246
  0
LINE
  5
531
  8
LAYER_01
 10
224.609909387925
 20
65.08361424518243
 30
0.0984545733122246
 11
223.8991291327613
 21
65.76085635587347
 31
0.0984545733122246
  0
LINE
  5
532
  8
LAYER_01
 10
223.8991291327613
 20
65.76085635587347
 30
0.0984545733122246
 11
223.1661920473007
 21
66.4140551589805
 31
0.0984545733122246
  0
LINE
  5
533
  8
LAYER_01
 10
223.1661920473007
 20
66.4140551589805
 30
0.0984545733122246
 11
222.4119110188356
 21
67.04248620350111
 31
0.0984545733122246
  0
LINE
  5
534
  8
LAYER_01
 10
222.4119110188356
 20
67.04248620350111
 30
0.0984545733122246
 11
221.6371226068351
 21
67.6454525079109
 31
0.0984545733122246
  0
LINE
  5
535
  8
LAYER_01
 10
221.6371226068351
 20
67.6454525079109
 30
0.0984545733122246
 11
220.8426861151422
 21
68.22228533316495
 31
0.0984545733122246
  0
LINE
  5
536
  8
LAYER_01
 10
220.8426861151422
 20
68.22228533316495
 30
0.0984545733122246
 11
220.0294826389306
 21
68.7723449243885
 31
0.0984545733122246
  0
LINE
  5
537
  8
LAYER_01
 10
220.0294826389306
 20
68.7723449243885
 30
0.0984545733122246
 11
219.1984140874923
 21
69.2950212204209
 31
0.0984545733122246
  0
LINE
  5
538
  8
LAYER_01
 10
219.1984140874923
 20
69.2950212204209
 30
0.0984545733122246
 11
218.3504021839572
 21
69.78973453041634
 31
0.0984545733122246
  0
LINE
  5
539
  8
LAYER_01
 10
218.3504021839572
 20
69.78973453041634
 30
0.0984545733122246
 11
217.4863874430192
 21
70.25593617677315
 31
0.0984545733122246
  0
LINE
  5
53A
  8
LAYER_01
 10
217.4863874430192
 20
70.25593617677315
 30
0.0984545733122246
 11
216.6073281278306
 21
70.69310910366119
 31
0.0984545733122246
  0
LINE
  5
53B
  8
LAYER_01
 10
216.6073281278306
 20
70.69310910366119
 30
0.0984545733122246
 11
215.7141991872109
 21
71.1007684504782
 31
0.0984545733122246
  0
LINE
  5
53C
  8
LAYER_01
 10
215.7141991872109
 20
71.1007684504782
 30
0.0984545733122246
 11
214.8079911743417
 21
71.4784620896034
 31
0.0984545733122246
  0
LINE
  5
53D
  8
LAYER_01
 10
214.8079911743417
 20
71.4784620896034
 30
0.0984545733122246
 11
214.6778156354704
 21
71.52525807318165
 31
0.0984545733122246
  0
LINE
  5
53E
  8
LAYER_01
 10
214.6778156354704
 20
71.52525807318165
 30
0.0984545733122246
 11
214.549349061753
 21
71.57655987077916
 31
0.0984545733122246
  0
LINE
  5
53F
  8
LAYER_01
 10
214.549349061753
 20
71.57655987077916
 30
0.0984545733122246
 11
214.4227473604687
 21
71.63230522243649
 31
0.0984545733122246
  0
LINE
  5
540
  8
LAYER_01
 10
214.4227473604687
 20
71.63230522243649
 30
0.0984545733122246
 11
214.2981641756844
 21
71.69242647548812
 31
0.0984545733122246
  0
LINE
  5
541
  8
LAYER_01
 10
214.2981641756844
 20
71.69242647548812
 30
0.0984545733122246
 11
214.1757507017915
 21
71.75685066666638
 31
0.0984545733122246
  0
LINE
  5
542
  8
LAYER_01
 10
214.1757507017915
 20
71.75685066666638
 30
0.0984545733122246
 11
214.0556555000163
 21
71.82549961064947
 31
0.0984545733122246
  0
LINE
  5
543
  8
LAYER_01
 10
214.0556555000163
 20
71.82549961064947
 30
0.0984545733122246
 11
213.9380243181249
 21
71.89828999494799
 31
0.0984545733122246
  0
LINE
  5
544
  8
LAYER_01
 10
213.9380243181249
 20
71.89828999494799
 30
0.0984545733122246
 11
213.8229999135448
 21
71.97513348101218
 31
0.0984545733122246
  0
LINE
  5
545
  8
LAYER_01
 10
213.8229999135448
 20
71.97513348101218
 30
0.0984545733122246
 11
213.7107218801135
 21
72.05593681144039
 31
0.0984545733122246
  0
LINE
  5
546
  8
LAYER_01
 10
213.7107218801135
 20
72.05593681144039
 30
0.0984545733122246
 11
213.6013264786673
 21
72.14060192315608
 31
0.0984545733122246
  0
LINE
  5
547
  8
LAYER_01
 10
213.6013264786673
 20
72.14060192315608
 30
0.0984545733122246
 11
213.4949464716741
 21
72.2290260664181
 31
0.0984545733122246
  0
LINE
  5
548
  8
LAYER_01
 10
213.4949464716741
 20
72.2290260664181
 30
0.0984545733122246
 11
213.3917109621141
 21
72.32110192951689
 31
0.0984545733122246
  0
LINE
  5
549
  8
LAYER_01
 10
213.3917109621141
 20
72.32110192951689
 30
0.0984545733122246
 11
213.2917452367994
 21
72.41671776900868
 31
0.0984545733122246
  0
LINE
  5
54A
  8
LAYER_01
 10
213.2917452367994
 20
72.41671776900868
 30
0.0984545733122246
 11
213.195170614325
 21
72.51575754532821
 31
0.0984545733122246
  0
LINE
  5
54B
  8
LAYER_01
 10
213.195170614325
 20
72.51575754532821
 30
0.0984545733122246
 11
213.1021042978377
 21
72.61810106361332
 31
0.0984545733122246
  0
LINE
  5
54C
  8
LAYER_01
 10
213.1021042978377
 20
72.61810106361332
 30
0.0984545733122246
 11
213.012659232797
 21
72.72362411957445
 31
0.0984545733122246
  0
LINE
  5
54D
  8
LAYER_01
 10
213.012659232797
 20
72.72362411957445
 30
0.0984545733122246
 11
212.9269439699054
 21
72.83219865022886
 31
0.0984545733122246
  0
LINE
  5
54E
  8
LAYER_01
 10
212.9269439699054
 20
72.83219865022886
 30
0.0984545733122246
 11
212.8450625333691
 21
72.94369288931917
 31
0.0984545733122246
  0
LINE
  5
54F
  8
LAYER_01
 10
212.8450625333691
 20
72.94369288931917
 30
0.0984545733122246
 11
212.7671142946568
 21
73.05797152722263
 31
0.0984545733122246
  0
LINE
  5
550
  8
LAYER_01
 10
212.7671142946568
 20
73.05797152722263
 30
0.0984545733122246
 11
212.2478601753533
 21
73.6321979103324
 31
0.0984545733122246
  0
LINE
  5
551
  8
LAYER_01
 10
212.2478601753533
 20
73.6321979103324
 30
0.0984545733122246
 11
211.5865356482541
 21
74.33473305333243
 31
0.0984545733122246
  0
LINE
  5
552
  8
LAYER_01
 10
211.5865356482541
 20
74.33473305333243
 30
0.0984545733122246
 11
210.1775707041161
 21
75.76901551404102
 31
0.0984545733122246
  0
LINE
  5
553
  8
LAYER_01
 10
210.1775707041161
 20
75.76901551404102
 30
0.0984545733122246
 11
209.6033800776107
 21
76.32380555415527
 31
0.0984545733122246
  0
LINE
  5
554
  8
LAYER_01
 10
209.6033800776107
 20
76.32380555415527
 30
0.0984545733122246
 11
209.3463330728182
 21
76.56276882814257
 31
0.0984545733122246
  0
LINE
  5
555
  8
LAYER_01
 10
209.3463330728182
 20
76.56276882814257
 30
0.0984545733122246
 11
209.1060086720245
 21
76.77832066274794
 31
0.0984545733122246
  0
LINE
  5
556
  8
LAYER_01
 10
209.1060086720245
 20
76.77832066274794
 30
0.0984545733122246
 11
208.8799246739985
 21
76.9721183514699
 31
0.0984545733122246
  0
LINE
  5
557
  8
LAYER_01
 10
208.8799246739985
 20
76.9721183514699
 30
0.0984545733122246
 11
208.6655988775091
 21
77.14581918780695
 31
0.0984545733122246
  0
LINE
  5
558
  8
LAYER_01
 10
208.6655988775091
 20
77.14581918780695
 30
0.0984545733122246
 11
208.562069616956
 21
77.2256511905494
 31
0.0984545733122246
  0
LINE
  5
559
  8
LAYER_01
 10
208.562069616956
 20
77.2256511905494
 30
0.0984545733122246
 11
208.4605490813254
 21
77.30108046525754
 31
0.0984545733122246
  0
LINE
  5
55A
  8
LAYER_01
 10
208.4605490813254
 20
77.30108046525754
 30
0.0984545733122246
 11
208.3607269954634
 21
77.37231417361869
 31
0.0984545733122246
  0
LINE
  5
55B
  8
LAYER_01
 10
208.3607269954634
 20
77.37231417361869
 30
0.0984545733122246
 11
208.2622930842163
 21
77.43955947732016
 31
0.0984545733122246
  0
LINE
  5
55C
  8
LAYER_01
 10
208.2622930842163
 20
77.43955947732016
 30
0.0984545733122246
 11
208.16493707243
 21
77.50302353804926
 31
0.0984545733122246
  0
LINE
  5
55D
  8
LAYER_01
 10
208.16493707243
 20
77.50302353804926
 30
0.0984545733122246
 11
208.0683486849508
 21
77.56291351749331
 31
0.0984545733122246
  0
LINE
  5
55E
  8
LAYER_01
 10
208.0683486849508
 20
77.56291351749331
 30
0.0984545733122246
 11
207.9722176466247
 21
77.6194365773396
 31
0.0984545733122246
  0
LINE
  5
55F
  8
LAYER_01
 10
207.9722176466247
 20
77.6194365773396
 30
0.0984545733122246
 11
207.8762336822978
 21
77.67279987927546
 31
0.0984545733122246
  0
LINE
  5
560
  8
LAYER_01
 10
207.8762336822978
 20
77.67279987927546
 30
0.0984545733122246
 11
207.7800865168163
 21
77.7232105849882
 31
0.0984545733122246
  0
LINE
  5
561
  8
LAYER_01
 10
207.7800865168163
 20
77.7232105849882
 30
0.0984545733122246
 11
207.6834658750264
 21
77.77087585616512
 31
0.0984545733122246
  0
LINE
  5
562
  8
LAYER_01
 10
207.6834658750264
 20
77.77087585616512
 30
0.0984545733122246
 11
207.586061481774
 21
77.81600285449355
 31
0.0984545733122246
  0
LINE
  5
563
  8
LAYER_01
 10
207.586061481774
 20
77.81600285449355
 30
0.0984545733122246
 11
207.4875630619054
 21
77.85879874166076
 31
0.0984545733122246
  0
LINE
  5
564
  8
LAYER_01
 10
207.4875630619054
 20
77.85879874166076
 30
0.0984545733122246
 11
207.3876603402666
 21
77.89947067935411
 31
0.0984545733122246
  0
LINE
  5
565
  8
LAYER_01
 10
207.3876603402666
 20
77.89947067935411
 30
0.0984545733122246
 11
207.2860430417039
 21
77.93822582926089
 31
0.0984545733122246
  0
LINE
  5
566
  8
LAYER_01
 10
207.2860430417039
 20
77.93822582926089
 30
0.0984545733122246
 11
207.1824008910632
 21
77.97527135306841
 31
0.0984545733122246
  0
LINE
  5
567
  8
LAYER_01
 10
207.1824008910632
 20
77.97527135306841
 30
0.0984545733122246
 11
207.0764236131907
 21
78.01081441246396
 31
0.0984545733122246
  0
LINE
  5
568
  8
LAYER_01
 10
207.0764236131907
 20
78.01081441246396
 30
0.0984545733122246
 11
206.856222575135
 21
78.07822178476847
 31
0.0984545733122246
  0
LINE
  5
569
  8
LAYER_01
 10
206.856222575135
 20
78.07822178476847
 30
0.0984545733122246
 11
206.6229577263056
 21
78.14210523967292
 31
0.0984545733122246
  0
LINE
  5
56A
  8
LAYER_01
 10
206.6229577263056
 20
78.14210523967292
 30
0.0984545733122246
 11
206.5595183462539
 21
78.15754457882196
 31
0.0984545733122246
  0
LINE
  5
56B
  8
LAYER_01
 10
206.5595183462539
 20
78.15754457882196
 30
0.0984545733122246
 11
206.4905818344278
 21
78.17230193152368
 31
0.0984545733122246
  0
LINE
  5
56C
  8
LAYER_01
 10
206.4905818344278
 20
78.17230193152368
 30
0.0984545733122246
 11
206.4165132561078
 21
78.18636532073572
 31
0.0984545733122246
  0
LINE
  5
56D
  8
LAYER_01
 10
206.4165132561078
 20
78.18636532073572
 30
0.0984545733122246
 11
206.3376776765745
 21
78.19972276941573
 31
0.0984545733122246
  0
LINE
  5
56E
  8
LAYER_01
 10
206.3376776765745
 20
78.19972276941573
 30
0.0984545733122246
 11
206.16716577499
 21
78.22427193701017
 31
0.0984545733122246
  0
LINE
  5
56F
  8
LAYER_01
 10
206.16716577499
 20
78.22427193701017
 30
0.0984545733122246
 11
205.9819666519182
 21
78.24585361796814
 31
0.0984545733122246
  0
LINE
  5
570
  8
LAYER_01
 10
205.9819666519182
 20
78.24585361796814
 30
0.0984545733122246
 11
205.7850008296031
 21
78.26437199595075
 31
0.0984545733122246
  0
LINE
  5
571
  8
LAYER_01
 10
205.7850008296031
 20
78.26437199595075
 30
0.0984545733122246
 11
205.579188830289
 21
78.27973125461915
 31
0.0984545733122246
  0
LINE
  5
572
  8
LAYER_01
 10
205.579188830289
 20
78.27973125461915
 30
0.0984545733122246
 11
205.1527083896397
 21
78.30058914865776
 31
0.0984545733122246
  0
LINE
  5
573
  8
LAYER_01
 10
205.1527083896397
 20
78.30058914865776
 30
0.0984545733122246
 11
204.7258895079227
 21
78.30766076937297
 31
0.0984545733122246
  0
LINE
  5
574
  8
LAYER_01
 10
204.7258895079227
 20
78.30766076937297
 30
0.0984545733122246
 11
204.519654457274
 21
78.30578718638711
 31
0.0984545733122246
  0
LINE
  5
575
  8
LAYER_01
 10
204.519654457274
 20
78.30578718638711
 30
0.0984545733122246
 11
204.3220963630907
 21
78.30017958605377
 31
0.0984545733122246
  0
LINE
  5
576
  8
LAYER_01
 10
204.3220963630907
 20
78.30017958605377
 30
0.0984545733122246
 11
204.1361357476167
 21
78.29074215203408
 31
0.0984545733122246
  0
LINE
  5
577
  8
LAYER_01
 10
204.1361357476167
 20
78.29074215203408
 30
0.0984545733122246
 11
203.9646931330962
 21
78.27737906798916
 31
0.0984545733122246
  0
LINE
  5
578
  8
LAYER_01
 10
203.9646931330962
 20
78.27737906798916
 30
0.0984545733122246
 11
203.8853287393948
 21
78.26919546460134
 31
0.0984545733122246
  0
LINE
  5
579
  8
LAYER_01
 10
203.8853287393948
 20
78.26919546460134
 30
0.0984545733122246
 11
203.8106890417732
 21
78.25999451758013
 31
0.0984545733122246
  0
LINE
  5
57A
  8
LAYER_01
 10
203.8106890417732
 20
78.25999451758013
 30
0.0984545733122246
 11
203.741139105512
 21
78.24976424988317
 31
0.0984545733122246
  0
LINE
  5
57B
  8
LAYER_01
 10
203.741139105512
 20
78.24976424988317
 30
0.0984545733122246
 11
203.6770439958918
 21
78.23849268446813
 31
0.0984545733122246
  0
LINE
  5
57C
  8
LAYER_01
 10
203.6770439958918
 20
78.23849268446813
 30
0.0984545733122246
 11
203.6489766248535
 21
78.23270861333356
 31
0.0984545733122246
  0
LINE
  5
57D
  8
LAYER_01
 10
203.6489766248535
 20
78.23270861333356
 30
0.0984545733122246
 11
203.6216962508352
 21
78.22635071507008
 31
0.0984545733122246
  0
LINE
  5
57E
  8
LAYER_01
 10
203.6216962508352
 20
78.22635071507008
 30
0.0984545733122246
 11
203.5953441401624
 21
78.21948341434882
 31
0.0984545733122246
  0
LINE
  5
57F
  8
LAYER_01
 10
203.5953441401624
 20
78.21948341434882
 30
0.0984545733122246
 11
203.5700615591605
 21
78.212171135841
 31
0.0984545733122246
  0
LINE
  5
580
  8
LAYER_01
 10
203.5700615591605
 20
78.212171135841
 30
0.0984545733122246
 11
203.545989774155
 21
78.20447830421776
 31
0.0984545733122246
  0
LINE
  5
581
  8
LAYER_01
 10
203.545989774155
 20
78.20447830421776
 30
0.0984545733122246
 11
203.5232700514714
 21
78.19646934415029
 31
0.0984545733122246
  0
LINE
  5
582
  8
LAYER_01
 10
203.5232700514714
 20
78.19646934415029
 30
0.0984545733122246
 11
203.5020436574352
 21
78.18820868030973
 31
0.0984545733122246
  0
LINE
  5
583
  8
LAYER_01
 10
203.5020436574352
 20
78.18820868030973
 30
0.0984545733122246
 11
203.4920346043866
 21
78.1840040921843
 31
0.0984545733122246
  0
LINE
  5
584
  8
LAYER_01
 10
203.4920346043866
 20
78.1840040921843
 30
0.0984545733122246
 11
203.4824518583719
 21
78.17976073736729
 31
0.0984545733122246
  0
LINE
  5
585
  8
LAYER_01
 10
203.4824518583719
 20
78.17976073736729
 30
0.0984545733122246
 11
203.4733130776818
 21
78.1754866689426
 31
0.0984545733122246
  0
LINE
  5
586
  8
LAYER_01
 10
203.4733130776818
 20
78.1754866689426
 30
0.0984545733122246
 11
203.4646359206069
 21
78.17118993999412
 31
0.0984545733122246
  0
LINE
  5
587
  8
LAYER_01
 10
203.4646359206069
 20
78.17118993999412
 30
0.0984545733122246
 11
203.4564380454379
 21
78.16687860360577
 31
0.0984545733122246
  0
LINE
  5
588
  8
LAYER_01
 10
203.4564380454379
 20
78.16687860360577
 30
0.0984545733122246
 11
203.4487371104656
 21
78.16256071286142
 31
0.0984545733122246
  0
LINE
  5
589
  8
LAYER_01
 10
203.4487371104656
 20
78.16256071286142
 30
0.0984545733122246
 11
203.4415507739807
 21
78.15824432084499
 31
0.0984545733122246
  0
LINE
  5
58A
  8
LAYER_01
 10
203.4415507739807
 20
78.15824432084499
 30
0.0984545733122246
 11
203.4381560983867
 21
78.15608920344845
 31
0.0984545733122246
  0
LINE
  5
58B
  8
LAYER_01
 10
203.4381560983867
 20
78.15608920344845
 30
0.0984545733122246
 11
203.4348966942737
 21
78.15393748064034
 31
0.0984545733122246
  0
LINE
  5
58C
  8
LAYER_01
 10
203.4348966942737
 20
78.15393748064034
 30
0.0984545733122246
 11
203.4317747689278
 21
78.15179015905616
 31
0.0984545733122246
  0
LINE
  5
58D
  8
LAYER_01
 10
203.4317747689278
 20
78.15179015905616
 30
0.0984545733122246
 11
203.4287925296354
 21
78.1496482453314
 31
0.0984545733122246
  0
LINE
  5
58E
  8
LAYER_01
 10
203.4287925296354
 20
78.1496482453314
 30
0.0984545733122246
 11
203.4259521836828
 21
78.14751274610154
 31
0.0984545733122246
  0
LINE
  5
58F
  8
LAYER_01
 10
203.4259521836828
 20
78.14751274610154
 30
0.0984545733122246
 11
203.4232559383564
 21
78.14538466800205
 31
0.0984545733122246
  0
LINE
  5
590
  8
LAYER_01
 10
203.4232559383564
 20
78.14538466800205
 30
0.0984545733122246
 11
203.4207060009426
 21
78.14326501766844
 31
0.0984545733122246
  0
LINE
  5
591
  8
LAYER_01
 10
203.4207060009426
 20
78.14326501766844
 30
0.0984545733122246
 11
203.4183045787276
 21
78.14115480173619
 31
0.0984545733122246
  0
LINE
  5
592
  8
LAYER_01
 10
203.4183045787276
 20
78.14115480173619
 30
0.0984545733122246
 11
203.4160538789978
 21
78.1390550268408
 31
0.0984545733122246
  0
LINE
  5
593
  8
LAYER_01
 10
203.4160538789978
 20
78.1390550268408
 30
0.0984545733122246
 11
203.4139561090394
 21
78.13696669961774
 31
0.0984545733122246
  0
LINE
  5
594
  8
LAYER_01
 10
203.4139561090394
 20
78.13696669961774
 30
0.0984545733122246
 11
203.4129652625016
 21
78.13592714345693
 31
0.0984545733122246
  0
LINE
  5
595
  8
LAYER_01
 10
203.4129652625016
 20
78.13592714345693
 30
0.0984545733122246
 11
203.412013476139
 21
78.1348908267025
 31
0.0984545733122246
  0
LINE
  5
596
  8
LAYER_01
 10
203.412013476139
 20
78.1348908267025
 30
0.0984545733122246
 11
203.4111010258624
 21
78.1338578751839
 31
0.0984545733122246
  0
LINE
  5
597
  8
LAYER_01
 10
203.4111010258624
 20
78.1338578751839
 30
0.0984545733122246
 11
203.4102281875827
 21
78.13282841473057
 31
0.0984545733122246
  0
LINE
  5
598
  8
LAYER_01
 10
203.4102281875827
 20
78.13282841473057
 30
0.0984545733122246
 11
203.4093952372107
 21
78.13180257117195
 31
0.0984545733122246
  0
LINE
  5
599
  8
LAYER_01
 10
203.4093952372107
 20
78.13180257117195
 30
0.0984545733122246
 11
203.408602450657
 21
78.13078047033744
 31
0.0984545733122246
  0
LINE
  5
59A
  8
LAYER_01
 10
203.408602450657
 20
78.13078047033744
 30
0.0984545733122246
 11
203.4078501038326
 21
78.12976223805651
 31
0.0984545733122246
  0
LINE
  5
59B
  8
LAYER_01
 10
203.4078501038326
 20
78.12976223805651
 30
0.0984545733122246
 11
203.4071384726481
 21
78.1287480001586
 31
0.0984545733122246
  0
LINE
  5
59C
  8
LAYER_01
 10
203.4071384726481
 20
78.1287480001586
 30
0.0984545733122246
 11
203.4064678330145
 21
78.12773788247313
 31
0.0984545733122246
  0
LINE
  5
59D
  8
LAYER_01
 10
203.4064678330145
 20
78.12773788247313
 30
0.0984545733122246
 11
203.4058384608425
 21
78.12673201082951
 31
0.0984545733122246
  0
LINE
  5
59E
  8
LAYER_01
 10
203.4058384608425
 20
78.12673201082951
 30
0.0984545733122246
 11
203.4052506320428
 21
78.12573051105721
 31
0.0984545733122246
  0
LINE
  5
59F
  8
LAYER_01
 10
203.4052506320428
 20
78.12573051105721
 30
0.0984545733122246
 11
203.4047046225263
 21
78.12473350898568
 31
0.0984545733122246
  0
LINE
  5
5A0
  8
LAYER_01
 10
203.4047046225263
 20
78.12473350898568
 30
0.0984545733122246
 11
203.4042007082038
 21
78.12374113044433
 31
0.0984545733122246
  0
LINE
  5
5A1
  8
LAYER_01
 10
203.4042007082038
 20
78.12374113044433
 30
0.0984545733122246
 11
203.4037391649861
 21
78.12275350126261
 31
0.0984545733122246
  0
LINE
  5
5A2
  8
LAYER_01
 10
203.4037391649861
 20
78.12275350126261
 30
0.0984545733122246
 11
203.4035243687636
 21
78.1222615070033
 31
0.0984545733122246
  0
LINE
  5
5A3
  8
LAYER_01
 10
203.4035243687636
 20
78.1222615070033
 30
0.0984545733122246
 11
203.4033202687839
 21
78.12177074726993
 31
0.0984545733122246
  0
LINE
  5
5A4
  8
LAYER_01
 10
203.4033202687839
 20
78.12177074726993
 30
0.0984545733122246
 11
203.4031268995357
 21
78.1212812377912
 31
0.0984545733122246
  0
LINE
  5
5A5
  8
LAYER_01
 10
203.4031268995357
 20
78.1212812377912
 30
0.0984545733122246
 11
203.402944295508
 21
78.12079299429575
 31
0.0984545733122246
  0
LINE
  5
5A6
  8
LAYER_01
 10
203.402944295508
 20
78.12079299429575
 30
0.0984545733122246
 11
203.4027724911896
 21
78.1203060325123
 31
0.0984545733122246
  0
LINE
  5
5A7
  8
LAYER_01
 10
203.4027724911896
 20
78.1203060325123
 30
0.0984545733122246
 11
203.4026115210693
 21
78.11982036816951
 31
0.0984545733122246
  0
LINE
  5
5A8
  8
LAYER_01
 10
203.4026115210693
 20
78.11982036816951
 30
0.0984545733122246
 11
203.402461419636
 21
78.11933601699606
 31
0.0984545733122246
  0
LINE
  5
5A9
  8
LAYER_01
 10
203.402461419636
 20
78.11933601699606
 30
0.0984545733122246
 11
203.4023222213785
 21
78.11885299472063
 31
0.0984545733122246
  0
LINE
  5
5AA
  8
LAYER_01
 10
203.4023222213785
 20
78.11885299472063
 30
0.0984545733122246
 11
203.4021939607857
 21
78.11837131707189
 31
0.0984545733122246
  0
LINE
  5
5AB
  8
LAYER_01
 10
203.4021939607857
 20
78.11837131707189
 30
0.0984545733122246
 11
203.4020766723464
 21
78.11789099977854
 31
0.0984545733122246
  0
LINE
  5
5AC
  8
LAYER_01
 10
203.4020766723464
 20
78.11789099977854
 30
0.0984545733122246
 11
203.4019703905495
 21
78.11741205856924
 31
0.0984545733122246
  0
LINE
  5
5AD
  8
LAYER_01
 10
203.4019703905495
 20
78.11741205856924
 30
0.0984545733122246
 11
203.4018751498838
 21
78.1169345091727
 31
0.0984545733122246
  0
LINE
  5
5AE
  8
LAYER_01
 10
203.4018751498838
 20
78.1169345091727
 30
0.0984545733122246
 11
203.4017909848383
 21
78.11645836731756
 31
0.0984545733122246
  0
LINE
  5
5AF
  8
LAYER_01
 10
203.4017909848383
 20
78.11645836731756
 30
0.0984545733122246
 11
203.4017179299016
 21
78.11598364873251
 31
0.0984545733122246
  0
LINE
  5
5B0
  8
LAYER_01
 10
203.4017179299016
 20
78.11598364873251
 30
0.0984545733122246
 11
203.4016560195627
 21
78.11551036914625
 31
0.0984545733122246
  0
LINE
  5
5B1
  8
LAYER_01
 10
203.4016560195627
 20
78.11551036914625
 30
0.0984545733122246
 11
203.4016052883104
 21
78.11503854428746
 31
0.0984545733122246
  0
LINE
  5
5B2
  8
LAYER_01
 10
203.4016052883104
 20
78.11503854428746
 30
0.0984545733122246
 11
203.4015657706337
 21
78.11456818988478
 31
0.0984545733122246
  0
LINE
  5
5B3
  8
LAYER_01
 10
203.4015657706337
 20
78.11456818988478
 30
0.0984545733122246
 11
203.4015375010212
 21
78.11409932166693
 31
0.0984545733122246
  0
LINE
  5
5B4
  8
LAYER_01
 10
203.4015375010212
 20
78.11409932166693
 30
0.0984545733122246
 11
203.4015205139618
 21
78.11363195536258
 31
0.0984545733122246
  0
LINE
  5
5B5
  8
LAYER_01
 10
203.4015205139618
 20
78.11363195536258
 30
0.0984545733122246
 11
203.4015148439445
 21
78.11316610670039
 31
0.0984545733122246
  0
LINE
  5
5B6
  8
LAYER_01
 10
203.4015148439445
 20
78.11316610670039
 30
0.0984545733122246
 11
203.4015296565329
 21
78.11267870498207
 31
0.0984545733122246
  0
LINE
  5
5B7
  8
LAYER_01
 10
203.4015296565329
 20
78.11267870498207
 30
0.0984545733122246
 11
203.4015740342006
 21
78.11214625129506
 31
0.0984545733122246
  0
LINE
  5
5B8
  8
LAYER_01
 10
203.4015740342006
 20
78.11214625129506
 30
0.0984545733122246
 11
203.401647886802
 21
78.11156889397245
 31
0.0984545733122246
  0
LINE
  5
5B9
  8
LAYER_01
 10
203.401647886802
 20
78.11156889397245
 30
0.0984545733122246
 11
203.4017511241912
 21
78.1109467813473
 31
0.0984545733122246
  0
LINE
  5
5BA
  8
LAYER_01
 10
203.4017511241912
 20
78.1109467813473
 30
0.0984545733122246
 11
203.4018836562222
 21
78.11028006175269
 31
0.0984545733122246
  0
LINE
  5
5BB
  8
LAYER_01
 10
203.4018836562222
 20
78.11028006175269
 30
0.0984545733122246
 11
203.4020453927494
 21
78.10956888352169
 31
0.0984545733122246
  0
LINE
  5
5BC
  8
LAYER_01
 10
203.4020453927494
 20
78.10956888352169
 30
0.0984545733122246
 11
203.4022362436269
 21
78.10881339498738
 31
0.0984545733122246
  0
LINE
  5
5BD
  8
LAYER_01
 10
203.4022362436269
 20
78.10881339498738
 30
0.0984545733122246
 11
203.4024561187088
 21
78.10801374448286
 31
0.0984545733122246
  0
LINE
  5
5BE
  8
LAYER_01
 10
203.4024561187088
 20
78.10801374448286
 30
0.0984545733122246
 11
203.4029825809025
 21
78.10628255089537
 31
0.0984545733122246
  0
LINE
  5
5BF
  8
LAYER_01
 10
203.4029825809025
 20
78.10628255089537
 30
0.0984545733122246
 11
203.403624058164
 21
78.10437648942386
 31
0.0984545733122246
  0
LINE
  5
5C0
  8
LAYER_01
 10
203.403624058164
 20
78.10437648942386
 30
0.0984545733122246
 11
203.4043798293266
 21
78.10229674673289
 31
0.0984545733122246
  0
LINE
  5
5C1
  8
LAYER_01
 10
203.4043798293266
 20
78.10229674673289
 30
0.0984545733122246
 11
203.4052491732235
 21
78.10004450948709
 31
0.0984545733122246
  0
LINE
  5
5C2
  8
LAYER_01
 10
203.4052491732235
 20
78.10004450948709
 30
0.0984545733122246
 11
203.407325694554
 21
78.09502729798936
 31
0.0984545733122246
  0
LINE
  5
5C3
  8
LAYER_01
 10
203.407325694554
 20
78.09502729798936
 30
0.0984545733122246
 11
203.4098478528222
 21
78.08933434824743
 31
0.0984545733122246
  0
LINE
  5
5C4
  8
LAYER_01
 10
203.4098478528222
 20
78.08933434824743
 30
0.0984545733122246
 11
203.4162060028378
 21
78.07595920729827
 31
0.0984545733122246
  0
LINE
  5
5C5
  8
LAYER_01
 10
203.4162060028378
 20
78.07595920729827
 30
0.0984545733122246
 11
203.4340160954534
 21
78.04151777240872
 31
0.0984545733122246
  0
LINE
  5
5C6
  8
LAYER_01
 10
203.4340160954534
 20
78.04151777240872
 30
0.0984545733122246
 11
203.4583102137362
 21
77.99732777709329
 31
0.0984545733122246
  0
LINE
  5
5C7
  8
LAYER_01
 10
203.4583102137362
 20
77.99732777709329
 30
0.0984545733122246
 11
203.6129421968586
 21
77.73523363706859
 31
0.0984545733122246
  0
LINE
  5
5C8
  8
LAYER_01
 10
203.6129421968586
 20
77.73523363706859
 30
0.0984545733122246
 11
204.1211912455788
 21
76.9278164281169
 31
0.0984545733122246
  0
LINE
  5
5C9
  8
LAYER_01
 10
204.1211912455788
 20
76.9278164281169
 30
0.0984545733122246
 11
204.3794405503224
 21
76.51860984981286
 31
0.0984545733122246
  0
LINE
  5
5CA
  8
LAYER_01
 10
204.3794405503224
 20
76.51860984981286
 30
0.0984545733122246
 11
204.6313375754498
 21
76.09989618072385
 31
0.0984545733122246
  0
LINE
  5
5CB
  8
LAYER_01
 10
204.6313375754498
 20
76.09989618072385
 30
0.0984545733122246
 11
204.876904708846
 21
75.67159759059123
 31
0.0984545733122246
  0
LINE
  5
5CC
  8
LAYER_01
 10
204.876904708846
 20
75.67159759059123
 30
0.0984545733122246
 11
205.1161643383959
 21
75.23363624915638
 31
0.0984545733122246
  0
LINE
  5
5CD
  8
LAYER_01
 10
205.1161643383959
 20
75.23363624915638
 30
0.0984545733122246
 11
205.3491388519844
 21
74.78593432616064
 31
0.0984545733122246
  0
LINE
  5
5CE
  8
LAYER_01
 10
205.3491388519844
 20
74.78593432616064
 30
0.0984545733122246
 11
205.5758506374964
 21
74.3284139913454
 31
0.0984545733122246
  0
LINE
  5
5CF
  8
LAYER_01
 10
205.5758506374964
 20
74.3284139913454
 30
0.0984545733122246
 11
205.7963220828168
 21
73.86099741445199
 31
0.0984545733122246
  0
LINE
  5
5D0
  8
LAYER_01
 10
205.7963220828168
 20
73.86099741445199
 30
0.0984545733122246
 11
206.0105755758305
 21
73.38360676522177
 31
0.0984545733122246
  0
LINE
  5
5D1
  8
LAYER_01
 10
206.0105755758305
 20
73.38360676522177
 30
0.0984545733122246
 11
206.2186335044224
 21
72.8961642133961
 31
0.0984545733122246
  0
LINE
  5
5D2
  8
LAYER_01
 10
206.2186335044224
 20
72.8961642133961
 30
0.0984545733122246
 11
206.4205182564775
 21
72.39859192871637
 31
0.0984545733122246
  0
LINE
  5
5D3
  8
LAYER_01
 10
206.4205182564775
 20
72.39859192871637
 30
0.0984545733122246
 11
206.8058577825167
 21
71.37274683976013
 31
0.0984545733122246
  0
LINE
  5
5D4
  8
LAYER_01
 10
206.8058577825167
 20
71.37274683976013
 30
0.0984545733122246
 11
207.1667732570272
 21
70.30544885628389
 31
0.0984545733122246
  0
LINE
  5
5D5
  8
LAYER_01
 10
207.1667732570272
 20
70.30544885628389
 30
0.0984545733122246
 11
207.5034437830884
 21
69.19607533621857
 31
0.0984545733122246
  0
LINE
  5
5D6
  8
LAYER_01
 10
207.5034437830884
 20
69.19607533621857
 30
0.0984545733122246
 11
207.8160484637795
 21
68.04400363749502
 31
0.0984545733122246
  0
LINE
  5
5D7
  8
LAYER_01
 10
207.8160484637795
 20
68.04400363749502
 30
0.0984545733122246
 11
208.1047664021798
 21
66.84861111804416
 31
0.0984545733122246
  0
LINE
  5
5D8
  8
LAYER_01
 10
208.1047664021798
 20
66.84861111804416
 30
0.0984545733122246
 11
208.3697767013685
 21
65.60927513579688
 31
0.0984545733122246
  0
LINE
  5
5D9
  8
LAYER_01
 10
208.3697767013685
 20
65.60927513579688
 30
0.0984545733122246
 11
208.6112584644249
 21
64.32537304868404
 31
0.0984545733122246
  0
LINE
  5
5DA
  8
LAYER_01
 10
208.6112584644249
 20
64.32537304868404
 30
0.0984545733122246
 11
208.8293907944283
 21
62.99628221463654
 31
0.0984545733122246
  0
LINE
  5
5DB
  8
LAYER_01
 10
208.8293907944283
 20
62.99628221463654
 30
0.0984545733122246
 11
209.0243527944578
 21
61.62137999158526
 31
0.0984545733122246
  0
LINE
  5
5DC
  8
LAYER_01
 10
209.0243527944578
 20
61.62137999158526
 30
0.0984545733122246
 11
209.1963235675928
 21
60.20004373746109
 31
0.0984545733122246
  0
LINE
  5
5DD
  8
LAYER_01
 10
209.1963235675928
 20
60.20004373746109
 30
0.0984545733122246
 11
209.3454822169125
 21
58.73165081019492
 31
0.0984545733122246
  0
LINE
  5
5DE
  8
LAYER_01
 10
209.3454822169125
 20
58.73165081019492
 30
0.0984545733122246
 11
209.4237535931796
 21
57.61858052183604
 31
0.0984545733122246
  0
LINE
  5
5DF
  8
LAYER_01
 10
209.4237535931796
 20
57.61858052183604
 30
0.0984545733122246
 11
209.4989094924434
 21
56.08159566037531
 31
0.0984545733122246
  0
LINE
  5
5E0
  8
LAYER_01
 10
209.4989094924434
 20
56.08159566037531
 30
0.0984545733122246
 11
209.6057041937516
 21
52.54755206648859
 31
0.0984545733122246
  0
LINE
  5
5E1
  8
LAYER_01
 10
209.6057041937516
 20
52.54755206648859
 30
0.0984545733122246
 11
209.6110933354034
 21
48.26796944752276
 31
0.0984545733122246
  0
LINE
  5
5E2
  8
LAYER_01
 10
209.6110933354034
 20
48.26796944752276
 30
0.0984545733122246
 11
209.5574242386222
 21
46.13548887357246
 31
0.0984545733122246
  0
LINE
  5
5E3
  8
LAYER_01
 10
209.5574242386222
 20
46.13548887357246
 30
0.0984545733122246
 11
209.4638228295685
 21
43.9623070758946
 31
0.0984545733122246
  0
LINE
  5
5E4
  8
LAYER_01
 10
209.4638228295685
 20
43.9623070758946
 30
0.0984545733122246
 11
209.1497534730405
 21
39.35711466710826
 31
0.0984545733122246
  0
LINE
  5
5E5
  8
LAYER_01
 10
209.1497534730405
 20
39.35711466710826
 30
0.0984545733122246
 11
208.6547460626131
 21
34.17894193666785
 31
0.0984545733122246
  0
LINE
  5
5E6
  8
LAYER_01
 10
208.6547460626131
 20
34.17894193666785
 30
0.0984545733122246
 11
207.9361296797936
 21
26.88559206392611
 31
0.0984545733122246
  0
LINE
  5
5E7
  8
LAYER_01
 10
207.9361296797936
 20
26.88559206392611
 30
0.0984545733122246
 11
207.7979581147348
 21
24.61458579342086
 31
0.0984545733122246
  0
LINE
  5
5E8
  8
LAYER_01
 10
207.7979581147348
 20
24.61458579342086
 30
0.0984545733122246
 11
207.7279443681989
 21
22.23934535228437
 31
0.0984545733122246
  0
LINE
  5
5E9
  8
LAYER_01
 10
207.7279443681989
 20
22.23934535228437
 30
0.0984545733122246
 11
207.7156685419494
 21
19.60426992450985
 31
0.0984545733122246
  0
LINE
  5
5EA
  8
LAYER_01
 10
207.7156685419494
 20
19.60426992450985
 30
0.0984545733122246
 11
207.790252368699
 21
17.03639660759482
 31
0.0984545733122246
  0
LINE
  5
5EB
  8
LAYER_01
 10
207.790252368699
 20
17.03639660759482
 30
0.0984545733122246
 11
207.8603316034222
 21
15.77694400783433
 31
0.0984545733122246
  0
LINE
  5
5EC
  8
LAYER_01
 10
207.8603316034222
 20
15.77694400783433
 30
0.0984545733122246
 11
207.9523836931634
 21
14.53343185633837
 31
0.0984545733122246
  0
LINE
  5
5ED
  8
LAYER_01
 10
207.9523836931634
 20
14.53343185633837
 30
0.0984545733122246
 11
208.0664946185123
 21
13.30557345995684
 31
0.0984545733122246
  0
LINE
  5
5EE
  8
LAYER_01
 10
208.0664946185123
 20
13.30557345995684
 30
0.0984545733122246
 11
208.2027503600581
 21
12.09308212553961
 31
0.0984545733122246
  0
LINE
  5
5EF
  8
LAYER_01
 10
208.2027503600581
 20
12.09308212553961
 30
0.0984545733122246
 11
208.3612368983903
 21
10.89567115993657
 31
0.0984545733122246
  0
LINE
  5
5F0
  8
LAYER_01
 10
208.3612368983903
 20
10.89567115993657
 30
0.0984545733122246
 11
208.5420402140984
 21
9.713053869997617
 31
0.0984545733122246
  0
LINE
  5
5F1
  8
LAYER_01
 10
208.5420402140984
 20
9.713053869997617
 30
0.0984545733122246
 11
208.7452462877719
 21
8.544943562572628
 31
0.0984545733122246
  0
LINE
  5
5F2
  8
LAYER_01
 10
208.7452462877719
 20
8.544943562572628
 30
0.0984545733122246
 11
208.9709411
 21
7.391053544511492
 31
0.0984545733122246
  0
LINE
  5
5F3
  8
LAYER_01
 10
208.9709411
 20
7.391053544511492
 30
0.0984545733122246
 11
209.2192106313723
 21
6.251097122664096
 31
0.0984545733122246
  0
LINE
  5
5F4
  8
LAYER_01
 10
209.2192106313723
 20
6.251097122664096
 30
0.0984545733122246
 11
209.4901408624783
 21
5.124787603880328
 31
0.0984545733122246
  0
LINE
  5
5F5
  8
LAYER_01
 10
209.4901408624783
 20
5.124787603880328
 30
0.0984545733122246
 11
209.7838177739073
 21
4.011838295010074
 31
0.0984545733122246
  0
LINE
  5
5F6
  8
LAYER_01
 10
209.7838177739073
 20
4.011838295010074
 30
0.0984545733122246
 11
210.1003273462489
 21
2.91196250290322
 31
0.0984545733122246
  0
LINE
  5
5F7
  8
LAYER_01
 10
210.1003273462489
 20
2.91196250290322
 30
0.0984545733122246
 11
210.4397555600923
 21
1.824873534409654
 31
0.0984545733122246
  0
LINE
  5
5F8
  8
LAYER_01
 10
210.4397555600923
 20
1.824873534409654
 30
0.0984545733122246
 11
210.8021883960271
 21
0.7502846963792615
 31
0.0984545733122246
  0
LINE
  5
5F9
  8
LAYER_01
 10
210.8021883960271
 20
0.7502846963792615
 30
0.0984545733122246
 11
211.1877118346428
 21
-0.3120907043380702
 31
0.0984545733122246
  0
LINE
  5
5FA
  8
LAYER_01
 10
211.1877118346428
 20
-0.3120907043380702
 30
0.0984545733122246
 11
211.5964118565287
 21
-1.362539360892454
 31
0.0984545733122246
  0
LINE
  5
5FB
  8
LAYER_01
 10
211.5964118565287
 20
-1.362539360892454
 30
0.0984545733122246
 11
212.0283744422742
 21
-2.401347966434004
 31
0.0984545733122246
  0
LINE
  5
5FC
  8
LAYER_01
 10
212.0283744422742
 20
-2.401347966434004
 30
0.0984545733122246
 11
212.4836855724689
 21
-3.428803214112833
 31
0.0984545733122246
  0
LINE
  5
5FD
  8
LAYER_01
 10
212.4836855724689
 20
-3.428803214112833
 30
0.0984545733122246
 11
212.9624312277022
 21
-4.445191797079054
 31
0.0984545733122246
  0
LINE
  5
5FE
  8
LAYER_01
 10
212.9624312277022
 20
-4.445191797079054
 30
0.0984545733122246
 11
213.4646973885634
 21
-5.45080040848278
 31
0.0984545733122246
  0
LINE
  5
5FF
  8
LAYER_01
 10
213.4646973885634
 20
-5.45080040848278
 30
0.0984545733122246
 11
213.9905700356421
 21
-6.445915741474126
 31
0.0984545733122246
  0
LINE
  5
600
  8
LAYER_01
 10
213.9905700356421
 20
-6.445915741474126
 30
0.0984545733122246
 11
214.5401351495277
 21
-7.430824489203203
 31
0.0984545733122246
  0
LINE
  5
601
  8
LAYER_01
 10
214.5401351495277
 20
-7.430824489203203
 30
0.0984545733122246
 11
215.1134787108095
 21
-8.405813344820125
 31
0.0984545733122246
  0
LINE
  5
602
  8
LAYER_01
 10
215.1134787108095
 20
-8.405813344820125
 30
0.0984545733122246
 11
215.7106867000772
 21
-9.371169001475007
 31
0.0984545733122246
  0
LINE
  5
603
  8
LAYER_01
 10
215.7106867000772
 20
-9.371169001475007
 30
0.0984545733122246
 11
216.33184509792
 21
-10.32717815231796
 31
0.0984545733122246
  0
LINE
  5
604
  8
LAYER_01
 10
216.33184509792
 20
-10.32717815231796
 30
0.0984545733122246
 11
216.9770398849274
 21
-11.2741274904991
 31
0.0984545733122246
  0
LINE
  5
605
  8
LAYER_01
 10
216.9770398849274
 20
-11.2741274904991
 30
0.0984545733122246
 11
217.6463570416889
 21
-12.21230370916853
 31
0.0984545733122246
  0
LINE
  5
606
  8
LAYER_01
 10
217.6463570416889
 20
-12.21230370916853
 30
0.0984545733122246
 11
218.3398825487939
 21
-13.14199350147638
 31
0.0984545733122246
  0
LINE
  5
607
  8
LAYER_01
 10
218.3398825487939
 20
-13.14199350147638
 30
0.0984545733122246
 11
218.8958176203174
 21
-13.85621913023948
 31
0.0984545733122246
  0
LINE
  5
608
  8
LAYER_01
 10
218.8958176203174
 20
-13.85621913023948
 30
0.0984545733122246
 11
219.4880480734808
 21
-14.58871529259346
 31
0.0984545733122246
  0
LINE
  5
609
  8
LAYER_01
 10
219.4880480734808
 20
-14.58871529259346
 30
0.0984545733122246
 11
220.7699035428489
 21
-16.09670714700051
 31
0.0984545733122246
  0
LINE
  5
60A
  8
LAYER_01
 10
220.7699035428489
 20
-16.09670714700051
 30
0.0984545733122246
 11
222.1624657931416
 21
-17.64234492255051
 31
0.0984545733122246
  0
LINE
  5
60B
  8
LAYER_01
 10
222.1624657931416
 20
-17.64234492255051
 30
0.0984545733122246
 11
223.6427516606029
 21
-19.20200447709646
 31
0.0984545733122246
  0
LINE
  5
60C
  8
LAYER_01
 10
223.6427516606029
 20
-19.20200447709646
 30
0.0984545733122246
 11
225.1877779814762
 21
-20.75206166849132
 31
0.0984545733122246
  0
LINE
  5
60D
  8
LAYER_01
 10
225.1877779814762
 20
-20.75206166849132
 30
0.0984545733122246
 11
226.7745615920052
 21
-22.26889235458807
 31
0.0984545733122246
  0
LINE
  5
60E
  8
LAYER_01
 10
226.7745615920052
 20
-22.26889235458807
 30
0.0984545733122246
 11
228.3801193284337
 21
-23.7288723932397
 31
0.0984545733122246
  0
LINE
  5
60F
  8
LAYER_01
 10
228.3801193284337
 20
-23.7288723932397
 30
0.0984545733122246
 11
229.9814680270052
 21
-25.10837764229919
 31
0.0984545733122246
  0
LINE
  5
610
  8
LAYER_01
 10
229.9814680270052
 20
-25.10837764229919
 30
0.0984545733122246
 11
231.3302685058866
 21
-26.19679258023937
 31
0.0984545733122246
  0
LINE
  5
611
  8
LAYER_01
 10
231.3302685058866
 20
-26.19679258023937
 30
0.0984545733122246
 11
232.93472134889
 21
-27.42123086902186
 31
0.0984545733122246
  0
LINE
  5
612
  8
LAYER_01
 10
232.93472134889
 20
-27.42123086902186
 30
0.0984545733122246
 11
236.8271768608159
 21
-30.22002635407144
 31
0.0984545733122246
  0
LINE
  5
613
  8
LAYER_01
 10
236.8271768608159
 20
-30.22002635407144
 30
0.0984545733122246
 11
241.492020029889
 21
-33.38846180736331
 31
0.0984545733122246
  0
LINE
  5
614
  8
LAYER_01
 10
241.492020029889
 20
-33.38846180736331
 30
0.0984545733122246
 11
246.7624363232152
 21
-36.81023493881284
 31
0.0984545733122246
  0
LINE
  5
615
  8
LAYER_01
 10
246.7624363232152
 20
-36.81023493881284
 30
0.0984545733122246
 11
248.5832376603608
 21
-37.95979309691641
 31
0.0984545733122246
  0
LINE
  5
616
  8
LAYER_01
 10
248.5832376603608
 20
-37.95979309691641
 30
0.0984545733122246
 11
248.722485250469
 21
-38.04009767272714
 31
0.0984545733122246
  0
LINE
  5
617
  8
LAYER_01
 10
248.722485250469
 20
-38.04009767272714
 30
0.0984545733122246
 11
248.8474380294124
 21
-38.10823592384506
 31
0.0984545733122246
  0
LINE
  5
618
  8
LAYER_01
 10
248.8474380294124
 20
-38.10823592384506
 30
0.0984545733122246
 11
248.9050544048388
 21
-38.13792271374495
 31
0.0984545733122246
  0
LINE
  5
619
  8
LAYER_01
 10
248.9050544048388
 20
-38.13792271374495
 30
0.0984545733122246
 11
248.9596977256437
 21
-38.1647839657925
 31
0.0984545733122246
  0
LINE
  5
61A
  8
LAYER_01
 10
248.9596977256437
 20
-38.1647839657925
 30
0.0984545733122246
 11
249.0115682078838
 21
-38.18889169442802
 31
0.0984545733122246
  0
LINE
  5
61B
  8
LAYER_01
 10
249.0115682078838
 20
-38.18889169442802
 30
0.0984545733122246
 11
249.0608660676157
 21
-38.21031791409178
 31
0.0984545733122246
  0
LINE
  5
61C
  8
LAYER_01
 10
249.0608660676157
 20
-38.21031791409178
 30
0.0984545733122246
 11
249.107791520896
 21
-38.22913463922408
 31
0.0984545733122246
  0
LINE
  5
61D
  8
LAYER_01
 10
249.107791520896
 20
-38.22913463922408
 30
0.0984545733122246
 11
249.1525447837813
 21
-38.2454138842652
 31
0.0984545733122246
  0
LINE
  5
61E
  8
LAYER_01
 10
249.1525447837813
 20
-38.2454138842652
 30
0.0984545733122246
 11
249.1741694113435
 21
-38.25262445626417
 31
0.0984545733122246
  0
LINE
  5
61F
  8
LAYER_01
 10
249.1741694113435
 20
-38.25262445626417
 30
0.0984545733122246
 11
249.1953260723282
 21
-38.25922766365544
 31
0.0984545733122246
  0
LINE
  5
620
  8
LAYER_01
 10
249.1953260723282
 20
-38.25922766365544
 30
0.0984545733122246
 11
249.2160397937424
 21
-38.26523250824407
 31
0.0984545733122246
  0
LINE
  5
621
  8
LAYER_01
 10
249.2160397937424
 20
-38.26523250824407
 30
0.0984545733122246
 11
249.2363356025933
 21
-38.27064799183508
 31
0.0984545733122246
  0
LINE
  5
622
  8
LAYER_01
 10
249.2363356025933
 20
-38.27064799183508
 30
0.0984545733122246
 11
249.2562385258879
 21
-38.27548311623352
 31
0.0984545733122246
  0
LINE
  5
623
  8
LAYER_01
 10
249.2562385258879
 20
-38.27548311623352
 30
0.0984545733122246
 11
249.2757735906332
 21
-38.27974688324441
 31
0.0984545733122246
  0
LINE
  5
624
  8
LAYER_01
 10
249.2757735906332
 20
-38.27974688324441
 30
0.0984545733122246
 11
249.2949658238365
 21
-38.2834482946728
 31
0.0984545733122246
  0
LINE
  5
625
  8
LAYER_01
 10
249.2949658238365
 20
-38.2834482946728
 30
0.0984545733122246
 11
249.3138402525046
 21
-38.28659635232372
 31
0.0984545733122246
  0
LINE
  5
626
  8
LAYER_01
 10
249.3138402525046
 20
-38.28659635232372
 30
0.0984545733122246
 11
249.3324219036447
 21
-38.28920005800221
 31
0.0984545733122246
  0
LINE
  5
627
  8
LAYER_01
 10
249.3324219036447
 20
-38.28920005800221
 30
0.0984545733122246
 11
249.350735804264
 21
-38.29126841351329
 31
0.0984545733122246
  0
LINE
  5
628
  8
LAYER_01
 10
249.350735804264
 20
-38.29126841351329
 30
0.0984545733122246
 11
249.3688069813694
 21
-38.29281042066203
 31
0.0984545733122246
  0
LINE
  5
629
  8
LAYER_01
 10
249.3688069813694
 20
-38.29281042066203
 30
0.0984545733122246
 11
249.386660461968
 21
-38.29383508125343
 31
0.0984545733122246
  0
LINE
  5
62A
  8
LAYER_01
 10
249.386660461968
 20
-38.29383508125343
 30
0.0984545733122246
 11
249.4078323372608
 21
-38.29439441233233
 31
0.0984545733122246
  0
LINE
  5
62B
  8
LAYER_01
 10
249.4078323372608
 20
-38.29439441233233
 30
0.0984545733122246
 11
249.4287696827134
 21
-38.29423722076932
 31
0.0984545733122246
  0
LINE
  5
62C
  8
LAYER_01
 10
249.4287696827134
 20
-38.29423722076932
 30
0.0984545733122246
 11
249.4495157865389
 21
-38.29337908613223
 31
0.0984545733122246
  0
LINE
  5
62D
  8
LAYER_01
 10
249.4495157865389
 20
-38.29337908613223
 30
0.0984545733122246
 11
249.4701139369499
 21
-38.29183558798894
 31
0.0984545733122246
  0
LINE
  5
62E
  8
LAYER_01
 10
249.4701139369499
 20
-38.29183558798894
 30
0.0984545733122246
 11
249.4906074221593
 21
-38.28962230590731
 31
0.0984545733122246
  0
LINE
  5
62F
  8
LAYER_01
 10
249.4906074221593
 20
-38.28962230590731
 30
0.0984545733122246
 11
249.5110395303801
 21
-38.2867548194552
 31
0.0984545733122246
  0
LINE
  5
630
  8
LAYER_01
 10
249.5110395303801
 20
-38.2867548194552
 30
0.0984545733122246
 11
249.531453549825
 21
-38.28324870820045
 31
0.0984545733122246
  0
LINE
  5
631
  8
LAYER_01
 10
249.531453549825
 20
-38.28324870820045
 30
0.0984545733122246
 11
249.5518927687069
 21
-38.27911955171094
 31
0.0984545733122246
  0
LINE
  5
632
  8
LAYER_01
 10
249.5518927687069
 20
-38.27911955171094
 30
0.0984545733122246
 11
249.5724004752387
 21
-38.27438292955452
 31
0.0984545733122246
  0
LINE
  5
633
  8
LAYER_01
 10
249.5724004752387
 20
-38.27438292955452
 30
0.0984545733122246
 11
249.5930199576333
 21
-38.26905442129905
 31
0.0984545733122246
  0
LINE
  5
634
  8
LAYER_01
 10
249.5930199576333
 20
-38.26905442129905
 30
0.0984545733122246
 11
249.6137945041035
 21
-38.26314960651239
 31
0.0984545733122246
  0
LINE
  5
635
  8
LAYER_01
 10
249.6137945041035
 20
-38.26314960651239
 30
0.0984545733122246
 11
249.6347674028621
 21
-38.25668406476239
 31
0.0984545733122246
  0
LINE
  5
636
  8
LAYER_01
 10
249.6347674028621
 20
-38.25668406476239
 30
0.0984545733122246
 11
249.6559819421219
 21
-38.24967337561692
 31
0.0984545733122246
  0
LINE
  5
637
  8
LAYER_01
 10
249.6559819421219
 20
-38.24967337561692
 30
0.0984545733122246
 11
249.677481410096
 21
-38.24213311864384
 31
0.0984545733122246
  0
LINE
  5
638
  8
LAYER_01
 10
249.677481410096
 20
-38.24213311864384
 30
0.0984545733122246
 11
249.7215082850381
 21
-38.22552621948626
 31
0.0984545733122246
  0
LINE
  5
639
  8
LAYER_01
 10
249.7215082850381
 20
-38.22552621948626
 30
0.0984545733122246
 11
249.767194333391
 21
-38.20698800383252
 31
0.0984545733122246
  0
LINE
  5
63A
  8
LAYER_01
 10
249.767194333391
 20
-38.20698800383252
 30
0.0984545733122246
 11
250.1625432064076
 21
-38.03361310196516
 31
0.0984545733122246
  0
LINE
  5
63B
  8
LAYER_01
 10
250.1625432064076
 20
-38.03361310196516
 30
0.0984545733122246
 11
250.5789693192719
 21
-37.83685737768296
 31
0.0984545733122246
  0
LINE
  5
63C
  8
LAYER_01
 10
250.5789693192719
 20
-37.83685737768296
 30
0.0984545733122246
 11
250.9885451120101
 21
-37.6262126708532
 31
0.0984545733122246
  0
LINE
  5
63D
  8
LAYER_01
 10
250.9885451120101
 20
-37.6262126708532
 30
0.0984545733122246
 11
251.3908075107632
 21
-37.401917140222
 31
0.0984545733122246
  0
LINE
  5
63E
  8
LAYER_01
 10
251.3908075107632
 20
-37.401917140222
 30
0.0984545733122246
 11
251.7853017103312
 21
-37.1642243784046
 31
0.0984545733122246
  0
LINE
  5
63F
  8
LAYER_01
 10
251.7853017103312
 20
-37.1642243784046
 30
0.0984545733122246
 11
252.1715816883768
 21
-36.91340312517271
 31
0.0984545733122246
  0
LINE
  5
640
  8
LAYER_01
 10
252.1715816883768
 20
-36.91340312517271
 30
0.0984545733122246
 11
252.5492107097168
 21
-36.64973696360666
 31
0.0984545733122246
  0
LINE
  5
641
  8
LAYER_01
 10
252.5492107097168
 20
-36.64973696360666
 30
0.0984545733122246
 11
252.9177618200926
 21
-36.37352399947716
 31
0.0984545733122246
  0
LINE
  5
642
  8
LAYER_01
 10
252.9177618200926
 20
-36.37352399947716
 30
0.0984545733122246
 11
253.2768183289
 21
-36.08507652419702
 31
0.0984545733122246
  0
LINE
  5
643
  8
LAYER_01
 10
253.2768183289
 20
-36.08507652419702
 30
0.0984545733122246
 11
253.6259742803038
 21
-35.78472066174086
 31
0.0984545733122246
  0
LINE
  5
644
  8
LAYER_01
 10
253.6259742803038
 20
-35.78472066174086
 30
0.0984545733122246
 11
253.9648349122193
 21
-35.47279599992289
 31
0.0984545733122246
  0
LINE
  5
645
  8
LAYER_01
 10
253.9648349122193
 20
-35.47279599992289
 30
0.0984545733122246
 11
254.2930171026386
 21
-35.14965520645235
 31
0.0984545733122246
  0
LINE
  5
646
  8
LAYER_01
 10
254.2930171026386
 20
-35.14965520645235
 30
0.0984545733122246
 11
254.6101498027925
 21
-34.81566363020294
 31
0.0984545733122246
  0
LINE
  5
647
  8
LAYER_01
 10
254.6101498027925
 20
-34.81566363020294
 30
0.0984545733122246
 11
254.9158744566687
 21
-34.47119888813967
 31
0.0984545733122246
  0
LINE
  5
648
  8
LAYER_01
 10
254.9158744566687
 20
-34.47119888813967
 30
0.0984545733122246
 11
255.2098454063996
 21
-34.11665043838027
 31
0.0984545733122246
  0
LINE
  5
649
  8
LAYER_01
 10
255.2098454063996
 20
-34.11665043838027
 30
0.0984545733122246
 11
255.7931920531804
 21
-33.34626909267459
 31
0.0984545733122246
  0
LINE
  5
64A
  8
LAYER_01
 10
255.7931920531804
 20
-33.34626909267459
 30
0.0984545733122246
 11
255.5535392459647
 21
-32.52470422712912
 31
0.0984545733122246
  0
LINE
  5
64B
  8
LAYER_01
 10
255.5535392459647
 20
-32.52470422712912
 30
0.0984545733122246
 11
255.1504786540048
 21
-31.05833127977464
 31
0.0984545733122246
  0
LINE
  5
64C
  8
LAYER_01
 10
255.1504786540048
 20
-31.05833127977464
 30
0.0984545733122246
 11
254.8082453844288
 21
-29.63136163876624
 31
0.0984545733122246
  0
LINE
  5
64D
  8
LAYER_01
 10
254.8082453844288
 20
-29.63136163876624
 30
0.0984545733122246
 11
254.6598531841689
 21
-28.9320549365528
 31
0.0984545733122246
  0
LINE
  5
64E
  8
LAYER_01
 10
254.6598531841689
 20
-28.9320549365528
 30
0.0984545733122246
 11
254.5265648408659
 21
-28.24188131501905
 31
0.0984545733122246
  0
LINE
  5
64F
  8
LAYER_01
 10
254.5265648408659
 20
-28.24188131501905
 30
0.0984545733122246
 11
254.4083460299733
 21
-27.5606015255294
 31
0.0984545733122246
  0
LINE
  5
650
  8
LAYER_01
 10
254.4083460299733
 20
-27.5606015255294
 30
0.0984545733122246
 11
254.3051624269449
 21
-26.88797631944822
 31
0.0984545733122246
  0
LINE
  5
651
  8
LAYER_01
 10
254.3051624269449
 20
-26.88797631944822
 30
0.0984545733122246
 11
254.2169797072343
 21
-26.22376644813992
 31
0.0984545733122246
  0
LINE
  5
652
  8
LAYER_01
 10
254.2169797072343
 20
-26.22376644813992
 30
0.0984545733122246
 11
254.143763546295
 21
-25.56773266296889
 31
0.0984545733122246
  0
LINE
  5
653
  8
LAYER_01
 10
254.143763546295
 20
-25.56773266296889
 30
0.0984545733122246
 11
254.0854796195808
 21
-24.91963571529951
 31
0.0984545733122246
  0
LINE
  5
654
  8
LAYER_01
 10
254.0854796195808
 20
-24.91963571529951
 30
0.0984545733122246
 11
254.0420936025452
 21
-24.27923635649619
 31
0.0984545733122246
  0
LINE
  5
655
  8
LAYER_01
 10
254.0420936025452
 20
-24.27923635649619
 30
0.0984545733122246
 11
254.0135711706419
 21
-23.64629533792331
 31
0.0984545733122246
  0
LINE
  5
656
  8
LAYER_01
 10
254.0135711706419
 20
-23.64629533792331
 30
0.0984545733122246
 11
253.9998779993246
 21
-23.02057341094527
 31
0.0984545733122246
  0
LINE
  5
657
  8
LAYER_01
 10
253.9998779993246
 20
-23.02057341094527
 30
0.0984545733122246
 11
254.0009797640467
 21
-22.40183132692646
 31
0.0984545733122246
  0
LINE
  5
658
  8
LAYER_01
 10
254.0009797640467
 20
-22.40183132692646
 30
0.0984545733122246
 11
254.016842140262
 21
-21.78982983723127
 31
0.0984545733122246
  0
LINE
  5
659
  8
LAYER_01
 10
254.016842140262
 20
-21.78982983723127
 30
0.0984545733122246
 11
254.0596734016532
 21
-20.98507589228497
 31
0.0984545733122246
  0
LINE
  5
65A
  8
LAYER_01
 10
254.0596734016532
 20
-20.98507589228497
 30
0.0984545733122246
 11
254.1258954592656
 21
-20.20980653535191
 31
0.0984545733122246
  0
LINE
  5
65B
  8
LAYER_01
 10
254.1258954592656
 20
-20.20980653535191
 30
0.0984545733122246
 11
254.1679229787113
 21
-19.83284088524912
 31
0.0984545733122246
  0
LINE
  5
65C
  8
LAYER_01
 10
254.1679229787113
 20
-19.83284088524912
 30
0.0984545733122246
 11
254.2159721276802
 21
-19.46278115158018
 31
0.0984545733122246
  0
LINE
  5
65D
  8
LAYER_01
 10
254.2159721276802
 20
-19.46278115158018
 30
0.0984545733122246
 11
254.2701008829949
 21
-19.0994722574886
 31
0.0984545733122246
  0
LINE
  5
65E
  8
LAYER_01
 10
254.2701008829949
 20
-19.0994722574886
 30
0.0984545733122246
 11
254.3303672214781
 21
-18.74275912611791
 31
0.0984545733122246
  0
LINE
  5
65F
  8
LAYER_01
 10
254.3303672214781
 20
-18.74275912611791
 30
0.0984545733122246
 11
254.3968291199523
 21
-18.3924866806116
 31
0.0984545733122246
  0
LINE
  5
660
  8
LAYER_01
 10
254.3968291199523
 20
-18.3924866806116
 30
0.0984545733122246
 11
254.4695445552402
 21
-18.04849984411321
 31
0.0984545733122246
  0
LINE
  5
661
  8
LAYER_01
 10
254.4695445552402
 20
-18.04849984411321
 30
0.0984545733122246
 11
254.5485715041645
 21
-17.71064353976624
 31
0.0984545733122246
  0
LINE
  5
662
  8
LAYER_01
 10
254.5485715041645
 20
-17.71064353976624
 30
0.0984545733122246
 11
254.6339679435477
 21
-17.3787626907142
 31
0.0984545733122246
  0
LINE
  5
663
  8
LAYER_01
 10
254.6339679435477
 20
-17.3787626907142
 30
0.0984545733122246
 11
254.7257918502125
 21
-17.05270222010063
 31
0.0984545733122246
  0
LINE
  5
664
  8
LAYER_01
 10
254.7257918502125
 20
-17.05270222010063
 30
0.0984545733122246
 11
254.8241012009815
 21
-16.73230705106901
 31
0.0984545733122246
  0
LINE
  5
665
  8
LAYER_01
 10
254.8241012009815
 20
-16.73230705106901
 30
0.0984545733122246
 11
254.9289539726773
 21
-16.41742210676288
 31
0.0984545733122246
  0
LINE
  5
666
  8
LAYER_01
 10
254.9289539726773
 20
-16.41742210676288
 30
0.0984545733122246
 11
255.0404081421226
 21
-16.10789231032575
 31
0.0984545733122246
  0
LINE
  5
667
  8
LAYER_01
 10
255.0404081421226
 20
-16.10789231032575
 30
0.0984545733122246
 11
255.1585216861399
 21
-15.80356258490113
 31
0.0984545733122246
  0
LINE
  5
668
  8
LAYER_01
 10
255.1585216861399
 20
-15.80356258490113
 30
0.0984545733122246
 11
255.283352581552
 21
-15.50427785363253
 31
0.0984545733122246
  0
LINE
  5
669
  8
LAYER_01
 10
255.283352581552
 20
-15.50427785363253
 30
0.0984545733122246
 11
255.4149588051814
 21
-15.20988303966347
 31
0.0984545733122246
  0
LINE
  5
66A
  8
LAYER_01
 10
255.4149588051814
 20
-15.20988303966347
 30
0.0984545733122246
 11
255.5533983338508
 21
-14.92022306613747
 31
0.0984545733122246
  0
LINE
  5
66B
  8
LAYER_01
 10
255.5533983338508
 20
-14.92022306613747
 30
0.0984545733122246
 11
255.6987291443828
 21
-14.63514285619804
 31
0.0984545733122246
  0
LINE
  5
66C
  8
LAYER_01
 10
255.6987291443828
 20
-14.63514285619804
 30
0.0984545733122246
 11
255.8510092136
 21
-14.3544873329887
 31
0.0984545733122246
  0
LINE
  5
66D
  8
LAYER_01
 10
255.8510092136
 20
-14.3544873329887
 30
0.0984545733122246
 11
256.010296518325
 21
-14.07810141965295
 31
0.0984545733122246
  0
LINE
  5
66E
  8
LAYER_01
 10
256.010296518325
 20
-14.07810141965295
 30
0.0984545733122246
 11
256.1766490353805
 21
-13.80583003933432
 31
0.0984545733122246
  0
LINE
  5
66F
  8
LAYER_01
 10
256.1766490353805
 20
-13.80583003933432
 30
0.0984545733122246
 11
256.3501247415891
 21
-13.53751811517632
 31
0.0984545733122246
  0
LINE
  5
670
  8
LAYER_01
 10
256.3501247415891
 20
-13.53751811517632
 30
0.0984545733122246
 11
256.5307816137735
 21
-13.27301057032246
 31
0.0984545733122246
  0
LINE
  5
671
  8
LAYER_01
 10
256.5307816137735
 20
-13.27301057032246
 30
0.0984545733122246
 11
256.7186776287562
 21
-13.01215232791626
 31
0.0984545733122246
  0
LINE
  5
672
  8
LAYER_01
 10
256.7186776287562
 20
-13.01215232791626
 30
0.0984545733122246
 11
256.9138707633599
 21
-12.75478831110123
 31
0.0984545733122246
  0
LINE
  5
673
  8
LAYER_01
 10
256.9138707633599
 20
-12.75478831110123
 30
0.0984545733122246
 11
257.1164189944071
 21
-12.50076344302089
 31
0.0984545733122246
  0
LINE
  5
674
  8
LAYER_01
 10
257.1164189944071
 20
-12.50076344302089
 30
0.0984545733122246
 11
257.3263802987207
 21
-12.24992264681875
 31
0.0984545733122246
  0
LINE
  5
675
  8
LAYER_01
 10
257.3263802987207
 20
-12.24992264681875
 30
0.0984545733122246
 11
257.543812653123
 21
-12.00211084563833
 31
0.0984545733122246
  0
LINE
  5
676
  8
LAYER_01
 10
257.543812653123
 20
-12.00211084563833
 30
0.0984545733122246
 11
257.7687740344369
 21
-11.75717296262314
 31
0.0984545733122246
  0
LINE
  5
677
  8
LAYER_01
 10
257.7687740344369
 20
-11.75717296262314
 30
0.0984545733122246
 11
258.0088625368857
 21
-11.50831131816525
 31
0.0984545733122246
  0
LINE
  5
678
  8
LAYER_01
 10
258.0088625368857
 20
-11.50831131816525
 30
0.0984545733122246
 11
258.2559590827293
 21
-11.26553625595442
 31
0.0984545733122246
  0
LINE
  5
679
  8
LAYER_01
 10
258.2559590827293
 20
-11.26553625595442
 30
0.0984545733122246
 11
258.5100860683532
 21
-11.02883778065942
 31
0.0984545733122246
  0
LINE
  5
67A
  8
LAYER_01
 10
258.5100860683532
 20
-11.02883778065942
 30
0.0984545733122246
 11
258.7712658901424
 21
-10.79820589694902
 31
0.0984545733122246
  0
LINE
  5
67B
  8
LAYER_01
 10
258.7712658901424
 20
-10.79820589694902
 30
0.0984545733122246
 11
259.0395209444825
 21
-10.57363060949202
 31
0.0984545733122246
  0
LINE
  5
67C
  8
LAYER_01
 10
259.0395209444825
 20
-10.57363060949202
 30
0.0984545733122246
 11
259.3148736277589
 21
-10.35510192295719
 31
0.0984545733122246
  0
LINE
  5
67D
  8
LAYER_01
 10
259.3148736277589
 20
-10.35510192295719
 30
0.0984545733122246
 11
259.5973463363565
 21
-10.14260984201329
 31
0.0984545733122246
  0
LINE
  5
67E
  8
LAYER_01
 10
259.5973463363565
 20
-10.14260984201329
 30
0.0984545733122246
 11
259.886961466661
 21
-9.936144371329123
 31
0.0984545733122246
  0
LINE
  5
67F
  8
LAYER_01
 10
259.886961466661
 20
-9.936144371329123
 30
0.0984545733122246
 11
260.1837414150575
 21
-9.73569551557345
 31
0.0984545733122246
  0
LINE
  5
680
  8
LAYER_01
 10
260.1837414150575
 20
-9.73569551557345
 30
0.0984545733122246
 11
260.4877085779316
 21
-9.541253279415052
 31
0.0984545733122246
  0
LINE
  5
681
  8
LAYER_01
 10
260.4877085779316
 20
-9.541253279415052
 30
0.0984545733122246
 11
260.7988853516683
 21
-9.352807667522708
 31
0.0984545733122246
  0
LINE
  5
682
  8
LAYER_01
 10
260.7988853516683
 20
-9.352807667522708
 30
0.0984545733122246
 11
261.117294132653
 21
-9.170348684565193
 31
0.0984545733122246
  0
LINE
  5
683
  8
LAYER_01
 10
261.117294132653
 20
-9.170348684565193
 30
0.0984545733122246
 11
261.4429573172712
 21
-8.993866335211283
 31
0.0984545733122246
  0
LINE
  5
684
  8
LAYER_01
 10
261.4429573172712
 20
-8.993866335211283
 30
0.0984545733122246
 11
261.775897301908
 21
-8.823350624129763
 31
0.0984545733122246
  0
LINE
  5
685
  8
LAYER_01
 10
261.775897301908
 20
-8.823350624129763
 30
0.0984545733122246
 11
262.1161364829489
 21
-8.658791555989405
 31
0.0984545733122246
  0
LINE
  5
686
  8
LAYER_01
 10
262.1161364829489
 20
-8.658791555989405
 30
0.0984545733122246
 11
262.4636972567791
 21
-8.500179135458986
 31
0.0984545733122246
  0
LINE
  5
687
  8
LAYER_01
 10
262.4636972567791
 20
-8.500179135458986
 30
0.0984545733122246
 11
262.818602019784
 21
-8.347503367207285
 31
0.0984545733122246
  0
LINE
  5
688
  8
LAYER_01
 10
262.818602019784
 20
-8.347503367207285
 30
0.0984545733122246
 11
263.1808731683489
 21
-8.200754255903076
 31
0.0984545733122246
  0
LINE
  5
689
  8
LAYER_01
 10
263.1808731683489
 20
-8.200754255903076
 30
0.0984545733122246
 11
263.5505330988591
 21
-8.05992180621514
 31
0.0984545733122246
  0
LINE
  5
68A
  8
LAYER_01
 10
263.5505330988591
 20
-8.05992180621514
 30
0.0984545733122246
 11
263.9276042077
 21
-7.924996022812255
 31
0.0984545733122246
  0
LINE
  5
68B
  8
LAYER_01
 10
263.9276042077
 20
-7.924996022812255
 30
0.0984545733122246
 11
264.3121088912568
 21
-7.795966910363196
 31
0.0984545733122246
  0
LINE
  5
68C
  8
LAYER_01
 10
264.3121088912568
 20
-7.795966910363196
 30
0.0984545733122246
 11
264.7040695459149
 21
-7.672824473536741
 31
0.0984545733122246
  0
LINE
  5
68D
  8
LAYER_01
 10
264.7040695459149
 20
-7.672824473536741
 30
0.0984545733122246
 11
265.1035085680596
 21
-7.555558717001666
 31
0.0984545733122246
  0
LINE
  5
68E
  8
LAYER_01
 10
265.1035085680596
 20
-7.555558717001666
 30
0.0984545733122246
 11
265.5104483540762
 21
-7.444159645426753
 31
0.0984545733122246
  0
LINE
  5
68F
  8
LAYER_01
 10
265.5104483540762
 20
-7.444159645426753
 30
0.0984545733122246
 11
266.3469198032666
 21
-7.23892157583251
 31
0.0984545733122246
  0
LINE
  5
690
  8
LAYER_01
 10
266.3469198032666
 20
-7.23892157583251
 30
0.0984545733122246
 11
267.2136630645684
 21
-7.057030302104232
 31
0.0984545733122246
  0
LINE
  5
691
  8
LAYER_01
 10
267.2136630645684
 20
-7.057030302104232
 30
0.0984545733122246
 11
268.1108573090646
 21
-6.898405861592137
 31
0.0984545733122246
  0
LINE
  5
692
  8
LAYER_01
 10
268.1108573090646
 20
-6.898405861592137
 30
0.0984545733122246
 11
269.0386817078373
 21
-6.762968291646445
 31
0.0984545733122246
  0
LINE
  5
693
  8
LAYER_01
 10
269.0386817078373
 20
-6.762968291646445
 30
0.0984545733122246
 11
269.1975735664923
 21
-6.744515909413225
 31
0.0984545733122246
  0
LINE
  5
694
  8
LAYER_01
 10
269.1975735664923
 20
-6.744515909413225
 30
0.0984545733122246
 11
269.3829484495235
 21
-6.727260450211876
 31
0.0984545733122246
  0
LINE
  5
695
  8
LAYER_01
 10
269.3829484495235
 20
-6.727260450211876
 30
0.0984545733122246
 11
269.8260701861168
 21
-6.69633837794091
 31
0.0984545733122246
  0
LINE
  5
696
  8
LAYER_01
 10
269.8260701861168
 20
-6.69633837794091
 30
0.0984545733122246
 11
270.9522618232463
 21
-6.648836157178806
 31
0.0984545733122246
  0
LINE
  5
697
  8
LAYER_01
 10
270.9522618232463
 20
-6.648836157178806
 30
0.0984545733122246
 11
273.7681200078288
 21
-6.611091724797035
 31
0.0984545733122246
  0
LINE
  5
698
  8
LAYER_01
 10
273.7681200078288
 20
-6.611091724797035
 30
0.0984545733122246
 11
273.9252980378149
 21
-7.012165376044215
 31
0.0984545733122246
  0
LINE
  5
699
  8
LAYER_01
 10
273.9252980378149
 20
-7.012165376044215
 30
0.0984545733122246
 11
274.0839379798331
 21
-7.39434662566249
 31
0.0984545733122246
  0
LINE
  5
69A
  8
LAYER_01
 10
274.0839379798331
 20
-7.39434662566249
 30
0.0984545733122246
 11
274.2435516657417
 21
-7.758559915144035
 31
0.0984545733122246
  0
LINE
  5
69B
  8
LAYER_01
 10
274.2435516657417
 20
-7.758559915144035
 30
0.0984545733122246
 11
274.4036509273991
 21
-8.105729685981022
 31
0.0984545733122246
  0
LINE
  5
69C
  8
LAYER_01
 10
274.4036509273991
 20
-8.105729685981022
 30
0.0984545733122246
 11
274.7233535053929
 21
-8.752636437690011
 31
0.0984545733122246
  0
LINE
  5
69D
  8
LAYER_01
 10
274.7233535053929
 20
-8.752636437690011
 30
0.0984545733122246
 11
275.0391403686805
 21
-9.342462412726844
 31
0.0984545733122246
  0
LINE
  5
69E
  8
LAYER_01
 10
275.0391403686805
 20
-9.342462412726844
 30
0.0984545733122246
 11
275.3471061721283
 21
-9.882603143028907
 31
0.0984545733122246
  0
LINE
  5
69F
  8
LAYER_01
 10
275.3471061721283
 20
-9.882603143028907
 30
0.0984545733122246
 11
276.1850237720935
 21
-11.27886918490032
 31
0.0984545733122246
  0
LINE
  5
6A0
  8
LAYER_01
 10
276.1850237720935
 20
-11.27886918490032
 30
0.0984545733122246
 11
276.422651884843
 21
-11.69422425563715
 31
0.0984545733122246
  0
LINE
  5
6A1
  8
LAYER_01
 10
276.422651884843
 20
-11.69422425563715
 30
0.0984545733122246
 11
276.5314546057227
 21
-11.89667422586654
 31
0.0984545733122246
  0
LINE
  5
6A2
  8
LAYER_01
 10
276.5314546057227
 20
-11.89667422586654
 30
0.0984545733122246
 11
276.6329322120835
 21
-12.09687174132614
 31
0.0984545733122246
  0
LINE
  5
6A3
  8
LAYER_01
 10
276.6329322120835
 20
-12.09687174132614
 30
0.0984545733122246
 11
276.7265965357834
 21
-12.29574124350812
 31
0.0984545733122246
  0
LINE
  5
6A4
  8
LAYER_01
 10
276.7265965357834
 20
-12.29574124350812
 30
0.0984545733122246
 11
276.7703461640913
 21
-12.39496687758631
 31
0.0984545733122246
  0
LINE
  5
6A5
  8
LAYER_01
 10
276.7703461640913
 20
-12.39496687758631
 30
0.0984545733122246
 11
276.8119594086809
 21
-12.49420717390466
 31
0.0984545733122246
  0
LINE
  5
6A6
  8
LAYER_01
 10
276.8119594086809
 20
-12.49420717390466
 30
0.0984545733122246
 11
276.8513752485344
 21
-12.59357768764969
 31
0.0984545733122246
  0
LINE
  5
6A7
  8
LAYER_01
 10
276.8513752485344
 20
-12.59357768764969
 30
0.0984545733122246
 11
276.8885326626341
 21
-12.69319397400793
 31
0.0984545733122246
  0
LINE
  5
6A8
  8
LAYER_01
 10
276.8885326626341
 20
-12.69319397400793
 30
0.0984545733122246
 11
276.9233706299624
 21
-12.79317158816589
 31
0.0984545733122246
  0
LINE
  5
6A9
  8
LAYER_01
 10
276.9233706299624
 20
-12.79317158816589
 30
0.0984545733122246
 11
276.9558281295015
 21
-12.89362608531011
 31
0.0984545733122246
  0
LINE
  5
6AA
  8
LAYER_01
 10
276.9558281295015
 20
-12.89362608531011
 30
0.0984545733122246
 11
276.9858441402337
 21
-12.99467302062709
 31
0.0984545733122246
  0
LINE
  5
6AB
  8
LAYER_01
 10
276.9858441402337
 20
-12.99467302062709
 30
0.0984545733122246
 11
277.0133576411411
 21
-13.09642794930336
 31
0.0984545733122246
  0
LINE
  5
6AC
  8
LAYER_01
 10
277.0133576411411
 20
-13.09642794930336
 30
0.0984545733122246
 11
277.0383076112063
 21
-13.19900642652544
 31
0.0984545733122246
  0
LINE
  5
6AD
  8
LAYER_01
 10
277.0383076112063
 20
-13.19900642652544
 30
0.0984545733122246
 11
277.0606330294113
 21
-13.30252400747986
 31
0.0984545733122246
  0
LINE
  5
6AE
  8
LAYER_01
 10
277.0606330294113
 20
-13.30252400747986
 30
0.0984545733122246
 11
277.0802728747387
 21
-13.40709624735313
 31
0.0984545733122246
  0
LINE
  5
6AF
  8
LAYER_01
 10
277.0802728747387
 20
-13.40709624735313
 30
0.0984545733122246
 11
277.0971661261705
 21
-13.51283870133179
 31
0.0984545733122246
  0
LINE
  5
6B0
  8
LAYER_01
 10
277.0971661261705
 20
-13.51283870133179
 30
0.0984545733122246
 11
277.1112517626891
 21
-13.61986692460234
 31
0.0984545733122246
  0
LINE
  5
6B1
  8
LAYER_01
 10
277.1112517626891
 20
-13.61986692460234
 30
0.0984545733122246
 11
277.1224687632767
 21
-13.72829647235131
 31
0.0984545733122246
  0
LINE
  5
6B2
  8
LAYER_01
 10
277.1224687632767
 20
-13.72829647235131
 30
0.0984545733122246
 11
277.1307561069158
 21
-13.83824289976522
 31
0.0984545733122246
  0
LINE
  5
6B3
  8
LAYER_01
 10
277.1307561069158
 20
-13.83824289976522
 30
0.0984545733122246
 11
277.1360527725884
 21
-13.9498217620306
 31
0.0984545733122246
  0
LINE
  5
6B4
  8
LAYER_01
 10
277.1360527725884
 20
-13.9498217620306
 30
0.0984545733122246
 11
277.1382977392769
 21
-14.06314861433397
 31
0.0984545733122246
  0
LINE
  5
6B5
  8
LAYER_01
 10
277.1382977392769
 20
-14.06314861433397
 30
0.0984545733122246
 11
277.1374299859637
 21
-14.17833901186184
 31
0.0984545733122246
  0
LINE
  5
6B6
  8
LAYER_01
 10
277.1374299859637
 20
-14.17833901186184
 30
0.0984545733122246
 11
277.133388491631
 21
-14.29550850980074
 31
0.0984545733122246
  0
LINE
  5
6B7
  8
LAYER_01
 10
277.133388491631
 20
-14.29550850980074
 30
0.0984545733122246
 11
277.126112235261
 21
-14.41477266333719
 31
0.0984545733122246
  0
LINE
  5
6B8
  8
LAYER_01
 10
277.126112235261
 20
-14.41477266333719
 30
0.0984545733122246
 11
277.115540195836
 21
-14.53624702765771
 31
0.0984545733122246
  0
LINE
  5
6B9
  8
LAYER_01
 10
277.115540195836
 20
-14.53624702765771
 30
0.0984545733122246
 11
277.1016113523384
 21
-14.66004715794883
 31
0.0984545733122246
  0
LINE
  5
6BA
  8
LAYER_01
 10
277.1016113523384
 20
-14.66004715794883
 30
0.0984545733122246
 11
277.0842917016753
 21
-14.78626498509105
 31
0.0984545733122246
  0
LINE
  5
6BB
  8
LAYER_01
 10
277.0842917016753
 20
-14.78626498509105
 30
0.0984545733122246
 11
277.0636553124531
 21
-14.91489794274086
 31
0.0984545733122246
  0
LINE
  5
6BC
  8
LAYER_01
 10
277.0636553124531
 20
-14.91489794274086
 30
0.0984545733122246
 11
277.0398032712034
 21
-15.04591984024873
 31
0.0984545733122246
  0
LINE
  5
6BD
  8
LAYER_01
 10
277.0398032712034
 20
-15.04591984024873
 30
0.0984545733122246
 11
277.0128366644576
 21
-15.17930448696514
 31
0.0984545733122246
  0
LINE
  5
6BE
  8
LAYER_01
 10
277.0128366644576
 20
-15.17930448696514
 30
0.0984545733122246
 11
276.9499641006028
 21
-15.45305726542542
 31
0.0984545733122246
  0
LINE
  5
6BF
  8
LAYER_01
 10
276.9499641006028
 20
-15.45305726542542
 30
0.0984545733122246
 11
276.87584631314
 21
-15.73594675292549
 31
0.0984545733122246
  0
LINE
  5
6C0
  8
LAYER_01
 10
276.87584631314
 20
-15.73594675292549
 30
0.0984545733122246
 11
276.7912919943202
 21
-16.02776342426911
 31
0.0984545733122246
  0
LINE
  5
6C1
  8
LAYER_01
 10
276.7912919943202
 20
-16.02776342426911
 30
0.0984545733122246
 11
276.6971098363947
 21
-16.32829775426007
 31
0.0984545733122246
  0
LINE
  5
6C2
  8
LAYER_01
 10
276.6971098363947
 20
-16.32829775426007
 30
0.0984545733122246
 11
276.4830967722311
 21
-16.9546812893991
 31
0.0984545733122246
  0
LINE
  5
6C3
  8
LAYER_01
 10
276.4830967722311
 20
-16.9546812893991
 30
0.0984545733122246
 11
274.8205041799828
 21
-21.33379842221728
 31
0.0984545733122246
  0
LINE
  5
6C4
  8
LAYER_01
 10
274.8205041799828
 20
-21.33379842221728
 30
0.0984545733122246
 11
274.5407020681498
 21
-22.15147605003281
 31
0.0984545733122246
  0
LINE
  5
6C5
  8
LAYER_01
 10
274.5407020681498
 20
-22.15147605003281
 30
0.0984545733122246
 11
274.2773796729726
 21
-22.98977659909434
 31
0.0984545733122246
  0
LINE
  5
6C6
  8
LAYER_01
 10
274.2773796729726
 20
-22.98977659909434
 30
0.0984545733122246
 11
274.0370065324603
 21
-23.84702386783205
 31
0.0984545733122246
  0
LINE
  5
6C7
  8
LAYER_01
 10
274.0370065324603
 20
-23.84702386783205
 30
0.0984545733122246
 11
273.9274476633313
 21
-24.28222870908892
 31
0.0984545733122246
  0
LINE
  5
6C8
  8
LAYER_01
 10
273.9274476633313
 20
-24.28222870908892
 30
0.0984545733122246
 11
273.8260521846221
 21
-24.72154165467615
 31
0.0984545733122246
  0
LINE
  5
6C9
  8
LAYER_01
 10
273.8260521846221
 20
-24.72154165467615
 30
0.0984545733122246
 11
273.7336287885837
 21
-25.16475317939753
 31
0.0984545733122246
  0
LINE
  5
6CA
  8
LAYER_01
 10
273.7336287885837
 20
-25.16475317939753
 30
0.0984545733122246
 11
273.6509861674673
 21
-25.61165375805683
 31
0.0984545733122246
  0
LINE
  5
6CB
  8
LAYER_01
 10
273.6509861674673
 20
-25.61165375805683
 30
0.0984545733122246
 11
273.5789330135241
 21
-26.06203386545783
 31
0.0984545733122246
  0
LINE
  5
6CC
  8
LAYER_01
 10
273.5789330135241
 20
-26.06203386545783
 30
0.0984545733122246
 11
273.5182780190051
 21
-26.51568397640429
 31
0.0984545733122246
  0
LINE
  5
6CD
  8
LAYER_01
 10
273.5182780190051
 20
-26.51568397640429
 30
0.0984545733122246
 11
273.4698298817734
 21
-26.97224942441808
 31
0.0984545733122246
  0
LINE
  5
6CE
  8
LAYER_01
 10
273.4698298817734
 20
-26.97224942441808
 30
0.0984545733122246
 11
273.4343973221385
 21
-27.43079497789334
 31
0.0984545733122246
  0
LINE
  5
6CF
  8
LAYER_01
 10
273.4343973221385
 20
-27.43079497789334
 30
0.0984545733122246
 11
273.4127890660219
 21
-27.89024026394232
 31
0.0984545733122246
  0
LINE
  5
6D0
  8
LAYER_01
 10
273.4127890660219
 20
-27.89024026394232
 30
0.0984545733122246
 11
273.4058138393449
 21
-28.34950490967725
 31
0.0984545733122246
  0
LINE
  5
6D1
  8
LAYER_01
 10
273.4058138393449
 20
-28.34950490967725
 30
0.0984545733122246
 11
273.4142803680288
 21
-28.80750854221038
 31
0.0984545733122246
  0
LINE
  5
6D2
  8
LAYER_01
 10
273.4142803680288
 20
-28.80750854221038
 30
0.0984545733122246
 11
273.4245570174816
 21
-29.03569986199884
 31
0.0984545733122246
  0
LINE
  5
6D3
  8
LAYER_01
 10
273.4245570174816
 20
-29.03569986199884
 30
0.0984545733122246
 11
273.4389973779952
 21
-29.26317078865394
 31
0.0984545733122246
  0
LINE
  5
6D4
  8
LAYER_01
 10
273.4389973779952
 20
-29.26317078865394
 30
0.0984545733122246
 11
273.4577025403097
 21
-29.4897862755647
 31
0.0984545733122246
  0
LINE
  5
6D5
  8
LAYER_01
 10
273.4577025403097
 20
-29.4897862755647
 30
0.0984545733122246
 11
273.4807735951653
 21
-29.71541127612016
 31
0.0984545733122246
  0
LINE
  5
6D6
  8
LAYER_01
 10
273.4807735951653
 20
-29.71541127612016
 30
0.0984545733122246
 11
273.5083116333021
 21
-29.93991074370935
 31
0.0984545733122246
  0
LINE
  5
6D7
  8
LAYER_01
 10
273.5083116333021
 20
-29.93991074370935
 30
0.0984545733122246
 11
273.5404177454604
 21
-30.1631496317213
 31
0.0984545733122246
  0
LINE
  5
6D8
  8
LAYER_01
 10
273.5404177454604
 20
-30.1631496317213
 30
0.0984545733122246
 11
273.5771930223804
 21
-30.38499289354503
 31
0.0984545733122246
  0
LINE
  5
6D9
  8
LAYER_01
 10
273.5771930223804
 20
-30.38499289354503
 30
0.0984545733122246
 11
273.6187385548021
 21
-30.60530548256957
 31
0.0984545733122246
  0
LINE
  5
6DA
  8
LAYER_01
 10
273.6187385548021
 20
-30.60530548256957
 30
0.0984545733122246
 11
273.6651554334659
 21
-30.82395235218396
 31
0.0984545733122246
  0
LINE
  5
6DB
  8
LAYER_01
 10
273.6651554334659
 20
-30.82395235218396
 30
0.0984545733122246
 11
273.7165447491117
 21
-31.04079845577722
 31
0.0984545733122246
  0
LINE
  5
6DC
  8
LAYER_01
 10
273.7165447491117
 20
-31.04079845577722
 30
0.0984545733122246
 11
273.7730075924799
 21
-31.25570874673839
 31
0.0984545733122246
  0
LINE
  5
6DD
  8
LAYER_01
 10
273.7730075924799
 20
-31.25570874673839
 30
0.0984545733122246
 11
273.8346450543106
 21
-31.46854817845649
 31
0.0984545733122246
  0
LINE
  5
6DE
  8
LAYER_01
 10
273.8346450543106
 20
-31.46854817845649
 30
0.0984545733122246
 11
273.901558225344
 21
-31.67918170432056
 31
0.0984545733122246
  0
LINE
  5
6DF
  8
LAYER_01
 10
273.901558225344
 20
-31.67918170432056
 30
0.0984545733122246
 11
273.9738481963201
 21
-31.88747427771962
 31
0.0984545733122246
  0
LINE
  5
6E0
  8
LAYER_01
 10
273.9738481963201
 20
-31.88747427771962
 30
0.0984545733122246
 11
274.0516160579793
 21
-32.09329085204271
 31
0.0984545733122246
  0
LINE
  5
6E1
  8
LAYER_01
 10
274.0516160579793
 20
-32.09329085204271
 30
0.0984545733122246
 11
274.1349629010617
 21
-32.29649638067884
 31
0.0984545733122246
  0
LINE
  5
6E2
  8
LAYER_01
 10
274.1349629010617
 20
-32.29649638067884
 30
0.0984545733122246
 11
274.2239898163074
 21
-32.49695581701705
 31
0.0984545733122246
  0
LINE
  5
6E3
  8
LAYER_01
 10
274.2239898163074
 20
-32.49695581701705
 30
0.0984545733122246
 11
274.3187978944567
 21
-32.69453411444638
 31
0.0984545733122246
  0
LINE
  5
6E4
  8
LAYER_01
 10
274.3187978944567
 20
-32.69453411444638
 30
0.0984545733122246
 11
274.4194882262497
 21
-32.88909622635586
 31
0.0984545733122246
  0
LINE
  5
6E5
  8
LAYER_01
 10
274.4194882262497
 20
-32.88909622635586
 30
0.0984545733122246
 11
274.5261619024264
 21
-33.0805071061345
 31
0.0984545733122246
  0
LINE
  5
6E6
  8
LAYER_01
 10
274.5261619024264
 20
-33.0805071061345
 30
0.0984545733122246
 11
274.6389200137273
 21
-33.26863170717134
 31
0.0984545733122246
  0
LINE
  5
6E7
  8
LAYER_01
 10
274.6389200137273
 20
-33.26863170717134
 30
0.0984545733122246
 11
274.7578636508923
 21
-33.45333498285542
 31
0.0984545733122246
  0
LINE
  5
6E8
  8
LAYER_01
 10
274.7578636508923
 20
-33.45333498285542
 30
0.0984545733122246
 11
274.8830939046618
 21
-33.63448188657576
 31
0.0984545733122246
  0
LINE
  5
6E9
  8
LAYER_01
 10
274.8830939046618
 20
-33.63448188657576
 30
0.0984545733122246
 11
275.0147118657758
 21
-33.81193737172138
 31
0.0984545733122246
  0
LINE
  5
6EA
  8
LAYER_01
 10
275.0147118657758
 20
-33.81193737172138
 30
0.0984545733122246
 11
275.1528186249745
 21
-33.98556639168133
 31
0.0984545733122246
  0
LINE
  5
6EB
  8
LAYER_01
 10
275.1528186249745
 20
-33.98556639168133
 30
0.0984545733122246
 11
275.2975152729982
 21
-34.15523389984462
 31
0.0984545733122246
  0
LINE
  5
6EC
  8
LAYER_01
 10
275.2975152729982
 20
-34.15523389984462
 30
0.0984545733122246
 11
275.4489029005869
 21
-34.32080484960031
 31
0.0984545733122246
  0
LINE
  5
6ED
  8
LAYER_01
 10
275.4489029005869
 20
-34.32080484960031
 30
0.0984545733122246
 11
275.5271374225745
 21
-34.40201191300936
 31
0.0984545733122246
  0
LINE
  5
6EE
  8
LAYER_01
 10
275.5271374225745
 20
-34.40201191300936
 30
0.0984545733122246
 11
275.6070825984809
 21
-34.48214419433739
 31
0.0984545733122246
  0
LINE
  5
6EF
  8
LAYER_01
 10
275.6070825984809
 20
-34.48214419433739
 30
0.0984545733122246
 11
275.6887510646486
 21
-34.56118481275803
 31
0.0984545733122246
  0
LINE
  5
6F0
  8
LAYER_01
 10
275.6887510646486
 20
-34.56118481275803
 30
0.0984545733122246
 11
275.7721554574203
 21
-34.63911688744491
 31
0.0984545733122246
  0
LINE
  5
6F1
  8
LAYER_01
 10
275.7721554574203
 20
-34.63911688744491
 30
0.0984545733122246
 11
275.8573084131384
 21
-34.71592353757165
 31
0.0984545733122246
  0
LINE
  5
6F2
  8
LAYER_01
 10
275.8573084131384
 20
-34.71592353757165
 30
0.0984545733122246
 11
275.9442225681453
 21
-34.7915878823119
 31
0.0984545733122246
  0
LINE
  5
6F3
  8
LAYER_01
 10
275.9442225681453
 20
-34.7915878823119
 30
0.0984545733122246
 11
276.0329105587837
 21
-34.86609304083927
 31
0.0984545733122246
  0
LINE
  5
6F4
  8
LAYER_01
 10
276.0329105587837
 20
-34.86609304083927
 30
0.0984545733122246
 11
276.123385021396
 21
-34.93942213232739
 31
0.0984545733122246
  0
LINE
  5
6F5
  8
LAYER_01
 10
276.123385021396
 20
-34.93942213232739
 30
0.0984545733122246
 11
276.2156585923249
 21
-35.01155827594989
 31
0.0984545733122246
  0
LINE
  5
6F6
  8
LAYER_01
 10
276.2156585923249
 20
-35.01155827594989
 30
0.0984545733122246
 11
276.3097439079127
 21
-35.08248459088041
 31
0.0984545733122246
  0
LINE
  5
6F7
  8
LAYER_01
 10
276.3097439079127
 20
-35.08248459088041
 30
0.0984545733122246
 11
276.4056536045022
 21
-35.15218419629257
 31
0.0984545733122246
  0
LINE
  5
6F8
  8
LAYER_01
 10
276.4056536045022
 20
-35.15218419629257
 30
0.0984545733122246
 11
276.5034003184355
 21
-35.22064021135998
 31
0.0984545733122246
  0
LINE
  5
6F9
  8
LAYER_01
 10
276.5034003184355
 20
-35.22064021135998
 30
0.0984545733122246
 11
276.7044553437046
 21
-35.35375394715514
 31
0.0984545733122246
  0
LINE
  5
6FA
  8
LAYER_01
 10
276.7044553437046
 20
-35.35375394715514
 30
0.0984545733122246
 11
276.9130100744602
 21
-35.48169075165492
 31
0.0984545733122246
  0
LINE
  5
6FB
  8
LAYER_01
 10
276.9130100744602
 20
-35.48169075165492
 30
0.0984545733122246
 11
277.1291656014424
 21
-35.60431557824835
 31
0.0984545733122246
  0
LINE
  5
6FC
  8
LAYER_01
 10
277.1291656014424
 20
-35.60431557824835
 30
0.0984545733122246
 11
277.3530230153913
 21
-35.72149338032445
 31
0.0984545733122246
  0
LINE
  5
6FD
  8
LAYER_01
 10
277.3530230153913
 20
-35.72149338032445
 30
0.0984545733122246
 11
277.5846834070474
 21
-35.83308911127225
 31
0.0984545733122246
  0
LINE
  5
6FE
  8
LAYER_01
 10
277.5846834070474
 20
-35.83308911127225
 30
0.0984545733122246
 11
277.8242478671505
 21
-35.93896772448079
 31
0.0984545733122246
  0
LINE
  5
6FF
  8
LAYER_01
 10
277.8242478671505
 20
-35.93896772448079
 30
0.0984545733122246
 11
278.0718174864409
 21
-36.03899417333909
 31
0.0984545733122246
  0
LINE
  5
700
  8
LAYER_01
 10
278.0718174864409
 20
-36.03899417333909
 30
0.0984545733122246
 11
278.3274933556588
 21
-36.1330334112362
 31
0.0984545733122246
  0
LINE
  5
701
  8
LAYER_01
 10
278.3274933556588
 20
-36.1330334112362
 30
0.0984545733122246
 11
278.5913765655444
 21
-36.22095039156113
 31
0.0984545733122246
  0
LINE
  5
702
  8
LAYER_01
 10
278.5913765655444
 20
-36.22095039156113
 30
0.0984545733122246
 11
278.8635682068378
 21
-36.3026100677029
 31
0.0984545733122246
  0
LINE
  5
703
  8
LAYER_01
 10
278.8635682068378
 20
-36.3026100677029
 30
0.0984545733122246
 11
279.1441693702792
 21
-36.37787739305057
 31
0.0984545733122246
  0
LINE
  5
704
  8
LAYER_01
 10
279.1441693702792
 20
-36.37787739305057
 30
0.0984545733122246
 11
279.4332811466088
 21
-36.44661732099315
 31
0.0984545733122246
  0
LINE
  5
705
  8
LAYER_01
 10
279.4332811466088
 20
-36.44661732099315
 30
0.0984545733122246
 11
279.7310046265667
 21
-36.50869480491967
 31
0.0984545733122246
  0
LINE
  5
706
  8
LAYER_01
 10
279.7310046265667
 20
-36.50869480491967
 30
0.0984545733122246
 11
280.0374409008932
 21
-36.56397479821916
 31
0.0984545733122246
  0
LINE
  5
707
  8
LAYER_01
 10
280.0374409008932
 20
-36.56397479821916
 30
0.0984545733122246
 11
280.3526910603284
 21
-36.61232225428066
 31
0.0984545733122246
  0
LINE
  5
708
  8
LAYER_01
 10
280.3526910603284
 20
-36.61232225428066
 30
0.0984545733122246
 11
280.6768561956125
 21
-36.65360212649319
 31
0.0984545733122246
  0
LINE
  5
709
  8
LAYER_01
 10
280.6768561956125
 20
-36.65360212649319
 30
0.0984545733122246
 11
281.0100373974856
 21
-36.68767936824578
 31
0.0984545733122246
  0
LINE
  5
70A
  8
LAYER_01
 10
281.0100373974856
 20
-36.68767936824578
 30
0.0984545733122246
 11
281.3523357566879
 21
-36.71441893292747
 31
0.0984545733122246
  0
LINE
  5
70B
  8
LAYER_01
 10
281.3523357566879
 20
-36.71441893292747
 30
0.0984545733122246
 11
281.7038523639595
 21
-36.73368577392727
 31
0.0984545733122246
  0
LINE
  5
70C
  8
LAYER_01
 10
281.7038523639595
 20
-36.73368577392727
 30
0.0984545733122246
 11
282.0646883100408
 21
-36.74534484463422
 31
0.0984545733122246
  0
LINE
  5
70D
  8
LAYER_01
 10
282.0646883100408
 20
-36.74534484463422
 30
0.0984545733122246
 11
282.4349446856717
 21
-36.74926109843735
 31
0.0984545733122246
  0
LINE
  5
70E
  8
LAYER_01
 10
282.4349446856717
 20
-36.74926109843735
 30
0.0984545733122246
 11
282.1576009356718
 21
-17.6536193247786
 31
0.0984545733122246
  0
LINE
  5
70F
  8
LAYER_01
 10
282.1576009356718
 20
-17.6536193247786
 30
0.0984545733122246
 11
281.8153157794218
 21
-9.99725407415056
 31
0.0984545733122246
  0
LINE
  5
710
  8
LAYER_01
 10
281.8153157794218
 20
-9.99725407415056
 30
0.0984545733122246
 11
281.3411946856718
 21
-3.223774691252392
 31
0.0984545733122246
  0
LINE
  5
711
  8
LAYER_01
 10
281.3411946856718
 20
-3.223774691252392
 30
0.0984545733122246
 11
280.7381673419218
 21
2.950382241219176
 31
0.0984545733122246
  0
LINE
  5
712
  8
LAYER_01
 10
280.7381673419218
 20
2.950382241219176
 30
0.0984545733122246
 11
280.0091634356718
 21
8.808780140567414
 31
0.0984545733122246
  0
LINE
  5
713
  8
LAYER_01
 10
280.0091634356718
 20
8.808780140567414
 30
0.0984545733122246
 11
277.7251015617894
 21
23.50661950871782
 31
0.0984545733122246
  0
LINE
  5
714
  8
LAYER_01
 10
277.7251015617894
 20
23.50661950871782
 30
0.0984545733122246
 11
272.9486158946247
 21
23.50661950871782
 31
0.0984545733122246
  0
LINE
  5
715
  8
LAYER_01
 10
272.9486158946247
 20
23.50661950871782
 30
0.0984545733122246
 11
272.9486158946247
 21
26.50661950871782
 31
0.0984545733122246
  0
LINE
  5
716
  8
LAYER_01
 10
272.9486158946247
 20
26.50661950871782
 30
0.0984545733122246
 11
277.2286695358883
 21
26.50661950871827
 31
0.0984545733122246
  0
LINE
  5
717
  8
LAYER_01
 10
277.2286695358883
 20
26.50661950871827
 30
0.0984545733122246
 11
272.8348613617235
 21
54.46066454176622
 31
0.0984545733122246
  0
LINE
  5
718
  8
LAYER_01
 10
272.8348613617235
 20
54.46066454176622
 30
0.0984545733122246
 11
269.0720706456782
 21
82.50661950871779
 31
0.0984545733122246
  0
LINE
  5
719
  8
LAYER_01
 10
269.0720706456782
 20
82.50661950871779
 30
0.0984545733122246
 11
261.9666529548882
 21
82.50661950871782
 31
0.0984545733122246
  0
LINE
  5
71A
  8
LAYER_01
 10
261.9666529548882
 20
82.50661950871782
 30
0.0984545733122246
 11
261.9666529548882
 21
85.50661950871782
 31
0.0984545733122246
  0
LINE
  5
71B
  8
LAYER_01
 10
261.9666529548882
 20
85.50661950871782
 30
0.0984545733122246
 11
268.7032955255398
 21
85.50661950871782
 31
0.0984545733122246
  0
LINE
  5
71C
  8
LAYER_01
 10
268.7032955255398
 20
85.50661950871782
 30
0.0984545733122246
 11
266.4349446856718
 21
105.0066195087178
 31
0.0984545733122246
  0
CIRCLE
  5
71D
  8
LAYER_01
 10
407.033162274892
 20
52.88858338914955
 30
0.0000000000000426
 40
6.898497984920326
  0
ARC
  5
71E
  8
LAYER_01
 10
407.0331622748889
 20
52.88858338915045
 30
0.000000000000025
 40
18.01472990937589
 50
336.8014094863531
 51
355.2237258033233
  0
LINE
  5
71F
  8
LAYER_01
 10
424.9853346701106
 20
51.38858338914957
 30
0.0000000000000473
 11
420.5194910659391
 21
51.38858338914957
 31
0.0000000000000473
  0
LINE
  5
720
  8
LAYER_01
 10
420.5194910659391
 20
51.38858338914957
 30
0.0000000000000473
 11
420.5194910659391
 21
54.38858338914957
 31
0.0000000000000473
  0
LINE
  5
721
  8
LAYER_01
 10
420.5194910659391
 20
54.38858338914957
 30
0.0000000000000473
 11
424.9853346701106
 21
54.38858338914957
 31
0.0000000000000631
  0
ARC
  5
722
  8
LAYER_01
 10
407.0331622748907
 20
52.88858338914907
 30
0.0000000000000322
 40
18.01472990937404
 50
4.776274196675989
 51
40.22372580332375
  0
LINE
  5
723
  8
LAYER_01
 10
420.7879252843609
 20
64.52202605505875
 30
0.0000000000000628
 11
417.6300969881327
 21
61.36419775883054
 31
0.0000000000000471
  0
LINE
  5
724
  8
LAYER_01
 10
417.6300969881327
 20
61.36419775883054
 30
0.0000000000000471
 11
415.5087766445731
 21
63.48551810239019
 31
0.0000000000000471
  0
LINE
  5
725
  8
LAYER_01
 10
415.5087766445731
 20
63.48551810239019
 30
0.0000000000000471
 11
418.6666049408016
 21
66.6433463986185
 31
0.0000000000000628
  0
ARC
  5
726
  8
LAYER_01
 10
407.0331622748915
 20
52.88858338914672
 30
0.0000000000000139
 40
18.01472990937556
 50
49.77627419667866
 51
85.22372580332456
  0
LINE
  5
727
  8
LAYER_01
 10
408.5331622748919
 20
70.84075578436814
 30
0.0000000000000474
 11
408.5331622748919
 21
66.3749121801967
 31
0.0000000000000474
  0
LINE
  5
728
  8
LAYER_01
 10
408.5331622748919
 20
66.3749121801967
 30
0.0000000000000474
 11
405.533162274892
 21
66.3749121801967
 31
0.0000000000000474
  0
LINE
  5
729
  8
LAYER_01
 10
405.533162274892
 20
66.3749121801967
 30
0.0000000000000474
 11
405.533162274892
 21
70.84075578436814
 31
0.0000000000000474
  0
ARC
  5
72A
  8
LAYER_01
 10
407.0331622748924
 20
52.88858338914851
 30
0.0000000000001014
 40
18.0147299093738
 50
94.77627419667574
 51
130.2237258033242
  0
LINE
  5
72B
  8
LAYER_01
 10
395.3997196089828
 20
66.64334639861838
 30
0.0000000000000315
 11
398.557547905211
 21
63.48551810239019
 31
0.0000000000000315
  0
LINE
  5
72C
  8
LAYER_01
 10
398.557547905211
 20
63.48551810239019
 30
0.0000000000000315
 11
396.4362275616513
 21
61.36419775883054
 31
0.0000000000000315
  0
LINE
  5
72D
  8
LAYER_01
 10
396.4362275616513
 20
61.36419775883054
 30
0.0000000000000315
 11
393.278399265423
 21
64.52202605505899
 31
0.0000000000000315
  0
ARC
  5
72E
  8
LAYER_01
 10
407.0331622748955
 20
52.88858338914862
 30
0.0000000000002114
 40
18.01472990937622
 50
139.7762741966793
 51
175.2237258033232
  0
LINE
  5
72F
  8
LAYER_01
 10
389.0809898796734
 20
54.38858338914957
 30
0.0000000000000158
 11
393.5468334838449
 21
54.38858338914957
 31
0.0000000000000158
  0
LINE
  5
730
  8
LAYER_01
 10
393.5468334838449
 20
54.38858338914957
 30
0.0000000000000158
 11
393.5468334838449
 21
51.38858338914957
 31
0.0000000000000158
  0
LINE
  5
731
  8
LAYER_01
 10
393.5468334838449
 20
51.38858338914957
 30
0.0000000000000158
 11
389.0809898796734
 21
51.38858338914957
 31
0.0
  0
ARC
  5
732
  8
LAYER_01
 10
407.0331622748917
 20
52.8885833891494
 30
-0.0000000000000851
 40
18.0147299093724
 50
184.7762741966743
 51
220.2237258033254
  0
LINE
  5
733
  8
LAYER_01
 10
393.2783992654232
 20
41.25514072324039
 30
-0.0000000000000158
 11
396.4362275616514
 21
44.41296901946857
 31
0.0
  0
LINE
  5
734
  8
LAYER_01
 10
396.4362275616514
 20
44.41296901946857
 30
0.0
 11
398.557547905211
 21
42.29164867590894
 31
0.0
  0
LINE
  5
735
  8
LAYER_01
 10
398.557547905211
 20
42.29164867590894
 30
0.0
 11
395.3997196089826
 21
39.13382037968061
 31
-0.0000000000000158
  0
ARC
  5
736
  8
LAYER_01
 10
407.0331622748929
 20
52.88858338915274
 30
-0.0000000000000006
 40
18.01472990937597
 50
229.7762741966788
 51
265.2237258033232
  0
LINE
  5
737
  8
LAYER_01
 10
405.533162274892
 20
34.936410993931
 30
0.0000000000000159
 11
405.533162274892
 21
39.40225459810242
 31
0.0000000000000159
  0
LINE
  5
738
  8
LAYER_01
 10
405.533162274892
 20
39.40225459810242
 30
0.0000000000000159
 11
408.533162274892
 21
39.40225459810242
 31
0.0000000000000159
  0
LINE
  5
739
  8
LAYER_01
 10
408.533162274892
 20
39.40225459810242
 30
0.0000000000000159
 11
408.533162274892
 21
34.936410993931
 31
0.0000000000000159
  0
ARC
  5
73A
  8
LAYER_01
 10
407.0331622748918
 20
52.8885833891502
 30
-0.0000000000000694
 40
18.01472990937336
 50
274.7762741966755
 51
310.2237258033247
  0
LINE
  5
73B
  8
LAYER_01
 10
418.6666049408012
 20
39.13382037968076
 30
0.0000000000000316
 11
415.5087766445731
 21
42.29164867590894
 31
0.0000000000000316
  0
LINE
  5
73C
  8
LAYER_01
 10
415.5087766445731
 20
42.29164867590894
 30
0.0000000000000316
 11
417.6300969881327
 21
44.41296901946858
 31
0.0000000000000316
  0
LINE
  5
73D
  8
LAYER_01
 10
417.6300969881327
 20
44.41296901946858
 30
0.0000000000000316
 11
420.7879252843611
 21
41.25514072324014
 31
0.0000000000000316
  0
ARC
  5
73E
  8
LAYER_01
 10
407.0331622748849
 20
52.88858338915256
 30
-0.0000000000003356
 40
18.01472990938037
 50
319.7762741966819
 51
336.8014094863519
  0
ARC
  5
73F
  8
LAYER_01
 10
447.7697097132742
 20
14.03741003346502
 30
0.0000000000000021
 40
31.38860306286635
 50
333.4349488229229
 51
357.2609034459355
  0
LINE
  5
740
  8
LAYER_01
 10
479.1224512558919
 20
12.53741003346486
 30
0.000000000000004
 11
472.2380014440593
 21
12.53741003346485
 31
0.000000000000004
  0
LINE
  5
741
  8
LAYER_01
 10
472.2380014440593
 20
12.53741003346485
 30
0.000000000000004
 11
472.2380014440593
 21
15.53741003346485
 31
0.000000000000004
  0
LINE
  5
742
  8
LAYER_01
 10
472.2380014440593
 20
15.53741003346485
 30
0.000000000000004
 11
479.1224512558919
 21
15.53741003346485
 31
0.000000000000004
  0
ARC
  5
743
  8
LAYER_01
 10
447.7697097132744
 20
14.03741003346472
 30
0.0000000000000176
 40
31.38860306286613
 50
2.73909655406451
 51
42.26090344593437
  0
LINE
  5
744
  8
LAYER_01
 10
471.0001060386288
 20
35.14648601525829
 30
0.0
 11
466.1320648919432
 21
30.27844486857281
 31
0.0000000000000039
  0
LINE
  5
745
  8
LAYER_01
 10
466.1320648919432
 20
30.27844486857281
 30
0.0000000000000039
 11
464.0107445483836
 21
32.39976521213245
 31
0.0000000000000039
  0
LINE
  5
746
  8
LAYER_01
 10
464.0107445483836
 20
32.39976521213245
 30
0.0000000000000039
 11
468.878785695069
 21
37.26780635881785
 31
0.0
  0
ARC
  5
747
  8
LAYER_01
 10
447.7697097132755
 20
14.03741003346459
 30
0.0000000000000161
 40
31.38860306286528
 50
47.73909655406455
 51
87.26090344593545
  0
LINE
  5
748
  8
LAYER_01
 10
449.2697097132756
 20
45.39015157608114
 30
0.0000000000000041
 11
449.2697097132756
 21
38.50570176424844
 31
0.0000000000000041
  0
LINE
  5
749
  8
LAYER_01
 10
449.2697097132756
 20
38.50570176424844
 30
0.0000000000000041
 11
446.2697097132756
 21
38.50570176424844
 31
0.0000000000000041
  0
LINE
  5
74A
  8
LAYER_01
 10
446.2697097132756
 20
38.50570176424844
 30
0.0000000000000041
 11
446.2697097132756
 21
45.39015157608114
 31
0.0000000000000041
  0
ARC
  5
74B
  8
LAYER_01
 10
447.7697097132758
 20
14.03741003346361
 30
0.000000000000035
 40
31.38860306286623
 50
92.73909655406459
 51
132.2609034459344
  0
LINE
  5
74C
  8
LAYER_01
 10
426.6606337314822
 20
37.26780635881795
 30
0.000000000000004
 11
431.5286748781676
 21
32.39976521213245
 31
0.000000000000004
  0
LINE
  5
74D
  8
LAYER_01
 10
431.5286748781676
 20
32.39976521213245
 30
0.000000000000004
 11
429.407354534608
 21
30.27844486857281
 31
0.000000000000004
  0
LINE
  5
74E
  8
LAYER_01
 10
429.407354534608
 20
30.27844486857281
 30
0.000000000000004
 11
424.5393133879226
 21
35.14648601525818
 31
0.000000000000004
  0
ARC
  5
74F
  8
LAYER_01
 10
447.7697097132763
 20
14.03741003346482
 30
-0.0000000000000071
 40
31.38860306286553
 50
137.7390965540652
 51
177.2609034459357
  0
LINE
  5
750
  8
LAYER_01
 10
416.4169681706594
 20
15.53741003346483
 30
0.0
 11
423.3014179824921
 21
15.53741003346483
 31
0.0
  0
LINE
  5
751
  8
LAYER_01
 10
423.3014179824921
 20
15.53741003346483
 30
0.0
 11
423.3014179824921
 21
12.53741003346484
 31
0.0
  0
LINE
  5
752
  8
LAYER_01
 10
423.3014179824921
 20
12.53741003346484
 30
0.0
 11
416.4169681706594
 21
12.53741003346484
 31
0.0
  0
ARC
  5
753
  8
LAYER_01
 10
447.7697097132754
 20
14.03741003346443
 30
-0.0000000000000315
 40
31.38860306286468
 50
182.7390965540636
 51
222.2609034459353
  0
LINE
  5
754
  8
LAYER_01
 10
424.5393133879225
 20
-7.071665948328565
 30
0.000000000000008
 11
429.4073545346081
 21
-2.203624801643086
 31
0.000000000000004
  0
LINE
  5
755
  8
LAYER_01
 10
429.4073545346081
 20
-2.203624801643086
 30
0.000000000000004
 11
431.5286748781677
 21
-4.324945145202708
 31
0.000000000000004
  0
LINE
  5
756
  8
LAYER_01
 10
431.5286748781677
 20
-4.324945145202708
 30
0.000000000000004
 11
426.6606337314823
 21
-9.192986291888129
 31
0.000000000000008
  0
ARC
  5
757
  8
LAYER_01
 10
447.7697097132757
 20
14.03741003346515
 30
0.0000000000000599
 40
31.38860306286526
 50
227.7390965540646
 51
267.2609034459355
  0
LINE
  5
758
  8
LAYER_01
 10
446.2697097132756
 20
-17.31533150915144
 30
0.0000000000000041
 11
446.2697097132756
 21
-10.43088169731871
 31
0.0000000000000041
  0
LINE
  5
759
  8
LAYER_01
 10
446.2697097132756
 20
-10.43088169731871
 30
0.0000000000000041
 11
449.2697097132756
 21
-10.43088169731871
 31
0.0000000000000041
  0
LINE
  5
75A
  8
LAYER_01
 10
449.2697097132756
 20
-10.43088169731871
 30
0.0000000000000041
 11
449.2697097132757
 21
-17.31533150915143
 31
0.0000000000000041
  0
ARC
  5
75B
  8
LAYER_01
 10
447.7697097132756
 20
14.03741003346518
 30
0.0000000000000355
 40
31.38860306286531
 50
272.7390965540645
 51
312.2609034459351
  0
LINE
  5
75C
  8
LAYER_01
 10
468.878785695069
 20
-9.192986291888285
 30
0.000000000000004
 11
464.0107445483835
 21
-4.324945145202746
 31
0.000000000000004
  0
LINE
  5
75D
  8
LAYER_01
 10
464.0107445483835
 20
-4.324945145202746
 30
0.000000000000004
 11
466.1320648919432
 21
-2.203624801643111
 31
0.000000000000004
  0
LINE
  5
75E
  8
LAYER_01
 10
466.1320648919432
 20
-2.203624801643111
 30
0.000000000000004
 11
471.0001060386286
 21
-7.071665948328532
 31
0.000000000000004
  0
ARC
  5
75F
  8
LAYER_01
 10
447.7697097132738
 20
14.0374100334659
 30
0.0000000000000021
 40
31.38860306286706
 50
317.7390965540651
 51
333.4349488229217
  0
CIRCLE
  5
760
  8
LAYER_01
 10
447.7697097132756
 20
14.03741003346481
 30
0.0000000000000036
 40
11.6210700504789
  0
ENDSEC
  0
EOF
