  0
SECTION
  2
HEADER
  9
$ACADVER
  1
AC1021
  9
$ACADMAINTVER
 70
    25
  9
$DWGCODEPAGE
  3
ANSI_1252
  9
$LASTSAVEDBY
  1
rknt
  9
$INSBASE
 10
0.0
 20
0.0
 30
0.0
  9
$EXTMIN
 10
1708.303593951773
 20
-1497.686831510974
 30
0.0
  9
$EXTMAX
 10
4642.221810675577
 20
521.6295596251985
 30
0.0
  9
$LIMMIN
 10
0.0
 20
0.0
  9
$LIMMAX
 10
12.0
 20
9.0
  9
$ORTHOMODE
 70
     0
  9
$REGENMODE
 70
     1
  9
$FILLMODE
 70
     1
  9
$QTEXTMODE
 70
     0
  9
$MIRRTEXT
 70
     1
  9
$LTSCALE
 40
1.0
  9
$ATTMODE
 70
     1
  9
$TEXTSIZE
 40
0.2
  9
$TRACEWID
 40
0.05
  9
$TEXTSTYLE
  7
Standard
  9
$CLAYER
  8
Layer 05
  9
$CELTYPE
  6
ByLayer
  9
$CECOLOR
 62
   256
  9
$CELTSCALE
 40
1.0
  9
$DISPSILH
 70
     0
  9
$DIMSCALE
 40
1.0
  9
$DIMASZ
 40
0.18
  9
$DIMEXO
 40
0.0625
  9
$DIMDLI
 40
0.38
  9
$DIMRND
 40
0.0
  9
$DIMDLE
 40
0.0
  9
$DIMEXE
 40
0.18
  9
$DIMTP
 40
0.0
  9
$DIMTM
 40
0.0
  9
$DIMTXT
 40
0.18
  9
$DIMCEN
 40
0.09
  9
$DIMTSZ
 40
0.0
  9
$DIMTOL
 70
     0
  9
$DIMLIM
 70
     0
  9
$DIMTIH
 70
     1
  9
$DIMTOH
 70
     1
  9
$DIMSE1
 70
     0
  9
$DIMSE2
 70
     0
  9
$DIMTAD
 70
     0
  9
$DIMZIN
 70
     0
  9
$DIMBLK
  1

  9
$DIMASO
 70
     1
  9
$DIMSHO
 70
     1
  9
$DIMPOST
  1

  9
$DIMAPOST
  1

  9
$DIMALT
 70
     0
  9
$DIMALTD
 70
     2
  9
$DIMALTF
 40
25.4
  9
$DIMLFAC
 40
1.0
  9
$DIMTOFL
 70
     0
  9
$DIMTVP
 40
0.0
  9
$DIMTIX
 70
     0
  9
$DIMSOXD
 70
     0
  9
$DIMSAH
 70
     0
  9
$DIMBLK1
  1

  9
$DIMBLK2
  1

  9
$DIMSTYLE
  2
STANDARD_ACAD
  9
$DIMCLRD
 70
     0
  9
$DIMCLRE
 70
     0
  9
$DIMCLRT
 70
     0
  9
$DIMTFAC
 40
1.0
  9
$DIMGAP
 40
0.09
  9
$DIMJUST
 70
     0
  9
$DIMSD1
 70
     0
  9
$DIMSD2
 70
     0
  9
$DIMTOLJ
 70
     1
  9
$DIMTZIN
 70
     0
  9
$DIMALTZ
 70
     0
  9
$DIMALTTZ
 70
     0
  9
$DIMUPT
 70
     0
  9
$DIMDEC
 70
     4
  9
$DIMTDEC
 70
     4
  9
$DIMALTU
 70
     2
  9
$DIMALTTD
 70
     2
  9
$DIMTXSTY
  7
Standard
  9
$DIMAUNIT
 70
     0
  9
$DIMADEC
 70
     0
  9
$DIMALTRND
 40
0.0
  9
$DIMAZIN
 70
     0
  9
$DIMDSEP
 70
    46
  9
$DIMATFIT
 70
     3
  9
$DIMFRAC
 70
     0
  9
$DIMLDRBLK
  1

  9
$DIMLUNIT
 70
     2
  9
$DIMLWD
 70
    -2
  9
$DIMLWE
 70
    -2
  9
$DIMTMOVE
 70
     2
  9
$DIMFXL
 40
1.0
  9
$DIMFXLON
 70
     0
  9
$DIMJOGANG
 40
0.7853981633974483
  9
$DIMTFILL
 70
     0
  9
$DIMTFILLCLR
 70
     0
  9
$DIMARCSYM
 70
     0
  9
$DIMLTYPE
  6

  9
$DIMLTEX1
  6

  9
$DIMLTEX2
  6

  9
$LUNITS
 70
     2
  9
$LUPREC
 70
     3
  9
$SKETCHINC
 40
0.1
  9
$FILLETRAD
 40
0.0
  9
$AUNITS
 70
     0
  9
$AUPREC
 70
     0
  9
$MENU
  1
.
  9
$ELEVATION
 40
0.0
  9
$PELEVATION
 40
0.0
  9
$THICKNESS
 40
0.0
  9
$LIMCHECK
 70
     0
  9
$CHAMFERA
 40
0.0
  9
$CHAMFERB
 40
0.0
  9
$CHAMFERC
 40
0.0
  9
$CHAMFERD
 40
0.0
  9
$SKPOLY
 70
     0
  9
$TDCREATE
 40
2459861.616924606
  9
$TDUCREATE
 40
2459861.57525794
  9
$TDUPDATE
 40
2459861.616964225
  9
$TDUUPDATE
 40
2459861.575297558
  9
$TDINDWG
 40
0.0000000116
  9
$TDUSRTIMER
 40
0.0000000116
  9
$USRTIMER
 70
     1
  9
$ANGBASE
 50
0.0
  9
$ANGDIR
 70
     0
  9
$PDMODE
 70
     0
  9
$PDSIZE
 40
0.0
  9
$PLINEWID
 40
0.0
  9
$SPLFRAME
 70
     0
  9
$SPLINETYPE
 70
     6
  9
$SPLINESEGS
 70
     8
  9
$HANDSEED
  5
506
  9
$SURFTAB1
 70
     6
  9
$SURFTAB2
 70
     6
  9
$SURFTYPE
 70
     6
  9
$SURFU
 70
     6
  9
$SURFV
 70
     6
  9
$UCSBASE
  2

  9
$UCSNAME
  2

  9
$UCSORG
 10
0.0
 20
0.0
 30
0.0
  9
$UCSXDIR
 10
1.0
 20
0.0
 30
0.0
  9
$UCSYDIR
 10
0.0
 20
1.0
 30
0.0
  9
$UCSORTHOREF
  2

  9
$UCSORTHOVIEW
 70
     0
  9
$UCSORGTOP
 10
0.0
 20
0.0
 30
0.0
  9
$UCSORGBOTTOM
 10
0.0
 20
0.0
 30
0.0
  9
$UCSORGLEFT
 10
0.0
 20
0.0
 30
0.0
  9
$UCSORGRIGHT
 10
0.0
 20
0.0
 30
0.0
  9
$UCSORGFRONT
 10
0.0
 20
0.0
 30
0.0
  9
$UCSORGBACK
 10
0.0
 20
0.0
 30
0.0
  9
$PUCSBASE
  2

  9
$PUCSNAME
  2

  9
$PUCSORG
 10
0.0
 20
0.0
 30
0.0
  9
$PUCSXDIR
 10
1.0
 20
0.0
 30
0.0
  9
$PUCSYDIR
 10
0.0
 20
1.0
 30
0.0
  9
$PUCSORTHOREF
  2

  9
$PUCSORTHOVIEW
 70
     0
  9
$PUCSORGTOP
 10
0.0
 20
0.0
 30
0.0
  9
$PUCSORGBOTTOM
 10
0.0
 20
0.0
 30
0.0
  9
$PUCSORGLEFT
 10
0.0
 20
0.0
 30
0.0
  9
$PUCSORGRIGHT
 10
0.0
 20
0.0
 30
0.0
  9
$PUCSORGFRONT
 10
0.0
 20
0.0
 30
0.0
  9
$PUCSORGBACK
 10
0.0
 20
0.0
 30
0.0
  9
$USERI1
 70
     0
  9
$USERI2
 70
     0
  9
$USERI3
 70
     0
  9
$USERI4
 70
     0
  9
$USERI5
 70
     0
  9
$USERR1
 40
0.0
  9
$USERR2
 40
0.0
  9
$USERR3
 40
0.0
  9
$USERR4
 40
0.0
  9
$USERR5
 40
0.0
  9
$WORLDVIEW
 70
     1
  9
$SHADEDGE
 70
     3
  9
$SHADEDIF
 70
    70
  9
$TILEMODE
 70
     1
  9
$MAXACTVP
 70
    64
  9
$PINSBASE
 10
0.0
 20
0.0
 30
0.0
  9
$PLIMCHECK
 70
     0
  9
$PEXTMIN
 10
1.000000000000000E+20
 20
1.000000000000000E+20
 30
1.000000000000000E+20
  9
$PEXTMAX
 10
-1.000000000000000E+20
 20
-1.000000000000000E+20
 30
-1.000000000000000E+20
  9
$PLIMMIN
 10
0.0
 20
0.0
  9
$PLIMMAX
 10
12.0
 20
9.0
  9
$UNITMODE
 70
     0
  9
$VISRETAIN
 70
     1
  9
$PLINEGEN
 70
     0
  9
$PSLTSCALE
 70
     1
  9
$TREEDEPTH
 70
  3020
  9
$CMLSTYLE
  2
Standard
  9
$CMLJUST
 70
     0
  9
$CMLSCALE
 40
1.0
  9
$PROXYGRAPHICS
 70
     1
  9
$MEASUREMENT
 70
     1
  9
$CELWEIGHT
370
    -1
  9
$ENDCAPS
280
     0
  9
$JOINSTYLE
280
     0
  9
$LWDISPLAY
290
     0
  9
$INSUNITS
 70
     4
  9
$HYPERLINKBASE
  1

  9
$STYLESHEET
  1

  9
$XEDIT
290
     1
  9
$CEPSNTYPE
380
     0
  9
$PSTYLEMODE
290
     1
  9
$FINGERPRINTGUID
  2
{ad840bc7-f312-410f-b149-1dcc9a152239}
  9
$VERSIONGUID
  2
{FAEB1C32-E019-11D5-929B-00C0DF256EC4}
  9
$EXTNAMES
290
     1
  9
$PSVPSCALE
 40
0.0
  9
$OLESTARTUP
290
     0
  9
$SORTENTS
280
   127
  9
$INDEXCTL
280
     0
  9
$HIDETEXT
280
     1
  9
$XCLIPFRAME
290
     0
  9
$HALOGAP
280
     0
  9
$OBSCOLOR
 70
   257
  9
$OBSLTYPE
280
     0
  9
$INTERSECTIONDISPLAY
280
     0
  9
$INTERSECTIONCOLOR
 70
   257
  9
$DIMASSOC
280
     2
  9
$PROJECTNAME
  1

  9
$CAMERADISPLAY
290
     0
  9
$LENSLENGTH
 40
50.0
  9
$CAMERAHEIGHT
 40
0.0
  9
$STEPSPERSEC
 40
2.0
  9
$STEPSIZE
 40
6.0
  9
$3DDWFPREC
 40
2.0
  9
$PSOLWIDTH
 40
0.25
  9
$PSOLHEIGHT
 40
4.0
  9
$LOFTANG1
 40
1.570796326794897
  9
$LOFTANG2
 40
1.570796326794897
  9
$LOFTMAG1
 40
0.0
  9
$LOFTMAG2
 40
0.0
  9
$LOFTPARAM
 70
     7
  9
$LOFTNORMALS
280
     1
  9
$LATITUDE
 40
37.795
  9
$LONGITUDE
 40
-122.394
  9
$NORTHDIRECTION
 40
0.0
  9
$TIMEZONE
 70
 -8000
  9
$LIGHTGLYPHDISPLAY
280
     1
  9
$TILEMODELIGHTSYNCH
280
     1
  9
$CMATERIAL
347
44
  9
$SOLIDHIST
280
     0
  9
$SHOWHIST
280
     1
  9
$DWFFRAME
280
     2
  9
$DGNFRAME
280
     2
  9
$REALWORLDSCALE
290
     1
  9
$INTERFERECOLOR
 62
   256
  9
$CSHADOW
280
     0
  9
$SHADOWPLANELOCATION
 40
0.0
  0
ENDSEC
  0
SECTION
  2
CLASSES
  0
CLASS
  1
ACDBDICTIONARYWDFLT
  2
AcDbDictionaryWithDefault
  3
ObjectDBX Classes
 90
        0
 91
        3
280
     0
281
     0
  0
CLASS
  1
VISUALSTYLE
  2
AcDbVisualStyle
  3
ObjectDBX Classes
 90
     4095
 91
        3
280
     0
281
     0
  0
CLASS
  1
MATERIAL
  2
AcDbMaterial
  3
ObjectDBX Classes
 90
     1153
 91
        3
280
     0
281
     0
  0
CLASS
  1
SCALE
  2
AcDbScale
  3
ObjectDBX Classes
 90
     1153
 91
        3
280
     0
281
     0
  0
CLASS
  1
TABLESTYLE
  2
AcDbTableStyle
  3
ObjectDBX Classes
 90
     4095
 91
        3
280
     0
281
     0
  0
CLASS
  1
MLEADERSTYLE
  2
AcDbMLeaderStyle
  3
ACDB_MLEADERSTYLE_CLASS
 90
     4095
 91
        3
280
     0
281
     0
  0
CLASS
  1
SUN
  2
AcDbSun
  3
SCENEOE
 90
     1153
 91
        3
280
     0
281
     0
  0
CLASS
  1
DICTIONARYVAR
  2
AcDbDictionaryVar
  3
ObjectDBX Classes
 90
        0
 91
        3
280
     0
281
     0
  0
CLASS
  1
CELLSTYLEMAP
  2
AcDbCellStyleMap
  3
ObjectDBX Classes
 90
     1152
 91
        3
280
     0
281
     0
  0
ENDSEC
  0
SECTION
  2
TABLES
  0
TABLE
  2
VPORT
  5
8
330
0
100
AcDbSymbolTable
 70
     1
  0
VPORT
  5
29
330
8
100
AcDbSymbolTableRecord
100
AcDbViewportTableRecord
  2
*Active
 70
     0
 10
0.0
 20
0.0
 11
1.0
 21
1.0
 12
10.42990654205607
 22
4.5
 13
0.0
 23
0.0
 14
0.5
 24
0.5
 15
0.5
 25
0.5
 16
0.0
 26
0.0
 36
1.0
 17
0.0
 27
0.0
 37
0.0
 40
9.0
 41
1.972972972850329
 42
50.0
 43
0.0
 44
0.0
 50
0.0
 51
0.0
 71
     0
 72
   100
 73
     1
 74
     3
 75
     0
 76
     0
 77
     0
 78
     0
281
     0
 65
     1
110
0.0
120
0.0
130
0.0
111
1.0
121
0.0
131
0.0
112
0.0
122
1.0
132
0.0
 79
     0
146
0.0
348
2F
 60
     3
 61
     5
292
     1
282
     1
141
0.0
142
0.0
 63
   250
361
5D
  0
ENDTAB
  0
TABLE
  2
LTYPE
  5
5
330
0
100
AcDbSymbolTable
 70
     4
  0
LTYPE
  5
14
330
5
100
AcDbSymbolTableRecord
100
AcDbLinetypeTableRecord
  2
ByBlock
 70
     0
  3

 72
    65
 73
     0
 40
0.0
  0
LTYPE
  5
15
330
5
100
AcDbSymbolTableRecord
100
AcDbLinetypeTableRecord
  2
ByLayer
 70
     0
  3

 72
    65
 73
     0
 40
0.0
  0
LTYPE
  5
16
330
5
100
AcDbSymbolTableRecord
100
AcDbLinetypeTableRecord
  2
Continuous
 70
     0
  3
Solid line
 72
    65
 73
     0
 40
0.0
  0
LTYPE
  5
A9
330
5
100
AcDbSymbolTableRecord
100
AcDbLinetypeTableRecord
  2
Dots
 70
     0
  3

 72
    65
 73
     2
 40
1.0
 49
0.0
 74
     0
 49
-1.0
 74
     0
  0
LTYPE
  5
DB
330
5
100
AcDbSymbolTableRecord
100
AcDbLinetypeTableRecord
  2
Center
 70
     0
  3

 72
    65
 73
     4
 40
4.0
 49
2.5
 74
     0
 49
-0.5
 74
     0
 49
0.5
 74
     0
 49
-0.5
 74
     0
  0
LTYPE
  5
209
330
5
100
AcDbSymbolTableRecord
100
AcDbLinetypeTableRecord
  2
Dashed
 70
     0
  3

 72
    65
 73
     2
 40
10.0
 49
5.0
 74
     0
 49
-5.0
 74
     0
  0
ENDTAB
  0
TABLE
  2
LAYER
  5
2
330
0
100
AcDbSymbolTable
 70
     7
  0
LAYER
  5
10
330
2
100
AcDbSymbolTableRecord
100
AcDbLayerTableRecord
  2
0
 70
     0
 62
     7
  6
Continuous
370
    -3
390
F
347
46
  0
LAYER
  5
5F
330
2
100
AcDbSymbolTableRecord
100
AcDbLayerTableRecord
  2
Layer 03
 70
     0
 62
     5
420
      255
  6
Continuous
370
    -3
390
F
347
46
  0
LAYER
  5
62
330
2
100
AcDbSymbolTableRecord
100
AcDbLayerTableRecord
  2
Layer 05
 70
     0
 62
   211
420
 16744447
  6
Continuous
370
    -3
390
F
347
46
  0
LAYER
  5
AA
330
2
100
AcDbSymbolTableRecord
100
AcDbLayerTableRecord
  2
Layer 01
 70
     0
 62
    12
420
 13107200
  6
Dots
370
    -3
390
F
347
46
  0
LAYER
  5
AC
330
2
100
AcDbSymbolTableRecord
100
AcDbLayerTableRecord
  2
Default
 70
     0
 62
    18
420
        0
  6
Continuous
370
    -3
390
F
347
46
  0
LAYER
  5
DC
330
2
100
AcDbSymbolTableRecord
100
AcDbLayerTableRecord
  2
Layer 04
 70
     0
 62
    96
420
    32512
  6
Center
370
    -3
390
F
347
46
  0
LAYER
  5
20A
330
2
100
AcDbSymbolTableRecord
100
AcDbLayerTableRecord
  2
Layer 02
 70
     0
 62
   192
420
  8201933
  6
Dashed
370
    -3
390
F
347
46
  0
ENDTAB
  0
TABLE
  2
STYLE
  5
3
330
0
100
AcDbSymbolTable
 70
     2
  0
STYLE
  5
11
330
3
100
AcDbSymbolTableRecord
100
AcDbTextStyleTableRecord
  2
Standard
 70
     0
 40
0.0
 41
1.0
 50
0.0
 71
     0
 42
0.2
  3
txt
  4

  0
STYLE
  5
60
330
3
100
AcDbSymbolTableRecord
100
AcDbTextStyleTableRecord
  2
Millimeter Small
 70
     0
 40
0.0
 41
1.0
 50
0.0
 71
     0
 42
0.2
  3
arial.ttf
  4

1001
ACAD
1000
Arial
1071
      256
  0
ENDTAB
  0
TABLE
  2
VIEW
  5
6
330
0
100
AcDbSymbolTable
 70
     0
  0
ENDTAB
  0
TABLE
  2
UCS
  5
7
330
0
100
AcDbSymbolTable
 70
     0
  0
ENDTAB
  0
TABLE
  2
APPID
  5
9
330
0
100
AcDbSymbolTable
 70
     3
  0
APPID
  5
12
330
9
100
AcDbSymbolTableRecord
100
AcDbRegAppTableRecord
  2
ACAD
 70
     0
  0
APPID
  5
5E
330
9
100
AcDbSymbolTableRecord
100
AcDbRegAppTableRecord
  2
Rhino
 70
     0
  0
APPID
  5
4FE
330
9
100
AcDbSymbolTableRecord
100
AcDbRegAppTableRecord
  2
ACAD_MLEADERVER
 70
     0
  0
ENDTAB
  0
TABLE
  2
DIMSTYLE
  5
A
330
0
100
AcDbSymbolTable
 70
     1
100
AcDbDimStyleTable
  0
DIMSTYLE
105
27
330
A
100
AcDbSymbolTableRecord
100
AcDbDimStyleTableRecord
  2
STANDARD_ACAD
 70
     0
178
     0
340
11
  0
ENDTAB
  0
TABLE
  2
BLOCK_RECORD
  5
1
330
0
100
AcDbSymbolTable
 70
     1
  0
BLOCK_RECORD
  5
1F
330
1
100
AcDbSymbolTableRecord
100
AcDbBlockTableRecord
  2
*Model_Space
340
22
 70
     0
280
     1
281
     0
  0
BLOCK_RECORD
  5
1B
330
1
100
AcDbSymbolTableRecord
100
AcDbBlockTableRecord
  2
*Paper_Space
340
1E
 70
     0
280
     1
281
     0
  0
BLOCK_RECORD
  5
23
330
1
100
AcDbSymbolTableRecord
100
AcDbBlockTableRecord
  2
*Paper_Space0
340
26
 70
     0
280
     1
281
     0
  0
ENDTAB
  0
ENDSEC
  0
SECTION
  2
BLOCKS
  0
BLOCK
  5
20
330
1F
100
AcDbEntity
  8
0
100
AcDbBlockBegin
  2
*Model_Space
 70
     0
 10
0.0
 20
0.0
 30
0.0
  3
*Model_Space
  1

  0
ENDBLK
  5
21
330
1F
100
AcDbEntity
  8
0
100
AcDbBlockEnd
  0
BLOCK
  5
1C
330
1B
100
AcDbEntity
 67
     1
  8
0
100
AcDbBlockBegin
  2
*Paper_Space
 70
     0
 10
0.0
 20
0.0
 30
0.0
  3
*Paper_Space
  1

  0
ENDBLK
  5
1D
330
1B
100
AcDbEntity
 67
     1
  8
0
100
AcDbBlockEnd
  0
BLOCK
  5
24
330
23
100
AcDbEntity
  8
0
100
AcDbBlockBegin
  2
*Paper_Space0
 70
     0
 10
0.0
 20
0.0
 30
0.0
  3
*Paper_Space0
  1

  0
ENDBLK
  5
25
330
23
100
AcDbEntity
  8
0
100
AcDbBlockEnd
  0
ENDSEC
  0
SECTION
  2
ENTITIES
  0
MTEXT
  5
61
330
1F
100
AcDbEntity
  8
Layer 03
100
AcDbMText
 10
3437.058864353192
 20
-1449.653272163585
 30
0.0
 40
7.103833030422869
 41
212.0339728428391
 46
5.042177140071883
 71
     1
 72
     1
  1
Zip Pocket - cover (2x)
  7
Millimeter Small
 73
     1
 44
1.0
1001
ACAD
1000
ACAD_MTEXT_DEFINED_HEIGHT_BEGIN
1070
    46
1040
5.042177140071883
1000
ACAD_MTEXT_DEFINED_HEIGHT_END
  0
POLYLINE
  5
63
330
1F
100
AcDbEntity
  8
Layer 05
100
AcDb2dPolyline
 66
     1
 10
0.0
 20
0.0
 30
0.0
  0
VERTEX
  5
64
330
63
100
AcDbEntity
  8
Layer 05
100
AcDbVertex
100
AcDb2dVertex
 10
1888.154207211154
 20
-403.4490986463899
 30
0.0
  0
VERTEX
  5
65
330
63
100
AcDbEntity
  8
Layer 05
100
AcDbVertex
100
AcDb2dVertex
 10
1888.154207211154
 20
-269.5516780550944
 30
0.0
  0
VERTEX
  5
66
330
63
100
AcDbEntity
  8
Layer 05
100
AcDbVertex
100
AcDb2dVertex
 10
2165.986609775196
 20
-269.5516780550944
 30
0.0
  0
VERTEX
  5
67
330
63
100
AcDbEntity
  8
Layer 05
100
AcDbVertex
100
AcDb2dVertex
 10
2165.986609775196
 20
-403.4490986463899
 30
0.0
  0
SEQEND
  5
68
330
63
100
AcDbEntity
  8
Layer 05
  0
POLYLINE
  5
69
330
1F
100
AcDbEntity
  8
Layer 05
100
AcDb2dPolyline
 66
     1
 10
0.0
 20
0.0
 30
0.0
  0
VERTEX
  5
6A
330
69
100
AcDbEntity
  8
Layer 05
100
AcDbVertex
100
AcDb2dVertex
 10
1888.154207211154
 20
-37.36415997103866
 30
0.0
  0
VERTEX
  5
6B
330
69
100
AcDbEntity
  8
Layer 05
100
AcDbVertex
100
AcDb2dVertex
 10
1888.154207211154
 20
-228.9811223917283
 30
0.0
  0
VERTEX
  5
6C
330
69
100
AcDbEntity
  8
Layer 05
100
AcDbVertex
100
AcDb2dVertex
 10
2165.986609775196
 20
-228.9811223917283
 30
0.0
  0
VERTEX
  5
6D
330
69
100
AcDbEntity
  8
Layer 05
100
AcDbVertex
100
AcDb2dVertex
 10
2165.986609775196
 20
-37.36415997103866
 30
0.0
  0
SEQEND
  5
6E
330
69
100
AcDbEntity
  8
Layer 05
  0
POLYLINE
  5
6F
330
1F
100
AcDbEntity
  8
Layer 05
100
AcDb2dPolyline
 66
     1
 10
0.0
 20
0.0
 30
0.0
  0
VERTEX
  5
70
330
6F
100
AcDbEntity
  8
Layer 05
100
AcDbVertex
100
AcDb2dVertex
 10
2433.292171240278
 20
-269.5516780550944
 30
0.0
  0
VERTEX
  5
71
330
6F
100
AcDbEntity
  8
Layer 05
100
AcDbVertex
100
AcDb2dVertex
 10
2203.723470277228
 20
-269.5516780550944
 30
0.0
  0
VERTEX
  5
72
330
6F
100
AcDbEntity
  8
Layer 05
100
AcDbVertex
100
AcDb2dVertex
 10
2203.723470277228
 20
-403.4490986463899
 30
0.0
  0
SEQEND
  5
73
330
6F
100
AcDbEntity
  8
Layer 05
  0
POLYLINE
  5
74
330
1F
100
AcDbEntity
  8
Layer 05
100
AcDb2dPolyline
 66
     1
 10
0.0
 20
0.0
 30
0.0
  0
VERTEX
  5
75
330
74
100
AcDbEntity
  8
Layer 05
100
AcDbVertex
100
AcDb2dVertex
 10
2202.111077146687
 20
-37.47854298302381
 30
0.0
  0
VERTEX
  5
76
330
74
100
AcDbEntity
  8
Layer 05
100
AcDbVertex
100
AcDb2dVertex
 10
2202.111077146687
 20
-228.9811223917283
 30
0.0
  0
VERTEX
  5
77
330
74
100
AcDbEntity
  8
Layer 05
100
AcDbVertex
100
AcDb2dVertex
 10
2431.679778109737
 20
-228.9811223917283
 30
0.0
  0
SEQEND
  5
78
330
74
100
AcDbEntity
  8
Layer 05
  0
POLYLINE
  5
79
330
1F
100
AcDbEntity
  8
Layer 05
100
AcDb2dPolyline
 66
     1
 10
0.0
 20
0.0
 30
0.0
  0
VERTEX
  5
7A
330
79
100
AcDbEntity
  8
Layer 05
100
AcDbVertex
100
AcDb2dVertex
 10
1713.614199411515
 20
-236.2060158660251
 30
0.0
  0
VERTEX
  5
7B
330
79
100
AcDbEntity
  8
Layer 05
100
AcDbVertex
100
AcDb2dVertex
 10
1807.013095884422
 20
-236.2060158660251
 30
0.0
  0
VERTEX
  5
7C
330
79
100
AcDbEntity
  8
Layer 05
100
AcDbVertex
100
AcDb2dVertex
 10
1807.013095884422
 20
-44.7034364573219
 30
0.0
  0
SEQEND
  5
7D
330
79
100
AcDbEntity
  8
Layer 05
  0
POLYLINE
  5
7E
330
1F
100
AcDbEntity
  8
Layer 05
100
AcDb2dPolyline
 66
     1
 10
0.0
 20
0.0
 30
0.0
  0
VERTEX
  5
7F
330
7E
100
AcDbEntity
  8
Layer 05
100
AcDbVertex
100
AcDb2dVertex
 10
1807.013095884422
 20
-155.6385141743776
 30
0.0
  0
VERTEX
  5
80
330
7E
100
AcDbEntity
  8
Layer 05
100
AcDbVertex
100
AcDb2dVertex
 10
1786.45535351132
 20
-157.7799456715757
 30
0.0
  0
SEQEND
  5
81
330
7E
100
AcDbEntity
  8
Layer 05
  0
POLYLINE
  5
82
330
1F
100
AcDbEntity
  8
Layer 05
100
AcDb2dPolyline
 66
     1
 10
0.0
 20
0.0
 30
0.0
  0
VERTEX
  5
83
330
82
100
AcDbEntity
  8
Layer 05
100
AcDbVertex
100
AcDb2dVertex
 10
1807.013095884422
 20
-145.7805252440344
 30
0.0
  0
VERTEX
  5
84
330
82
100
AcDbEntity
  8
Layer 05
100
AcDbVertex
100
AcDb2dVertex
 10
1786.694590414122
 20
-147.4927588510821
 30
0.0
  0
VERTEX
  5
85
330
82
100
AcDbEntity
  8
Layer 05
100
AcDbVertex
100
AcDb2dVertex
 10
1807.013095884422
 20
-149.9394898763015
 30
0.0
  0
SEQEND
  5
86
330
82
100
AcDbEntity
  8
Layer 05
  0
POLYLINE
  5
87
330
1F
100
AcDbEntity
  8
Layer 05
100
AcDb2dPolyline
 66
     1
 10
0.0
 20
0.0
 30
0.0
  0
VERTEX
  5
88
330
87
100
AcDbEntity
  8
Layer 05
100
AcDbVertex
100
AcDb2dVertex
 10
1807.013095884422
 20
-137.5638179931734
 30
0.0
  0
VERTEX
  5
89
330
87
100
AcDbEntity
  8
Layer 05
100
AcDbVertex
100
AcDb2dVertex
 10
1786.694590414122
 20
-137.6840458361929
 30
0.0
  0
VERTEX
  5
8A
330
87
100
AcDbEntity
  8
Layer 05
100
AcDbVertex
100
AcDb2dVertex
 10
1807.013095884422
 20
-140.6519174217423
 30
0.0
  0
SEQEND
  5
8B
330
87
100
AcDbEntity
  8
Layer 05
  0
POLYLINE
  5
8C
330
1F
100
AcDbEntity
  8
Layer 05
100
AcDb2dPolyline
 66
     1
 10
0.0
 20
0.0
 30
0.0
  0
VERTEX
  5
8D
330
8C
100
AcDbEntity
  8
Layer 05
100
AcDbVertex
100
AcDb2dVertex
 10
1807.013095884422
 20
-129.4776556309944
 30
0.0
  0
VERTEX
  5
8E
330
8C
100
AcDbEntity
  8
Layer 05
100
AcDbVertex
100
AcDb2dVertex
 10
1785.259168997309
 20
-132.420833974545
 30
0.0
  0
VERTEX
  5
8F
330
8C
100
AcDbEntity
  8
Layer 05
100
AcDbVertex
100
AcDb2dVertex
 10
1807.013095884422
 20
-135.0313052009986
 30
0.0
  0
SEQEND
  5
90
330
8C
100
AcDbEntity
  8
Layer 05
  0
POLYLINE
  5
91
330
1F
100
AcDbEntity
  8
Layer 05
100
AcDb2dPolyline
 66
     1
 10
0.0
 20
0.0
 30
0.0
  0
VERTEX
  5
92
330
91
100
AcDbEntity
  8
Layer 05
100
AcDbVertex
100
AcDb2dVertex
 10
1787.412301122529
 20
-124.286779279271
 30
0.0
  0
VERTEX
  5
93
330
91
100
AcDbEntity
  8
Layer 05
100
AcDbVertex
100
AcDb2dVertex
 10
1807.013095884422
 20
-125.6259640145556
 30
0.0
  0
SEQEND
  5
94
330
91
100
AcDbEntity
  8
Layer 05
  0
POLYLINE
  5
95
330
1F
100
AcDbEntity
  8
Layer 05
100
AcDb2dPolyline
 66
     1
 10
0.0
 20
0.0
 30
0.0
  0
VERTEX
  5
96
330
95
100
AcDbEntity
  8
Layer 05
100
AcDbVertex
100
AcDb2dVertex
 10
1708.303593951773
 20
-269.5516780550931
 30
0.0
  0
VERTEX
  5
97
330
95
100
AcDbEntity
  8
Layer 05
100
AcDbVertex
100
AcDb2dVertex
 10
1801.702490424681
 20
-269.5516780550931
 30
0.0
  0
VERTEX
  5
98
330
95
100
AcDbEntity
  8
Layer 05
100
AcDbVertex
100
AcDb2dVertex
 10
1801.70249042468
 20
-403.4490986463899
 30
0.0
  0
SEQEND
  5
99
330
95
100
AcDbEntity
  8
Layer 05
  0
POLYLINE
  5
9A
330
1F
100
AcDbEntity
  8
Layer 05
100
AcDb2dPolyline
 66
     1
 10
0.0
 20
0.0
 30
0.0
  0
VERTEX
  5
9B
330
9A
100
AcDbEntity
  8
Layer 05
100
AcDbVertex
100
AcDb2dVertex
 10
1801.702490424681
 20
-300.2210805966382
 30
0.0
  0
VERTEX
  5
9C
330
9A
100
AcDbEntity
  8
Layer 05
100
AcDbVertex
100
AcDb2dVertex
 10
1792.901279636815
 20
-301.7265508629836
 30
0.0
  0
VERTEX
  5
9D
330
9A
100
AcDbEntity
  8
Layer 05
100
AcDbVertex
100
AcDb2dVertex
 10
1801.70249042468
 20
-302.6066719417701
 30
0.0
  0
SEQEND
  5
9E
330
9A
100
AcDbEntity
  8
Layer 05
  0
POLYLINE
  5
9F
330
1F
100
AcDbEntity
  8
Layer 05
100
AcDb2dPolyline
 66
     1
 10
0.0
 20
0.0
 30
0.0
  0
VERTEX
  5
A0
330
9F
100
AcDbEntity
  8
Layer 05
100
AcDbVertex
100
AcDb2dVertex
 10
1801.70249042468
 20
-305.5537919070902
 30
0.0
  0
VERTEX
  5
A1
330
9F
100
AcDbEntity
  8
Layer 05
100
AcDbVertex
100
AcDb2dVertex
 10
1792.605925435825
 20
-306.452218078829
 30
0.0
  0
VERTEX
  5
A2
330
9F
100
AcDbEntity
  8
Layer 05
100
AcDbVertex
100
AcDb2dVertex
 10
1801.70249042468
 20
-307.7517273629513
 30
0.0
  0
SEQEND
  5
A3
330
9F
100
AcDbEntity
  8
Layer 05
  0
POLYLINE
  5
A4
330
1F
100
AcDbEntity
  8
Layer 05
100
AcDb2dPolyline
 66
     1
 10
0.0
 20
0.0
 30
0.0
  0
VERTEX
  5
A5
330
A4
100
AcDbEntity
  8
Layer 05
100
AcDbVertex
100
AcDb2dVertex
 10
1801.702490424681
 20
-310.2469426292188
 30
0.0
  0
VERTEX
  5
A6
330
A4
100
AcDbEntity
  8
Layer 05
100
AcDbVertex
100
AcDb2dVertex
 10
1793.196633837806
 20
-310.5871768926938
 30
0.0
  0
VERTEX
  5
A7
330
A4
100
AcDbEntity
  8
Layer 05
100
AcDbVertex
100
AcDb2dVertex
 10
1801.702490424681
 20
-312.7435912386621
 30
0.0
  0
SEQEND
  5
A8
330
A4
100
AcDbEntity
  8
Layer 05
  0
LINE
  5
AB
330
1F
100
AcDbEntity
  8
Layer 01
100
AcDbLine
 10
1782.534892988722
 20
-390.7490986463899
 30
0.0
 11
1801.70249042468
 21
-390.7490986463899
 31
0.0
  0
LINE
  5
AD
330
1F
100
AcDbEntity
  8
Default
100
AcDbLine
 10
1782.534892988722
 20
-403.4490986463899
 30
0.0
 11
1801.70249042468
 21
-403.4490986463899
 31
0.0
  0
LINE
  5
AE
330
1F
100
AcDbEntity
  8
Default
100
AcDbLine
 10
1807.013095884422
 20
-44.7034364573219
 30
0.0
 11
1787.845498448464
 21
-44.7034364573219
 31
0.0
  0
LINE
  5
AF
330
1F
100
AcDbEntity
  8
Layer 01
100
AcDbLine
 10
1807.013095884422
 20
-57.4034364573219
 30
0.0
 11
1787.845498448464
 21
-57.4034364573219
 31
0.0
  0
LINE
  5
B0
330
1F
100
AcDbEntity
  8
Default
100
AcDbLine
 10
2165.986609775196
 20
-37.36415997103866
 30
0.0
 11
1888.154207211154
 21
-37.36415997103866
 31
0.0
  0
LINE
  5
B1
330
1F
100
AcDbEntity
  8
Layer 01
100
AcDbLine
 10
2165.986609775196
 20
-50.06415997103866
 30
0.0
 11
1888.154207211154
 21
-50.06415997103866
 31
0.0
  0
LINE
  5
B2
330
1F
100
AcDbEntity
  8
Layer 01
100
AcDbLine
 10
1888.154207211154
 20
-390.7490986463899
 30
0.0
 11
2165.986609775196
 21
-390.7490986463899
 31
0.0
  0
LINE
  5
B3
330
1F
100
AcDbEntity
  8
Default
100
AcDbLine
 10
1888.154207211154
 20
-403.4490986463899
 30
0.0
 11
2165.986609775196
 21
-403.4490986463899
 31
0.0
  0
POLYLINE
  5
B4
330
1F
100
AcDbEntity
  8
Layer 05
100
AcDb2dPolyline
 66
     1
 10
0.0
 20
0.0
 30
0.0
  0
VERTEX
  5
B5
330
B4
100
AcDbEntity
  8
Layer 05
100
AcDbVertex
100
AcDb2dVertex
 10
1888.154207211154
 20
-142.6002133900182
 30
0.0
  0
VERTEX
  5
B6
330
B4
100
AcDbEntity
  8
Layer 05
100
AcDbVertex
100
AcDb2dVertex
 10
1913.52995017607
 20
-145.655931129249
 30
0.0
  0
VERTEX
  5
B7
330
B4
100
AcDbEntity
  8
Layer 05
100
AcDbVertex
100
AcDb2dVertex
 10
1888.154207211154
 20
-148.2992376880944
 30
0.0
  0
SEQEND
  5
B8
330
B4
100
AcDbEntity
  8
Layer 05
  0
POLYLINE
  5
B9
330
1F
100
AcDbEntity
  8
Layer 05
100
AcDb2dPolyline
 66
     1
 10
0.0
 20
0.0
 30
0.0
  0
VERTEX
  5
BA
330
B9
100
AcDbEntity
  8
Layer 05
100
AcDbVertex
100
AcDb2dVertex
 10
1888.154207211154
 20
-133.3126409354591
 30
0.0
  0
VERTEX
  5
BB
330
B9
100
AcDbEntity
  8
Layer 05
100
AcDbVertex
100
AcDb2dVertex
 10
1910.419870439641
 20
-136.5649288227663
 30
0.0
  0
VERTEX
  5
BC
330
B9
100
AcDbEntity
  8
Layer 05
100
AcDbVertex
100
AcDb2dVertex
 10
1888.154207211154
 20
-138.4412487577511
 30
0.0
  0
SEQEND
  5
BD
330
B9
100
AcDbEntity
  8
Layer 05
  0
POLYLINE
  5
BE
330
1F
100
AcDbEntity
  8
Layer 05
100
AcDb2dPolyline
 66
     1
 10
0.0
 20
0.0
 30
0.0
  0
VERTEX
  5
BF
330
BE
100
AcDbEntity
  8
Layer 05
100
AcDbVertex
100
AcDb2dVertex
 10
1888.154207211154
 20
-127.6920287147153
 30
0.0
  0
VERTEX
  5
C0
330
BE
100
AcDbEntity
  8
Layer 05
100
AcDbVertex
100
AcDb2dVertex
 10
1908.266738314422
 20
-130.1055324471075
 30
0.0
  0
VERTEX
  5
C1
330
BE
100
AcDbEntity
  8
Layer 05
100
AcDbVertex
100
AcDb2dVertex
 10
1888.154207211154
 20
-130.2245415068901
 30
0.0
  0
SEQEND
  5
C2
330
BE
100
AcDbEntity
  8
Layer 05
  0
POLYLINE
  5
C3
330
1F
100
AcDbEntity
  8
Layer 05
100
AcDb2dPolyline
 66
     1
 10
0.0
 20
0.0
 30
0.0
  0
VERTEX
  5
C4
330
C3
100
AcDbEntity
  8
Layer 05
100
AcDbVertex
100
AcDb2dVertex
 10
1888.154207211154
 20
-118.2866875282724
 30
0.0
  0
VERTEX
  5
C5
330
C3
100
AcDbEntity
  8
Layer 05
100
AcDbVertex
100
AcDb2dVertex
 10
1907.070553800411
 20
-119.5791087238117
 30
0.0
  0
VERTEX
  5
C6
330
C3
100
AcDbEntity
  8
Layer 05
100
AcDbVertex
100
AcDb2dVertex
 10
1888.154207211154
 20
-122.1383791447112
 30
0.0
  0
SEQEND
  5
C7
330
C3
100
AcDbEntity
  8
Layer 05
  0
POLYLINE
  5
C8
330
1F
100
AcDbEntity
  8
Layer 05
100
AcDb2dPolyline
 66
     1
 10
0.0
 20
0.0
 30
0.0
  0
VERTEX
  5
C9
330
C8
100
AcDbEntity
  8
Layer 05
100
AcDbVertex
100
AcDb2dVertex
 10
1901.799915698554
 20
-297.8869462501091
 30
0.0
  0
VERTEX
  5
CA
330
C8
100
AcDbEntity
  8
Layer 05
100
AcDbVertex
100
AcDb2dVertex
 10
1888.154207211154
 20
-300.2210805966382
 30
0.0
  0
SEQEND
  5
CB
330
C8
100
AcDbEntity
  8
Layer 05
  0
POLYLINE
  5
CC
330
1F
100
AcDbEntity
  8
Layer 05
100
AcDb2dPolyline
 66
     1
 10
0.0
 20
0.0
 30
0.0
  0
VERTEX
  5
CD
330
CC
100
AcDbEntity
  8
Layer 05
100
AcDbVertex
100
AcDb2dVertex
 10
1888.154207211154
 20
-302.6066719417701
 30
0.0
  0
VERTEX
  5
CE
330
CC
100
AcDbEntity
  8
Layer 05
100
AcDbVertex
100
AcDb2dVertex
 10
1902.981332502516
 20
-304.0893844709063
 30
0.0
  0
VERTEX
  5
CF
330
CC
100
AcDbEntity
  8
Layer 05
100
AcDbVertex
100
AcDb2dVertex
 10
1888.154207211154
 20
-305.5537919070902
 30
0.0
  0
SEQEND
  5
D0
330
CC
100
AcDbEntity
  8
Layer 05
  0
POLYLINE
  5
D1
330
1F
100
AcDbEntity
  8
Layer 05
100
AcDb2dPolyline
 66
     1
 10
0.0
 20
0.0
 30
0.0
  0
VERTEX
  5
D2
330
D1
100
AcDbEntity
  8
Layer 05
100
AcDbVertex
100
AcDb2dVertex
 10
1888.154207211154
 20
-307.7517273629513
 30
0.0
  0
VERTEX
  5
D3
330
D1
100
AcDbEntity
  8
Layer 05
100
AcDbVertex
100
AcDb2dVertex
 10
1901.799915698554
 20
-309.7011142897228
 30
0.0
  0
VERTEX
  5
D4
330
D1
100
AcDbEntity
  8
Layer 05
100
AcDbVertex
100
AcDb2dVertex
 10
1888.154207211154
 20
-310.2469426292188
 30
0.0
  0
SEQEND
  5
D5
330
D1
100
AcDbEntity
  8
Layer 05
  0
POLYLINE
  5
D6
330
1F
100
AcDbEntity
  8
Layer 05
100
AcDb2dPolyline
 66
     1
 10
0.0
 20
0.0
 30
0.0
  0
VERTEX
  5
D7
330
D6
100
AcDbEntity
  8
Layer 05
100
AcDbVertex
100
AcDb2dVertex
 10
1888.154207211154
 20
-312.7435912386621
 30
0.0
  0
VERTEX
  5
D8
330
D6
100
AcDbEntity
  8
Layer 05
100
AcDbVertex
100
AcDb2dVertex
 10
1900.618498894593
 20
-315.90355251052
 30
0.0
  0
SEQEND
  5
D9
330
D6
100
AcDbEntity
  8
Layer 05
  0
LINE
  5
DA
330
1F
100
AcDbEntity
  8
Default
100
AcDbLine
 10
1708.303593951773
 20
-269.5516780550931
 30
0.0
 11
1708.303593951773
 21
-403.4490986463899
 31
0.0
  0
LINE
  5
DD
330
1F
100
AcDbEntity
  8
Layer 04
100
AcDbLine
 10
1746.403593951773
 20
-269.5516780550934
 30
0.0
 11
1746.403593951773
 21
-403.4490986463899
 31
0.0
  0
LINE
  5
DE
330
1F
100
AcDbEntity
  8
Layer 04
100
AcDbLine
 10
1721.003593951773
 20
-269.5516780550931
 30
0.0
 11
1721.003593951773
 21
-403.4490986463899
 31
0.0
  0
LINE
  5
DF
330
1F
100
AcDbEntity
  8
Default
100
AcDbLine
 10
1708.303593951773
 20
-403.4490986463899
 30
0.0
 11
1782.534892988722
 21
-403.4490986463899
 31
0.0
  0
LINE
  5
E0
330
1F
100
AcDbEntity
  8
Layer 01
100
AcDbLine
 10
1708.303593951773
 20
-390.7490986463899
 30
0.0
 11
1782.534892988722
 21
-390.7490986463899
 31
0.0
  0
LINE
  5
E1
330
1F
100
AcDbEntity
  8
Default
100
AcDbLine
 10
2433.292171240278
 20
-403.4490986463899
 30
0.0
 11
2433.292171240278
 21
-269.5516780550944
 31
0.0
  0
LINE
  5
E2
330
1F
100
AcDbEntity
  8
Layer 01
100
AcDbLine
 10
2420.592171240278
 20
-403.4490986463899
 30
0.0
 11
2420.592171240278
 21
-269.5516780550942
 31
0.0
  0
POLYLINE
  5
E3
330
1F
100
AcDbEntity
  8
Layer 05
100
AcDb2dPolyline
 66
     1
 10
0.0
 20
0.0
 30
0.0
  0
VERTEX
  5
E4
330
E3
100
AcDbEntity
  8
Layer 05
100
AcDbVertex
100
AcDb2dVertex
 10
2357.457746874607
 20
-269.5516780550942
 30
0.0
  0
VERTEX
  5
E5
330
E3
100
AcDbEntity
  8
Layer 05
100
AcDbVertex
100
AcDb2dVertex
 10
2353.43133290578
 20
-293.710161868056
 30
0.0
  0
VERTEX
  5
E6
330
E3
100
AcDbEntity
  8
Layer 05
100
AcDbVertex
100
AcDb2dVertex
 10
2350.842923925819
 20
-269.5516780550942
 30
0.0
  0
SEQEND
  5
E7
330
E3
100
AcDbEntity
  8
Layer 05
  0
LINE
  5
E8
330
1F
100
AcDbEntity
  8
Default
100
AcDbLine
 10
2203.723470277228
 20
-403.4490986463899
 30
0.0
 11
2433.292171240278
 21
-403.4490986463899
 31
0.0
  0
LINE
  5
E9
330
1F
100
AcDbEntity
  8
Layer 01
100
AcDbLine
 10
2203.723470277228
 20
-390.7490986463899
 30
0.0
 11
2433.292171240278
 21
-390.7490986463899
 31
0.0
  0
POLYLINE
  5
EA
330
1F
100
AcDbEntity
  8
Layer 05
100
AcDb2dPolyline
 66
     1
 10
0.0
 20
0.0
 30
0.0
  0
VERTEX
  5
EB
330
EA
100
AcDbEntity
  8
Layer 05
100
AcDbVertex
100
AcDb2dVertex
 10
2211.432198414314
 20
-348.2895973361369
 30
0.0
  0
VERTEX
  5
EC
330
EA
100
AcDbEntity
  8
Layer 05
100
AcDbVertex
100
AcDb2dVertex
 10
2203.723470277227
 20
-350.2167793704086
 30
0.0
  0
SEQEND
  5
ED
330
EA
100
AcDbEntity
  8
Layer 05
  0
POLYLINE
  5
EE
330
1F
100
AcDbEntity
  8
Layer 05
100
AcDb2dPolyline
 66
     1
 10
0.0
 20
0.0
 30
0.0
  0
VERTEX
  5
EF
330
EE
100
AcDbEntity
  8
Layer 05
100
AcDbVertex
100
AcDb2dVertex
 10
2203.723470277227
 20
-358.4890847363737
 30
0.0
  0
VERTEX
  5
F0
330
EE
100
AcDbEntity
  8
Layer 05
100
AcDbVertex
100
AcDb2dVertex
 10
2212.804447887116
 20
-360.6398425913472
 30
0.0
  0
VERTEX
  5
F1
330
EE
100
AcDbEntity
  8
Layer 05
100
AcDbVertex
100
AcDb2dVertex
 10
2203.723470277227
 20
-362.5026072292731
 30
0.0
  0
SEQEND
  5
F2
330
EE
100
AcDbEntity
  8
Layer 05
  0
POLYLINE
  5
F3
330
1F
100
AcDbEntity
  8
Layer 05
100
AcDb2dPolyline
 66
     1
 10
0.0
 20
0.0
 30
0.0
  0
VERTEX
  5
F4
330
F3
100
AcDbEntity
  8
Layer 05
100
AcDbVertex
100
AcDb2dVertex
 10
2203.723470277228
 20
-370.8465138991248
 30
0.0
  0
VERTEX
  5
F5
330
F3
100
AcDbEntity
  8
Layer 05
100
AcDbVertex
100
AcDb2dVertex
 10
2217.607321041919
 20
-374.5516780550939
 30
0.0
  0
SEQEND
  5
F6
330
F3
100
AcDbEntity
  8
Layer 05
  0
POLYLINE
  5
F7
330
1F
100
AcDbEntity
  8
Layer 05
100
AcDb2dPolyline
 66
     1
 10
0.0
 20
0.0
 30
0.0
  0
VERTEX
  5
F8
330
F7
100
AcDbEntity
  8
Layer 05
100
AcDbVertex
100
AcDb2dVertex
 10
2202.111077146686
 20
-159.0257330415127
 30
0.0
  0
VERTEX
  5
F9
330
F7
100
AcDbEntity
  8
Layer 05
100
AcDbVertex
100
AcDb2dVertex
 10
2228.759425628837
 20
-160.6119442606883
 30
0.0
  0
VERTEX
  5
FA
330
F7
100
AcDbEntity
  8
Layer 05
100
AcDbVertex
100
AcDb2dVertex
 10
2202.111077146686
 20
-163.857576447617
 30
0.0
  0
SEQEND
  5
FB
330
F7
100
AcDbEntity
  8
Layer 05
  0
POLYLINE
  5
FC
330
1F
100
AcDbEntity
  8
Layer 05
100
AcDb2dPolyline
 66
     1
 10
0.0
 20
0.0
 30
0.0
  0
VERTEX
  5
FD
330
FC
100
AcDbEntity
  8
Layer 05
100
AcDbVertex
100
AcDb2dVertex
 10
2202.111077146686
 20
-147.0073162563712
 30
0.0
  0
VERTEX
  5
FE
330
FC
100
AcDbEntity
  8
Layer 05
100
AcDbVertex
100
AcDb2dVertex
 10
2230.217964892987
 20
-148.2143605154147
 30
0.0
  0
VERTEX
  5
FF
330
FC
100
AcDbEntity
  8
Layer 05
100
AcDbVertex
100
AcDb2dVertex
 10
2202.111077146686
 20
-152.136251828852
 30
0.0
  0
SEQEND
  5
100
330
FC
100
AcDbEntity
  8
Layer 05
  0
POLYLINE
  5
101
330
1F
100
AcDbEntity
  8
Layer 05
100
AcDb2dPolyline
 66
     1
 10
0.0
 20
0.0
 30
0.0
  0
VERTEX
  5
102
330
101
100
AcDbEntity
  8
Layer 05
100
AcDbVertex
100
AcDb2dVertex
 10
2202.111077146686
 20
-137.6021873113363
 30
0.0
  0
VERTEX
  5
103
330
101
100
AcDbEntity
  8
Layer 05
100
AcDbVertex
100
AcDb2dVertex
 10
2231.311869341099
 20
-140.5570293786281
 30
0.0
  0
VERTEX
  5
104
330
101
100
AcDbEntity
  8
Layer 05
100
AcDbVertex
100
AcDb2dVertex
 10
2202.111077146686
 20
-143.0197467926147
 30
0.0
  0
SEQEND
  5
105
330
101
100
AcDbEntity
  8
Layer 05
  0
POLYLINE
  5
106
330
1F
100
AcDbEntity
  8
Layer 05
100
AcDb2dPolyline
 66
     1
 10
0.0
 20
0.0
 30
0.0
  0
VERTEX
  5
107
330
106
100
AcDbEntity
  8
Layer 05
100
AcDbVertex
100
AcDb2dVertex
 10
2202.111077146687
 20
-127.080962681928
 30
0.0
  0
VERTEX
  5
108
330
106
100
AcDbEntity
  8
Layer 05
100
AcDbVertex
100
AcDb2dVertex
 10
2225.842347100538
 20
-128.524080449392
 30
0.0
  0
VERTEX
  5
109
330
106
100
AcDbEntity
  8
Layer 05
100
AcDbVertex
100
AcDb2dVertex
 10
2202.111077146686
 20
-131.0057818824744
 30
0.0
  0
SEQEND
  5
10A
330
106
100
AcDbEntity
  8
Layer 05
  0
POLYLINE
  5
10B
330
1F
100
AcDbEntity
  8
Layer 05
100
AcDb2dPolyline
 66
     1
 10
0.0
 20
0.0
 30
0.0
  0
VERTEX
  5
10C
330
10B
100
AcDbEntity
  8
Layer 05
100
AcDbVertex
100
AcDb2dVertex
 10
2202.111077146686
 20
-117.7054041653232
 30
0.0
  0
VERTEX
  5
10D
330
10B
100
AcDbEntity
  8
Layer 05
100
AcDbVertex
100
AcDb2dVertex
 10
2226.93625154865
 20
-118.6789404163806
 30
0.0
  0
VERTEX
  5
10E
330
10B
100
AcDbEntity
  8
Layer 05
100
AcDbVertex
100
AcDb2dVertex
 10
2202.111077146686
 20
-121.6382327291974
 30
0.0
  0
SEQEND
  5
10F
330
10B
100
AcDbEntity
  8
Layer 05
  0
POLYLINE
  5
110
330
1F
100
AcDbEntity
  8
Layer 05
100
AcDb2dPolyline
 66
     1
 10
0.0
 20
0.0
 30
0.0
  0
VERTEX
  5
111
330
110
100
AcDbEntity
  8
Layer 05
100
AcDbVertex
100
AcDb2dVertex
 10
2349.230530795278
 20
-228.981122391728
 30
0.0
  0
VERTEX
  5
112
330
110
100
AcDbEntity
  8
Layer 05
100
AcDbVertex
100
AcDb2dVertex
 10
2346.736534320419
 20
-205.7038219597118
 30
0.0
  0
SEQEND
  5
113
330
110
100
AcDbEntity
  8
Layer 05
  0
POLYLINE
  5
114
330
1F
100
AcDbEntity
  8
Layer 05
100
AcDb2dPolyline
 66
     1
 10
0.0
 20
0.0
 30
0.0
  0
VERTEX
  5
115
330
114
100
AcDbEntity
  8
Layer 05
100
AcDbVertex
100
AcDb2dVertex
 10
2359.442547957467
 20
-207.3979571113181
 30
0.0
  0
VERTEX
  5
116
330
114
100
AcDbEntity
  8
Layer 05
100
AcDbVertex
100
AcDb2dVertex
 10
2355.845353744065
 20
-228.9811223917281
 30
0.0
  0
SEQEND
  5
117
330
114
100
AcDbEntity
  8
Layer 05
  0
LINE
  5
118
330
1F
100
AcDbEntity
  8
Layer 01
100
AcDbLine
 10
2418.979778109737
 20
-228.981122391728
 30
0.0
 11
2418.979778109737
 21
-37.47854298302383
 31
0.0
  0
LINE
  5
119
330
1F
100
AcDbEntity
  8
Default
100
AcDbLine
 10
2431.679778109737
 20
-228.9811223917283
 30
0.0
 11
2431.679778109737
 21
-37.47854298302381
 31
0.0
  0
LINE
  5
11A
330
1F
100
AcDbEntity
  8
Layer 01
100
AcDbLine
 10
2431.679778109737
 20
-50.17854298302382
 30
0.0
 11
2202.111077146687
 21
-50.17854298302382
 31
0.0
  0
LINE
  5
11B
330
1F
100
AcDbEntity
  8
Default
100
AcDbLine
 10
2431.679778109737
 20
-37.47854298302381
 30
0.0
 11
2202.111077146687
 21
-37.47854298302381
 31
0.0
  0
MTEXT
  5
11C
330
1F
100
AcDbEntity
  8
Layer 03
100
AcDbMText
 10
1887.622921488517
 20
-80.34653355344409
 30
0.0
 40
20.86085821262528
 41
487.2824380318667
 46
14.80667436178729
 71
     1
 72
     1
  1
Inner Bottom (1x)
  7
Millimeter Small
 73
     1
 44
1.0
1001
ACAD
1000
ACAD_MTEXT_DEFINED_HEIGHT_BEGIN
1070
    46
1040
14.80667436178729
1000
ACAD_MTEXT_DEFINED_HEIGHT_END
  0
POLYLINE
  5
11D
330
1F
100
AcDbEntity
  8
Layer 05
100
AcDb2dPolyline
 66
     1
 10
0.0
 20
0.0
 30
0.0
  0
VERTEX
  5
11E
330
11D
100
AcDbEntity
  8
Layer 05
100
AcDbVertex
100
AcDb2dVertex
 10
2135.022657323428
 20
-116.3767485081707
 30
0.0
  0
VERTEX
  5
11F
330
11D
100
AcDbEntity
  8
Layer 05
100
AcDbVertex
100
AcDb2dVertex
 10
2165.986609775196
 20
-117.591021153338
 30
0.0
  0
SEQEND
  5
120
330
11D
100
AcDbEntity
  8
Layer 05
  0
POLYLINE
  5
121
330
1F
100
AcDbEntity
  8
Layer 05
100
AcDb2dPolyline
 66
     1
 10
0.0
 20
0.0
 30
0.0
  0
VERTEX
  5
122
330
121
100
AcDbEntity
  8
Layer 05
100
AcDbVertex
100
AcDb2dVertex
 10
2165.986609775196
 20
-121.5238497172123
 30
0.0
  0
VERTEX
  5
123
330
121
100
AcDbEntity
  8
Layer 05
100
AcDbVertex
100
AcDb2dVertex
 10
2135.751926955503
 20
-125.1279840930697
 30
0.0
  0
VERTEX
  5
124
330
121
100
AcDbEntity
  8
Layer 05
100
AcDbVertex
100
AcDb2dVertex
 10
2165.986609775196
 20
-126.9665796699429
 30
0.0
  0
SEQEND
  5
125
330
121
100
AcDbEntity
  8
Layer 05
  0
POLYLINE
  5
126
330
1F
100
AcDbEntity
  8
Layer 05
100
AcDb2dPolyline
 66
     1
 10
0.0
 20
0.0
 30
0.0
  0
VERTEX
  5
127
330
126
100
AcDbEntity
  8
Layer 05
100
AcDbVertex
100
AcDb2dVertex
 10
2165.986609775196
 20
-130.8913988704893
 30
0.0
  0
VERTEX
  5
128
330
126
100
AcDbEntity
  8
Layer 05
100
AcDbVertex
100
AcDb2dVertex
 10
2133.928752875316
 20
-134.2438544940061
 30
0.0
  0
VERTEX
  5
129
330
126
100
AcDbEntity
  8
Layer 05
100
AcDbVertex
100
AcDb2dVertex
 10
2165.986609775196
 20
-137.4878042993512
 30
0.0
  0
SEQEND
  5
12A
330
126
100
AcDbEntity
  8
Layer 05
  0
POLYLINE
  5
12B
330
1F
100
AcDbEntity
  8
Layer 05
100
AcDb2dPolyline
 66
     1
 10
0.0
 20
0.0
 30
0.0
  0
VERTEX
  5
12C
330
12B
100
AcDbEntity
  8
Layer 05
100
AcDbVertex
100
AcDb2dVertex
 10
2165.986609775196
 20
-142.9053637806296
 30
0.0
  0
VERTEX
  5
12D
330
12B
100
AcDbEntity
  8
Layer 05
100
AcDbVertex
100
AcDb2dVertex
 10
2134.658022507391
 20
-145.5475337911674
 30
0.0
  0
VERTEX
  5
12E
330
12B
100
AcDbEntity
  8
Layer 05
100
AcDbVertex
100
AcDb2dVertex
 10
2165.986609775196
 20
-146.892933244386
 30
0.0
  0
SEQEND
  5
12F
330
12B
100
AcDbEntity
  8
Layer 05
  0
POLYLINE
  5
130
330
1F
100
AcDbEntity
  8
Layer 05
100
AcDb2dPolyline
 66
     1
 10
0.0
 20
0.0
 30
0.0
  0
VERTEX
  5
131
330
130
100
AcDbEntity
  8
Layer 05
100
AcDbVertex
100
AcDb2dVertex
 10
2165.986609775196
 20
-152.0218688168669
 30
0.0
  0
VERTEX
  5
132
330
130
100
AcDbEntity
  8
Layer 05
100
AcDbVertex
100
AcDb2dVertex
 10
2131.376309163054
 20
-156.8512130883286
 30
0.0
  0
VERTEX
  5
133
330
130
100
AcDbEntity
  8
Layer 05
100
AcDbVertex
100
AcDb2dVertex
 10
2165.986609775196
 20
-158.9113500295275
 30
0.0
  0
SEQEND
  5
134
330
130
100
AcDbEntity
  8
Layer 05
  0
POLYLINE
  5
135
330
1F
100
AcDbEntity
  8
Layer 05
100
AcDb2dPolyline
 66
     1
 10
0.0
 20
0.0
 30
0.0
  0
VERTEX
  5
136
330
135
100
AcDbEntity
  8
Layer 05
100
AcDbVertex
100
AcDb2dVertex
 10
2165.986609775196
 20
-163.7431934356318
 30
0.0
  0
VERTEX
  5
137
330
135
100
AcDbEntity
  8
Layer 05
100
AcDbVertex
100
AcDb2dVertex
 10
2135.751926955503
 20
-167.4256227534149
 30
0.0
  0
SEQEND
  5
138
330
135
100
AcDbEntity
  8
Layer 05
  0
LINE
  5
139
330
1F
100
AcDbEntity
  8
Layer 04
100
AcDbLine
 10
1726.314199411514
 20
-44.7034364573219
 30
0.0
 11
1726.314199411514
 21
-236.2060158660251
 31
0.0
  0
LINE
  5
13A
330
1F
100
AcDbEntity
  8
Layer 04
100
AcDbLine
 10
1751.714199411515
 20
-44.7034364573219
 30
0.0
 11
1751.714199411515
 21
-236.2060158660253
 31
0.0
  0
LINE
  5
13B
330
1F
100
AcDbEntity
  8
Default
100
AcDbLine
 10
1713.614199411515
 20
-44.7034364573219
 30
0.0
 11
1713.614199411515
 21
-236.2060158660251
 31
0.0
  0
LINE
  5
13C
330
1F
100
AcDbEntity
  8
Layer 01
100
AcDbLine
 10
1787.845498448464
 20
-57.4034364573219
 30
0.0
 11
1713.614199411515
 21
-57.4034364573219
 31
0.0
  0
LINE
  5
13D
330
1F
100
AcDbEntity
  8
Default
100
AcDbLine
 10
1787.845498448464
 20
-44.7034364573219
 30
0.0
 11
1713.614199411515
 21
-44.7034364573219
 31
0.0
  0
POLYLINE
  5
13E
330
1F
100
AcDbEntity
  8
Layer 05
100
AcDb2dPolyline
 66
     1
 10
0.0
 20
0.0
 30
0.0
  0
VERTEX
  5
13F
330
13E
100
AcDbEntity
  8
Layer 05
100
AcDbVertex
100
AcDb2dVertex
 10
2165.986609775195
 20
-362.5026072292731
 30
0.0
  0
VERTEX
  5
140
330
13E
100
AcDbEntity
  8
Layer 05
100
AcDbVertex
100
AcDb2dVertex
 10
2148.308722665461
 20
-366.1288404825519
 30
0.0
  0
VERTEX
  5
141
330
13E
100
AcDbEntity
  8
Layer 05
100
AcDbVertex
100
AcDb2dVertex
 10
2165.986609775196
 20
-370.8465138991248
 30
0.0
  0
SEQEND
  5
142
330
13E
100
AcDbEntity
  8
Layer 05
  0
POLYLINE
  5
143
330
1F
100
AcDbEntity
  8
Layer 05
100
AcDb2dPolyline
 66
     1
 10
0.0
 20
0.0
 30
0.0
  0
VERTEX
  5
144
330
143
100
AcDbEntity
  8
Layer 05
100
AcDbVertex
100
AcDb2dVertex
 10
2165.986609775195
 20
-350.2167793704086
 30
0.0
  0
VERTEX
  5
145
330
143
100
AcDbEntity
  8
Layer 05
100
AcDbVertex
100
AcDb2dVertex
 10
2148.994847401862
 20
-354.4647199637421
 30
0.0
  0
VERTEX
  5
146
330
143
100
AcDbEntity
  8
Layer 05
100
AcDbVertex
100
AcDb2dVertex
 10
2165.986609775195
 20
-358.4890847363737
 30
0.0
  0
SEQEND
  5
147
330
143
100
AcDbEntity
  8
Layer 05
  0
POLYLINE
  5
148
330
1F
100
AcDbEntity
  8
Layer 05
100
AcDb2dPolyline
 66
     1
 10
0.0
 20
0.0
 30
0.0
  0
VERTEX
  5
149
330
148
100
AcDbEntity
  8
Layer 05
100
AcDbVertex
100
AcDb2dVertex
 10
2357.75324829116
 20
-1173.903369799724
 30
0.0
  0
VERTEX
  5
14A
330
148
100
AcDbEntity
  8
Layer 05
100
AcDbVertex
100
AcDb2dVertex
 10
2357.75324829116
 20
-1036.004424156364
 30
0.0
  0
VERTEX
  5
14B
330
148
100
AcDbEntity
  8
Layer 05
100
AcDbVertex
100
AcDb2dVertex
 10
2164.379268541202
 20
-1036.004424156364
 30
0.0
  0
SEQEND
  5
14C
330
148
100
AcDbEntity
  8
Layer 05
  0
POLYLINE
  5
14D
330
1F
100
AcDbEntity
  8
Layer 05
100
AcDb2dPolyline
 66
     1
 10
0.0
 20
0.0
 30
0.0
  0
VERTEX
  5
14E
330
14D
100
AcDbEntity
  8
Layer 05
100
AcDbVertex
100
AcDb2dVertex
 10
2621.921810366497
 20
-1036.004424156364
 30
0.0
  0
VERTEX
  5
14F
330
14D
100
AcDbEntity
  8
Layer 05
100
AcDbVertex
100
AcDb2dVertex
 10
2489.895790116456
 20
-1036.004424156364
 30
0.0
  0
VERTEX
  5
150
330
14D
100
AcDbEntity
  8
Layer 05
100
AcDbVertex
100
AcDb2dVertex
 10
2489.895790116456
 20
-1173.903369799724
 30
0.0
  0
SEQEND
  5
151
330
14D
100
AcDbEntity
  8
Layer 05
  0
POLYLINE
  5
152
330
1F
100
AcDbEntity
  8
Layer 05
100
AcDb2dPolyline
 66
     1
 10
0.0
 20
0.0
 30
0.0
  0
VERTEX
  5
153
330
152
100
AcDbEntity
  8
Layer 05
100
AcDbVertex
100
AcDb2dVertex
 10
2433.989330113447
 20
-679.7039247958344
 30
0.0
  0
VERTEX
  5
154
330
152
100
AcDbEntity
  8
Layer 05
100
AcDbVertex
100
AcDb2dVertex
 10
2433.989330113447
 20
-967.2049791524739
 30
0.0
  0
VERTEX
  5
155
330
152
100
AcDbEntity
  8
Layer 05
100
AcDbVertex
100
AcDb2dVertex
 10
2566.015350363487
 20
-967.2049791524739
 30
0.0
  0
SEQEND
  5
156
330
152
100
AcDbEntity
  8
Layer 05
  0
POLYLINE
  5
157
330
1F
100
AcDbEntity
  8
Layer 05
100
AcDb2dPolyline
 66
     1
 10
0.0
 20
0.0
 30
0.0
  0
VERTEX
  5
158
330
157
100
AcDbEntity
  8
Layer 05
100
AcDbVertex
100
AcDb2dVertex
 10
2375.541667383028
 20
-678.0097896442279
 30
0.0
  0
VERTEX
  5
159
330
157
100
AcDbEntity
  8
Layer 05
100
AcDbVertex
100
AcDb2dVertex
 10
2375.541667383028
 20
-965.5108440008675
 30
0.0
  0
VERTEX
  5
15A
330
157
100
AcDbEntity
  8
Layer 05
100
AcDbVertex
100
AcDb2dVertex
 10
2182.167687633068
 20
-965.5108440008675
 30
0.0
  0
SEQEND
  5
15B
330
157
100
AcDbEntity
  8
Layer 05
  0
POLYLINE
  5
15C
330
1F
100
AcDbEntity
  8
Layer 01
100
AcDb2dPolyline
 66
     1
 10
0.0
 20
0.0
 30
0.0
  0
VERTEX
  5
15D
330
15C
100
AcDbEntity
  8
Layer 01
100
AcDbVertex
100
AcDb2dVertex
 10
2177.079268541202
 20
-1036.004424156363
 30
0.0
  0
VERTEX
  5
15E
330
15C
100
AcDbEntity
  8
Layer 01
100
AcDbVertex
100
AcDb2dVertex
 10
2177.079268541202
 20
-1161.203369799724
 30
0.0
  0
VERTEX
  5
15F
330
15C
100
AcDbEntity
  8
Layer 01
100
AcDbVertex
100
AcDb2dVertex
 10
2357.753248291161
 20
-1161.203369799724
 30
0.0
  0
SEQEND
  5
160
330
15C
100
AcDbEntity
  8
Layer 01
  0
POLYLINE
  5
161
330
1F
100
AcDbEntity
  8
Default
100
AcDb2dPolyline
 66
     1
 10
0.0
 20
0.0
 30
0.0
  0
VERTEX
  5
162
330
161
100
AcDbEntity
  8
Default
100
AcDbVertex
100
AcDb2dVertex
 10
2164.379268541202
 20
-1036.004424156364
 30
0.0
  0
VERTEX
  5
163
330
161
100
AcDbEntity
  8
Default
100
AcDbVertex
100
AcDb2dVertex
 10
2164.379268541202
 20
-1173.903369799724
 30
0.0
  0
VERTEX
  5
164
330
161
100
AcDbEntity
  8
Default
100
AcDbVertex
100
AcDb2dVertex
 10
2357.75324829116
 20
-1173.903369799724
 30
0.0
  0
SEQEND
  5
165
330
161
100
AcDbEntity
  8
Default
  0
POLYLINE
  5
166
330
1F
100
AcDbEntity
  8
Layer 05
100
AcDb2dPolyline
 66
     1
 10
0.0
 20
0.0
 30
0.0
  0
VERTEX
  5
167
330
166
100
AcDbEntity
  8
Layer 05
100
AcDbVertex
100
AcDb2dVertex
 10
2357.753248291161
 20
-1096.841013580373
 30
0.0
  0
VERTEX
  5
168
330
166
100
AcDbEntity
  8
Layer 05
100
AcDbVertex
100
AcDb2dVertex
 10
2332.389332372493
 20
-1105.057493385012
 30
0.0
  0
VERTEX
  5
169
330
166
100
AcDbEntity
  8
Layer 05
100
AcDbVertex
100
AcDb2dVertex
 10
2357.753248291161
 20
-1109.609991114003
 30
0.0
  0
SEQEND
  5
16A
330
166
100
AcDbEntity
  8
Layer 05
  0
POLYLINE
  5
16B
330
1F
100
AcDbEntity
  8
Layer 05
100
AcDb2dPolyline
 66
     1
 10
0.0
 20
0.0
 30
0.0
  0
VERTEX
  5
16C
330
16B
100
AcDbEntity
  8
Layer 05
100
AcDbVertex
100
AcDb2dVertex
 10
2357.753248291161
 20
-1117.388682154464
 30
0.0
  0
VERTEX
  5
16D
330
16B
100
AcDbEntity
  8
Layer 05
100
AcDbVertex
100
AcDb2dVertex
 10
2329.610527190071
 20
-1124.509129661968
 30
0.0
  0
VERTEX
  5
16E
330
16B
100
AcDbEntity
  8
Layer 05
100
AcDbVertex
100
AcDb2dVertex
 10
2357.753248291161
 20
-1129.496447325452
 30
0.0
  0
SEQEND
  5
16F
330
16B
100
AcDbEntity
  8
Layer 05
  0
POLYLINE
  5
170
330
1F
100
AcDbEntity
  8
Layer 05
100
AcDb2dPolyline
 66
     1
 10
0.0
 20
0.0
 30
0.0
  0
VERTEX
  5
171
330
170
100
AcDbEntity
  8
Layer 05
100
AcDbVertex
100
AcDb2dVertex
 10
2205.12005501755
 20
-1059.485088393285
 30
0.0
  0
VERTEX
  5
172
330
170
100
AcDbEntity
  8
Layer 05
100
AcDbVertex
100
AcDb2dVertex
 10
2211.903358019328
 20
-1036.004424156364
 30
0.0
  0
SEQEND
  5
173
330
170
100
AcDbEntity
  8
Layer 05
  0
POLYLINE
  5
174
330
1F
100
AcDbEntity
  8
Layer 05
100
AcDb2dPolyline
 66
     1
 10
0.0
 20
0.0
 30
0.0
  0
VERTEX
  5
175
330
174
100
AcDbEntity
  8
Layer 05
100
AcDbVertex
100
AcDb2dVertex
 10
2225.498505902107
 20
-1036.004424156364
 30
0.0
  0
VERTEX
  5
176
330
174
100
AcDbEntity
  8
Layer 05
100
AcDbVertex
100
AcDb2dVertex
 10
2231.24082373232
 20
-1061.708132539223
 30
0.0
  0
VERTEX
  5
177
330
174
100
AcDbEntity
  8
Layer 05
100
AcDbVertex
100
AcDb2dVertex
 10
2236.952758928512
 20
-1036.004424156364
 30
0.0
  0
SEQEND
  5
178
330
174
100
AcDbEntity
  8
Layer 05
  0
POLYLINE
  5
179
330
1F
100
AcDbEntity
  8
Layer 05
100
AcDb2dPolyline
 66
     1
 10
0.0
 20
0.0
 30
0.0
  0
VERTEX
  5
17A
330
179
100
AcDbEntity
  8
Layer 05
100
AcDbVertex
100
AcDb2dVertex
 10
2248.0010666735
 20
-1036.004424156364
 30
0.0
  0
VERTEX
  5
17B
330
179
100
AcDbEntity
  8
Layer 05
100
AcDbVertex
100
AcDb2dVertex
 10
2251.803982082246
 20
-1060.596610466255
 30
0.0
  0
VERTEX
  5
17C
330
179
100
AcDbEntity
  8
Layer 05
100
AcDbVertex
100
AcDb2dVertex
 10
2258.007416466723
 20
-1036.004424156364
 30
0.0
  0
SEQEND
  5
17D
330
179
100
AcDbEntity
  8
Layer 05
  0
POLYLINE
  5
17E
330
1F
100
AcDbEntity
  8
Layer 05
100
AcDb2dPolyline
 66
     1
 10
0.0
 20
0.0
 30
0.0
  0
VERTEX
  5
17F
330
17E
100
AcDbEntity
  8
Layer 05
100
AcDbVertex
100
AcDb2dVertex
 10
2272.246513306427
 20
-1036.004424156364
 30
0.0
  0
VERTEX
  5
180
330
17E
100
AcDbEntity
  8
Layer 05
100
AcDbVertex
100
AcDb2dVertex
 10
2275.701706651078
 20
-1062.263893575708
 30
0.0
  0
SEQEND
  5
181
330
17E
100
AcDbEntity
  8
Layer 05
  0
POLYLINE
  5
182
330
1F
100
AcDbEntity
  8
Layer 01
100
AcDb2dPolyline
 66
     1
 10
0.0
 20
0.0
 30
0.0
  0
VERTEX
  5
183
330
182
100
AcDbEntity
  8
Layer 01
100
AcDbVertex
100
AcDb2dVertex
 10
2489.895790116456
 20
-1161.203369799724
 30
0.0
  0
VERTEX
  5
184
330
182
100
AcDbEntity
  8
Layer 01
100
AcDbVertex
100
AcDb2dVertex
 10
2609.221810366497
 20
-1161.203369799724
 30
0.0
  0
VERTEX
  5
185
330
182
100
AcDbEntity
  8
Layer 01
100
AcDbVertex
100
AcDb2dVertex
 10
2609.221810366497
 20
-1036.004424156363
 30
0.0
  0
SEQEND
  5
186
330
182
100
AcDbEntity
  8
Layer 01
  0
POLYLINE
  5
187
330
1F
100
AcDbEntity
  8
Default
100
AcDb2dPolyline
 66
     1
 10
0.0
 20
0.0
 30
0.0
  0
VERTEX
  5
188
330
187
100
AcDbEntity
  8
Default
100
AcDbVertex
100
AcDb2dVertex
 10
2489.895790116456
 20
-1173.903369799724
 30
0.0
  0
VERTEX
  5
189
330
187
100
AcDbEntity
  8
Default
100
AcDbVertex
100
AcDb2dVertex
 10
2621.921810366497
 20
-1173.903369799724
 30
0.0
  0
VERTEX
  5
18A
330
187
100
AcDbEntity
  8
Default
100
AcDbVertex
100
AcDb2dVertex
 10
2621.921810366497
 20
-1036.004424156364
 30
0.0
  0
SEQEND
  5
18B
330
187
100
AcDbEntity
  8
Default
  0
POLYLINE
  5
18C
330
1F
100
AcDbEntity
  8
Layer 05
100
AcDb2dPolyline
 66
     1
 10
0.0
 20
0.0
 30
0.0
  0
VERTEX
  5
18D
330
18C
100
AcDbEntity
  8
Layer 05
100
AcDbVertex
100
AcDb2dVertex
 10
2575.769174031308
 20
-1036.004424156364
 30
0.0
  0
VERTEX
  5
18E
330
18C
100
AcDbEntity
  8
Layer 05
100
AcDbVertex
100
AcDb2dVertex
 10
2565.124621801478
 20
-1075.602158451335
 30
0.0
  0
VERTEX
  5
18F
330
18C
100
AcDbEntity
  8
Layer 05
100
AcDbVertex
100
AcDb2dVertex
 10
2559.258290794815
 20
-1036.004424156364
 30
0.0
  0
SEQEND
  5
190
330
18C
100
AcDbEntity
  8
Layer 05
  0
POLYLINE
  5
191
330
1F
100
AcDbEntity
  8
Layer 05
100
AcDb2dPolyline
 66
     1
 10
0.0
 20
0.0
 30
0.0
  0
VERTEX
  5
192
330
191
100
AcDbEntity
  8
Layer 05
100
AcDbVertex
100
AcDb2dVertex
 10
2503.990907788186
 20
-1092.274989545869
 30
0.0
  0
VERTEX
  5
193
330
191
100
AcDbEntity
  8
Layer 05
100
AcDbVertex
100
AcDb2dVertex
 10
2489.895790116456
 20
-1096.841013580373
 30
0.0
  0
SEQEND
  5
194
330
191
100
AcDbEntity
  8
Layer 05
  0
POLYLINE
  5
195
330
1F
100
AcDbEntity
  8
Layer 05
100
AcDb2dPolyline
 66
     1
 10
0.0
 20
0.0
 30
0.0
  0
VERTEX
  5
196
330
195
100
AcDbEntity
  8
Layer 05
100
AcDbVertex
100
AcDb2dVertex
 10
2489.895790116456
 20
-1109.609991114003
 30
0.0
  0
VERTEX
  5
197
330
195
100
AcDbEntity
  8
Layer 05
100
AcDbVertex
100
AcDb2dVertex
 10
2507.881235043577
 20
-1112.838147895794
 30
0.0
  0
VERTEX
  5
198
330
195
100
AcDbEntity
  8
Layer 05
100
AcDbVertex
100
AcDb2dVertex
 10
2489.895790116456
 20
-1117.388682154464
 30
0.0
  0
SEQEND
  5
199
330
195
100
AcDbEntity
  8
Layer 05
  0
POLYLINE
  5
19A
330
1F
100
AcDbEntity
  8
Layer 05
100
AcDb2dPolyline
 66
     1
 10
0.0
 20
0.0
 30
0.0
  0
VERTEX
  5
19B
330
19A
100
AcDbEntity
  8
Layer 05
100
AcDbVertex
100
AcDb2dVertex
 10
2489.895790116456
 20
-1129.496447325452
 30
0.0
  0
VERTEX
  5
19C
330
19A
100
AcDbEntity
  8
Layer 05
100
AcDbVertex
100
AcDb2dVertex
 10
2505.65819089764
 20
-1132.289784172751
 30
0.0
  0
SEQEND
  5
19D
330
19A
100
AcDbEntity
  8
Layer 05
  0
POLYLINE
  5
19E
330
1F
100
AcDbEntity
  8
Layer 01
100
AcDb2dPolyline
 66
     1
 10
0.0
 20
0.0
 30
0.0
  0
VERTEX
  5
19F
330
19E
100
AcDbEntity
  8
Layer 01
100
AcDbVertex
100
AcDb2dVertex
 10
2553.315350363488
 20
-967.2049791524737
 30
0.0
  0
VERTEX
  5
1A0
330
19E
100
AcDbEntity
  8
Layer 01
100
AcDbVertex
100
AcDb2dVertex
 10
2553.315350363488
 20
-692.4039247958344
 30
0.0
  0
VERTEX
  5
1A1
330
19E
100
AcDbEntity
  8
Layer 01
100
AcDbVertex
100
AcDb2dVertex
 10
2433.989330113447
 20
-692.4039247958344
 30
0.0
  0
SEQEND
  5
1A2
330
19E
100
AcDbEntity
  8
Layer 01
  0
POLYLINE
  5
1A3
330
1F
100
AcDbEntity
  8
Default
100
AcDb2dPolyline
 66
     1
 10
0.0
 20
0.0
 30
0.0
  0
VERTEX
  5
1A4
330
1A3
100
AcDbEntity
  8
Default
100
AcDbVertex
100
AcDb2dVertex
 10
2566.015350363487
 20
-967.2049791524739
 30
0.0
  0
VERTEX
  5
1A5
330
1A3
100
AcDbEntity
  8
Default
100
AcDbVertex
100
AcDb2dVertex
 10
2566.015350363487
 20
-679.7039247958344
 30
0.0
  0
VERTEX
  5
1A6
330
1A3
100
AcDbEntity
  8
Default
100
AcDbVertex
100
AcDb2dVertex
 10
2433.989330113447
 20
-679.7039247958344
 30
0.0
  0
SEQEND
  5
1A7
330
1A3
100
AcDbEntity
  8
Default
  0
POLYLINE
  5
1A8
330
1F
100
AcDbEntity
  8
Layer 05
100
AcDb2dPolyline
 66
     1
 10
0.0
 20
0.0
 30
0.0
  0
VERTEX
  5
1A9
330
1A8
100
AcDbEntity
  8
Layer 05
100
AcDbVertex
100
AcDb2dVertex
 10
2433.989330113447
 20
-818.3985714806552
 30
0.0
  0
VERTEX
  5
1AA
330
1A8
100
AcDbEntity
  8
Layer 05
100
AcDbVertex
100
AcDb2dVertex
 10
2453.086297113537
 20
-822.845810371087
 30
0.0
  0
VERTEX
  5
1AB
330
1A8
100
AcDbEntity
  8
Layer 05
100
AcDbVertex
100
AcDb2dVertex
 10
2433.989330113447
 20
-825.7838052941779
 30
0.0
  0
SEQEND
  5
1AC
330
1A8
100
AcDbEntity
  8
Layer 05
  0
POLYLINE
  5
1AD
330
1F
100
AcDbEntity
  8
Layer 05
100
AcDb2dPolyline
 66
     1
 10
0.0
 20
0.0
 30
0.0
  0
VERTEX
  5
1AE
330
1AD
100
AcDbEntity
  8
Layer 05
100
AcDbVertex
100
AcDb2dVertex
 10
2433.989330113447
 20
-833.5058430619902
 30
0.0
  0
VERTEX
  5
1AF
330
1AD
100
AcDbEntity
  8
Layer 05
100
AcDbVertex
100
AcDb2dVertex
 10
2453.642058150021
 20
-836.7398362831987
 30
0.0
  0
VERTEX
  5
1B0
330
1AD
100
AcDbEntity
  8
Layer 05
100
AcDbVertex
100
AcDb2dVertex
 10
2433.989330113447
 20
-841.2750812147158
 30
0.0
  0
SEQEND
  5
1B1
330
1AD
100
AcDbEntity
  8
Layer 05
  0
POLYLINE
  5
1B2
330
1F
100
AcDbEntity
  8
Layer 05
100
AcDb2dPolyline
 66
     1
 10
0.0
 20
0.0
 30
0.0
  0
VERTEX
  5
1B3
330
1B2
100
AcDbEntity
  8
Layer 05
100
AcDbVertex
100
AcDb2dVertex
 10
2433.989330113447
 20
-852.6137439519857
 30
0.0
  0
VERTEX
  5
1B4
330
1B2
100
AcDbEntity
  8
Layer 05
100
AcDbVertex
100
AcDb2dVertex
 10
2460.311190587835
 20
-856.1914725601549
 30
0.0
  0
VERTEX
  5
1B5
330
1B2
100
AcDbEntity
  8
Layer 05
100
AcDbVertex
100
AcDb2dVertex
 10
2433.989330113447
 20
-861.8136175158494
 30
0.0
  0
SEQEND
  5
1B6
330
1B2
100
AcDbEntity
  8
Layer 05
  0
POLYLINE
  5
1B7
330
1F
100
AcDbEntity
  8
Layer 05
100
AcDb2dPolyline
 66
     1
 10
0.0
 20
0.0
 30
0.0
  0
VERTEX
  5
1B8
330
1B7
100
AcDbEntity
  8
Layer 05
100
AcDbVertex
100
AcDb2dVertex
 10
2433.989330113447
 20
-874.70733935268
 30
0.0
  0
VERTEX
  5
1B9
330
1B7
100
AcDbEntity
  8
Layer 05
100
AcDbVertex
100
AcDb2dVertex
 10
2468.647606135102
 20
-881.7564802384404
 30
0.0
  0
VERTEX
  5
1BA
330
1B7
100
AcDbEntity
  8
Layer 05
100
AcDbVertex
100
AcDb2dVertex
 10
2433.989330113447
 20
-885.7336594540402
 30
0.0
  0
SEQEND
  5
1BB
330
1B7
100
AcDbEntity
  8
Layer 05
  0
POLYLINE
  5
1BC
330
1F
100
AcDbEntity
  8
Layer 05
100
AcDb2dPolyline
 66
     1
 10
0.0
 20
0.0
 30
0.0
  0
VERTEX
  5
1BD
330
1BC
100
AcDbEntity
  8
Layer 05
100
AcDbVertex
100
AcDb2dVertex
 10
2523.112187710579
 20
-955.11693705439
 30
0.0
  0
VERTEX
  5
1BE
330
1BC
100
AcDbEntity
  8
Layer 05
100
AcDbVertex
100
AcDb2dVertex
 10
2519.862714028299
 20
-967.2049791524739
 30
0.0
  0
SEQEND
  5
1BF
330
1BC
100
AcDbEntity
  8
Layer 05
  0
POLYLINE
  5
1C0
330
1F
100
AcDbEntity
  8
Layer 05
100
AcDb2dPolyline
 66
     1
 10
0.0
 20
0.0
 30
0.0
  0
VERTEX
  5
1C1
330
1C0
100
AcDbEntity
  8
Layer 05
100
AcDbVertex
100
AcDb2dVertex
 10
2503.351830791805
 20
-967.2049791524739
 30
0.0
  0
VERTEX
  5
1C2
330
1C0
100
AcDbEntity
  8
Layer 05
100
AcDbVertex
100
AcDb2dVertex
 10
2500.325985214716
 20
-946.7805215071229
 30
0.0
  0
SEQEND
  5
1C3
330
1C0
100
AcDbEntity
  8
Layer 05
  0
POLYLINE
  5
1C4
330
1F
100
AcDbEntity
  8
Layer 05
100
AcDb2dPolyline
 66
     1
 10
0.0
 20
0.0
 30
0.0
  0
VERTEX
  5
1C5
330
1C4
100
AcDbEntity
  8
Layer 05
100
AcDbVertex
100
AcDb2dVertex
 10
2275.795835558589
 20
-965.5108440008675
 30
0.0
  0
VERTEX
  5
1C6
330
1C4
100
AcDbEntity
  8
Layer 05
100
AcDbVertex
100
AcDb2dVertex
 10
2285.153710195677
 20
-928.4135552609824
 30
0.0
  0
VERTEX
  5
1C7
330
1C4
100
AcDbEntity
  8
Layer 05
100
AcDbVertex
100
AcDb2dVertex
 10
2290.034932398294
 20
-965.5108440008675
 30
0.0
  0
SEQEND
  5
1C8
330
1C4
100
AcDbEntity
  8
Layer 05
  0
POLYLINE
  5
1C9
330
1F
100
AcDbEntity
  8
Layer 05
100
AcDb2dPolyline
 66
     1
 10
0.0
 20
0.0
 30
0.0
  0
VERTEX
  5
1CA
330
1C9
100
AcDbEntity
  8
Layer 05
100
AcDbVertex
100
AcDb2dVertex
 10
2254.741178020378
 20
-965.5108440008675
 30
0.0
  0
VERTEX
  5
1CB
330
1C9
100
AcDbEntity
  8
Layer 05
100
AcDbVertex
100
AcDb2dVertex
 10
2261.255985626845
 20
-936.194209771765
 30
0.0
  0
VERTEX
  5
1CC
330
1C9
100
AcDbEntity
  8
Layer 05
100
AcDbVertex
100
AcDb2dVertex
 10
2265.789485765366
 20
-965.5108440008675
 30
0.0
  0
SEQEND
  5
1CD
330
1C9
100
AcDbEntity
  8
Layer 05
  0
POLYLINE
  5
1CE
330
1F
100
AcDbEntity
  8
Layer 05
100
AcDb2dPolyline
 66
     1
 10
0.0
 20
0.0
 30
0.0
  0
VERTEX
  5
1CF
330
1CE
100
AcDbEntity
  8
Layer 05
100
AcDbVertex
100
AcDb2dVertex
 10
2229.691777111195
 20
-965.5108440008675
 30
0.0
  0
VERTEX
  5
1D0
330
1CE
100
AcDbEntity
  8
Layer 05
100
AcDbVertex
100
AcDb2dVertex
 10
2237.358261058013
 20
-938.9730149541873
 30
0.0
  0
VERTEX
  5
1D1
330
1CE
100
AcDbEntity
  8
Layer 05
100
AcDbVertex
100
AcDb2dVertex
 10
2243.286924993974
 20
-965.5108440008675
 30
0.0
  0
SEQEND
  5
1D2
330
1CE
100
AcDbEntity
  8
Layer 05
  0
POLYLINE
  5
1D3
330
1F
100
AcDbEntity
  8
Layer 05
100
AcDb2dPolyline
 66
     1
 10
0.0
 20
0.0
 30
0.0
  0
VERTEX
  5
1D4
330
1D3
100
AcDbEntity
  8
Layer 05
100
AcDbVertex
100
AcDb2dVertex
 10
2375.541667383028
 20
-884.0395243024337
 30
0.0
  0
VERTEX
  5
1D5
330
1D3
100
AcDbEntity
  8
Layer 05
100
AcDbVertex
100
AcDb2dVertex
 10
2342.397096953578
 20
-887.8429995976164
 30
0.0
  0
SEQEND
  5
1D6
330
1D3
100
AcDbEntity
  8
Layer 05
  0
POLYLINE
  5
1D7
330
1F
100
AcDbEntity
  8
Layer 05
100
AcDb2dPolyline
 66
     1
 10
0.0
 20
0.0
 30
0.0
  0
VERTEX
  5
1D8
330
1D7
100
AcDbEntity
  8
Layer 05
100
AcDbVertex
100
AcDb2dVertex
 10
2375.541667383028
 20
-860.1194823642429
 30
0.0
  0
VERTEX
  5
1D9
330
1D7
100
AcDbEntity
  8
Layer 05
100
AcDbVertex
100
AcDb2dVertex
 10
2344.620141099515
 20
-866.7240802112067
 30
0.0
  0
VERTEX
  5
1DA
330
1D7
100
AcDbEntity
  8
Layer 05
100
AcDbVertex
100
AcDb2dVertex
 10
2375.541667383027
 20
-873.0132042010736
 30
0.0
  0
SEQEND
  5
1DB
330
1D7
100
AcDbEntity
  8
Layer 05
  0
POLYLINE
  5
1DC
330
1F
100
AcDbEntity
  8
Layer 05
100
AcDb2dPolyline
 66
     1
 10
0.0
 20
0.0
 30
0.0
  0
VERTEX
  5
1DD
330
1DC
100
AcDbEntity
  8
Layer 05
100
AcDbVertex
100
AcDb2dVertex
 10
2375.541667383028
 20
-839.5809460631093
 30
0.0
  0
VERTEX
  5
1DE
330
1DC
100
AcDbEntity
  8
Layer 05
100
AcDbVertex
100
AcDb2dVertex
 10
2344.620141099515
 20
-846.716682897766
 30
0.0
  0
VERTEX
  5
1DF
330
1DC
100
AcDbEntity
  8
Layer 05
100
AcDbVertex
100
AcDb2dVertex
 10
2375.541667383028
 20
-850.9196088003793
 30
0.0
  0
SEQEND
  5
1E0
330
1DC
100
AcDbEntity
  8
Layer 05
  0
POLYLINE
  5
1E1
330
1F
100
AcDbEntity
  8
Layer 05
100
AcDb2dPolyline
 66
     1
 10
0.0
 20
0.0
 30
0.0
  0
VERTEX
  5
1E2
330
1E1
100
AcDbEntity
  8
Layer 05
100
AcDbVertex
100
AcDb2dVertex
 10
2375.541667383028
 20
-824.0896701425714
 30
0.0
  0
VERTEX
  5
1E3
330
1E1
100
AcDbEntity
  8
Layer 05
100
AcDbVertex
100
AcDb2dVertex
 10
2351.289273537329
 20
-827.8208076572942
 30
0.0
  0
VERTEX
  5
1E4
330
1E1
100
AcDbEntity
  8
Layer 05
100
AcDbVertex
100
AcDb2dVertex
 10
2375.541667383028
 20
-831.8117079103837
 30
0.0
  0
SEQEND
  5
1E5
330
1E1
100
AcDbEntity
  8
Layer 05
  0
POLYLINE
  5
1E6
330
1F
100
AcDbEntity
  8
Layer 05
100
AcDb2dPolyline
 66
     1
 10
0.0
 20
0.0
 30
0.0
  0
VERTEX
  5
1E7
330
1E6
100
AcDbEntity
  8
Layer 05
100
AcDbVertex
100
AcDb2dVertex
 10
2354.068078719751
 20
-811.7037375992446
 30
0.0
  0
VERTEX
  5
1E8
330
1E6
100
AcDbEntity
  8
Layer 05
100
AcDbVertex
100
AcDb2dVertex
 10
2375.541667383028
 20
-816.7044363290487
 30
0.0
  0
SEQEND
  5
1E9
330
1E6
100
AcDbEntity
  8
Layer 05
  0
POLYLINE
  5
1EA
330
1F
100
AcDbEntity
  8
Default
100
AcDb2dPolyline
 66
     1
 10
0.0
 20
0.0
 30
0.0
  0
VERTEX
  5
1EB
330
1EA
100
AcDbEntity
  8
Default
100
AcDbVertex
100
AcDb2dVertex
 10
2375.541667383028
 20
-678.0097896442279
 30
0.0
  0
VERTEX
  5
1EC
330
1EA
100
AcDbEntity
  8
Default
100
AcDbVertex
100
AcDb2dVertex
 10
2182.167687633068
 20
-678.0097896442279
 30
0.0
  0
VERTEX
  5
1ED
330
1EA
100
AcDbEntity
  8
Default
100
AcDbVertex
100
AcDb2dVertex
 10
2182.167687633068
 20
-965.5108440008675
 30
0.0
  0
SEQEND
  5
1EE
330
1EA
100
AcDbEntity
  8
Default
  0
POLYLINE
  5
1EF
330
1F
100
AcDbEntity
  8
Layer 01
100
AcDb2dPolyline
 66
     1
 10
0.0
 20
0.0
 30
0.0
  0
VERTEX
  5
1F0
330
1EF
100
AcDbEntity
  8
Layer 01
100
AcDbVertex
100
AcDb2dVertex
 10
2375.541667383028
 20
-690.709789644228
 30
0.0
  0
VERTEX
  5
1F1
330
1EF
100
AcDbEntity
  8
Layer 01
100
AcDbVertex
100
AcDb2dVertex
 10
2194.867687633068
 20
-690.709789644228
 30
0.0
  0
VERTEX
  5
1F2
330
1EF
100
AcDbEntity
  8
Layer 01
100
AcDbVertex
100
AcDb2dVertex
 10
2194.867687633068
 20
-965.5108440008672
 30
0.0
  0
SEQEND
  5
1F3
330
1EF
100
AcDbEntity
  8
Layer 01
  0
MTEXT
  5
1F4
330
1F
100
AcDbEntity
  8
Layer 03
100
AcDbMText
 10
2207.267262325921
 20
-750.092707570341
 30
0.0
 40
30.0
 41
372.0652173913044
 46
21.29347826086956
 71
     1
 72
     1
  1
End (2x)
  7
Millimeter Small
 73
     1
 44
1.0
1001
ACAD
1000
ACAD_MTEXT_DEFINED_HEIGHT_BEGIN
1070
    46
1040
21.29347826086956
1000
ACAD_MTEXT_DEFINED_HEIGHT_END
  0
POLYLINE
  5
1F5
330
1F
100
AcDbEntity
  8
Layer 05
100
AcDb2dPolyline
 66
     1
 10
0.0
 20
0.0
 30
0.0
  0
VERTEX
  5
1F6
330
1F5
100
AcDbEntity
  8
Layer 05
100
AcDbVertex
100
AcDb2dVertex
 10
4279.983398681476
 20
-1397.177620550202
 30
0.0
  0
VERTEX
  5
1F7
330
1F5
100
AcDbEntity
  8
Layer 05
100
AcDbVertex
100
AcDb2dVertex
 10
4279.983398681476
 20
-1277.255035697196
 30
0.0
  0
VERTEX
  5
1F8
330
1F5
100
AcDbEntity
  8
Layer 05
100
AcDbVertex
100
AcDb2dVertex
 10
3996.15096282632
 20
-1277.255035697196
 30
0.0
  0
SEQEND
  5
1F9
330
1F5
100
AcDbEntity
  8
Layer 05
  0
POLYLINE
  5
1FA
330
1F
100
AcDbEntity
  8
Layer 05
100
AcDb2dPolyline
 66
     1
 10
0.0
 20
0.0
 30
0.0
  0
VERTEX
  5
1FB
330
1FA
100
AcDbEntity
  8
Layer 05
100
AcDbVertex
100
AcDb2dVertex
 10
4642.221810675577
 20
-1277.255035697197
 30
0.0
  0
VERTEX
  5
1FC
330
1FA
100
AcDbEntity
  8
Layer 05
100
AcDbVertex
100
AcDb2dVertex
 10
4350.654246530733
 20
-1277.255035697197
 30
0.0
  0
VERTEX
  5
1FD
330
1FA
100
AcDbEntity
  8
Layer 05
100
AcDbVertex
100
AcDb2dVertex
 10
4350.654246530733
 20
-1397.177620550202
 30
0.0
  0
SEQEND
  5
1FE
330
1FA
100
AcDbEntity
  8
Layer 05
  0
POLYLINE
  5
1FF
330
1F
100
AcDbEntity
  8
Layer 05
100
AcDb2dPolyline
 66
     1
 10
0.0
 20
0.0
 30
0.0
  0
VERTEX
  5
200
330
1FF
100
AcDbEntity
  8
Layer 05
100
AcDbVertex
100
AcDb2dVertex
 10
4315.067293086337
 20
-1068.259891110957
 30
0.0
  0
VERTEX
  5
201
330
1FF
100
AcDbEntity
  8
Layer 05
100
AcDbVertex
100
AcDb2dVertex
 10
4315.067293086337
 20
-1223.737306257952
 30
0.0
  0
VERTEX
  5
202
330
1FF
100
AcDbEntity
  8
Layer 05
100
AcDbVertex
100
AcDb2dVertex
 10
4606.63485723118
 20
-1223.737306257952
 30
0.0
  0
SEQEND
  5
203
330
1FF
100
AcDbEntity
  8
Layer 05
  0
POLYLINE
  5
204
330
1F
100
AcDbEntity
  8
Layer 05
100
AcDb2dPolyline
 66
     1
 10
0.0
 20
0.0
 30
0.0
  0
VERTEX
  5
205
330
204
100
AcDbEntity
  8
Layer 05
100
AcDbVertex
100
AcDb2dVertex
 10
3905.201641181633
 20
-1235.063120150473
 30
0.0
  0
VERTEX
  5
206
330
204
100
AcDbEntity
  8
Layer 05
100
AcDbVertex
100
AcDb2dVertex
 10
4189.03407703679
 20
-1235.063120150473
 30
0.0
  0
VERTEX
  5
207
330
204
100
AcDbEntity
  8
Layer 05
100
AcDbVertex
100
AcDb2dVertex
 10
4189.03407703679
 20
-1079.585705003479
 30
0.0
  0
SEQEND
  5
208
330
204
100
AcDbEntity
  8
Layer 05
  0
LINE
  5
20B
330
1F
100
AcDbEntity
  8
Layer 02
100
AcDbLine
 10
4642.221810675577
 20
-1324.477620550202
 30
0.0
 11
4608.149723014753
 21
-1324.477620550202
 31
0.0
  0
LINE
  5
20C
330
1F
100
AcDbEntity
  8
Layer 02
100
AcDbLine
 10
4642.221810675577
 20
-1299.477620550202
 30
0.0
 11
4608.149723014753
 21
-1299.477620550202
 31
0.0
  0
LINE
  5
20D
330
1F
100
AcDbEntity
  8
Layer 02
100
AcDbLine
 10
4642.221810675577
 20
-1324.477620550202
 30
0.0
 11
4608.149723014753
 21
-1324.477620550202
 31
0.0
  0
POLYLINE
  5
20E
330
1F
100
AcDbEntity
  8
Default
100
AcDb2dPolyline
 66
     1
 10
0.0
 20
0.0
 30
0.0
  0
VERTEX
  5
20F
330
20E
100
AcDbEntity
  8
Default
100
AcDbVertex
100
AcDb2dVertex
 10
4350.654246530733
 20
-1397.177620550202
 30
0.0
  0
VERTEX
  5
210
330
20E
100
AcDbEntity
  8
Default
100
AcDbVertex
100
AcDb2dVertex
 10
4642.221810675577
 20
-1397.177620550202
 30
0.0
  0
VERTEX
  5
211
330
20E
100
AcDbEntity
  8
Default
100
AcDbVertex
100
AcDb2dVertex
 10
4642.221810675577
 20
-1277.255035697197
 30
0.0
  0
SEQEND
  5
212
330
20E
100
AcDbEntity
  8
Default
  0
POLYLINE
  5
213
330
1F
100
AcDbEntity
  8
Layer 01
100
AcDb2dPolyline
 66
     1
 10
0.0
 20
0.0
 30
0.0
  0
VERTEX
  5
214
330
213
100
AcDbEntity
  8
Layer 01
100
AcDbVertex
100
AcDb2dVertex
 10
4350.654246530733
 20
-1384.477620550202
 30
0.0
  0
VERTEX
  5
215
330
213
100
AcDbEntity
  8
Layer 01
100
AcDbVertex
100
AcDb2dVertex
 10
4629.521810675577
 20
-1384.477620550202
 30
0.0
  0
VERTEX
  5
216
330
213
100
AcDbEntity
  8
Layer 01
100
AcDbVertex
100
AcDb2dVertex
 10
4629.521810675577
 20
-1277.255035697197
 30
0.0
  0
SEQEND
  5
217
330
213
100
AcDbEntity
  8
Layer 01
  0
POLYLINE
  5
218
330
1F
100
AcDbEntity
  8
Layer 05
100
AcDb2dPolyline
 66
     1
 10
0.0
 20
0.0
 30
0.0
  0
VERTEX
  5
219
330
218
100
AcDbEntity
  8
Layer 05
100
AcDbVertex
100
AcDb2dVertex
 10
4512.401119108816
 20
-1277.255035697197
 30
0.0
  0
VERTEX
  5
21A
330
218
100
AcDbEntity
  8
Layer 05
100
AcDbVertex
100
AcDb2dVertex
 10
4503.390808815592
 20
-1308.957979321503
 30
0.0
  0
VERTEX
  5
21B
330
218
100
AcDbEntity
  8
Layer 05
100
AcDbVertex
100
AcDb2dVertex
 10
4500.475595608759
 20
-1277.255035697197
 30
0.0
  0
SEQEND
  5
21C
330
218
100
AcDbEntity
  8
Layer 05
  0
POLYLINE
  5
21D
330
1F
100
AcDbEntity
  8
Layer 05
100
AcDb2dPolyline
 66
     1
 10
0.0
 20
0.0
 30
0.0
  0
VERTEX
  5
21E
330
21D
100
AcDbEntity
  8
Layer 05
100
AcDbVertex
100
AcDb2dVertex
 10
4368.224235744678
 20
-1309.644104057904
 30
0.0
  0
VERTEX
  5
21F
330
21D
100
AcDbEntity
  8
Layer 05
100
AcDbVertex
100
AcDb2dVertex
 10
4350.654246530733
 20
-1312.154102517038
 30
0.0
  0
SEQEND
  5
220
330
21D
100
AcDbEntity
  8
Layer 05
  0
POLYLINE
  5
221
330
1F
100
AcDbEntity
  8
Layer 05
100
AcDb2dPolyline
 66
     1
 10
0.0
 20
0.0
 30
0.0
  0
VERTEX
  5
222
330
221
100
AcDbEntity
  8
Layer 05
100
AcDbVertex
100
AcDb2dVertex
 10
4350.654246530734
 20
-1321.275997811587
 30
0.0
  0
VERTEX
  5
223
330
221
100
AcDbEntity
  8
Layer 05
100
AcDbVertex
100
AcDb2dVertex
 10
4377.143857317886
 20
-1325.424972995117
 30
0.0
  0
VERTEX
  5
224
330
221
100
AcDbEntity
  8
Layer 05
100
AcDbVertex
100
AcDb2dVertex
 10
4350.654246530734
 20
-1327.556320989485
 30
0.0
  0
SEQEND
  5
225
330
221
100
AcDbEntity
  8
Layer 05
  0
POLYLINE
  5
226
330
1F
100
AcDbEntity
  8
Layer 05
100
AcDb2dPolyline
 66
     1
 10
0.0
 20
0.0
 30
0.0
  0
VERTEX
  5
227
330
226
100
AcDbEntity
  8
Layer 05
100
AcDbVertex
100
AcDb2dVertex
 10
4350.654246530734
 20
-1337.428549078048
 30
0.0
  0
VERTEX
  5
228
330
226
100
AcDbEntity
  8
Layer 05
100
AcDbVertex
100
AcDb2dVertex
 10
4374.399358372283
 20
-1342.578091405131
 30
0.0
  0
SEQEND
  5
229
330
226
100
AcDbEntity
  8
Layer 05
  0
POLYLINE
  5
22A
330
1F
100
AcDbEntity
  8
Layer 05
100
AcDb2dPolyline
 66
     1
 10
0.0
 20
0.0
 30
0.0
  0
VERTEX
  5
22B
330
22A
100
AcDbEntity
  8
Layer 05
100
AcDbVertex
100
AcDb2dVertex
 10
4464.888642164362
 20
-1223.737306257952
 30
0.0
  0
VERTEX
  5
22C
330
22A
100
AcDbEntity
  8
Layer 05
100
AcDbVertex
100
AcDb2dVertex
 10
4462.31485747999
 20
-1195.747397815408
 30
0.0
  0
SEQEND
  5
22D
330
22A
100
AcDbEntity
  8
Layer 05
  0
POLYLINE
  5
22E
330
1F
100
AcDbEntity
  8
Layer 05
100
AcDb2dPolyline
 66
     1
 10
0.0
 20
0.0
 30
0.0
  0
VERTEX
  5
22F
330
22E
100
AcDbEntity
  8
Layer 05
100
AcDbVertex
100
AcDb2dVertex
 10
4486.32922325401
 20
-1190.258399924203
 30
0.0
  0
VERTEX
  5
230
330
22E
100
AcDbEntity
  8
Layer 05
100
AcDbVertex
100
AcDb2dVertex
 10
4476.814165664418
 20
-1223.737306257952
 30
0.0
  0
SEQEND
  5
231
330
22E
100
AcDbEntity
  8
Layer 05
  0
POLYLINE
  5
232
330
1F
100
AcDbEntity
  8
Layer 05
100
AcDb2dPolyline
 66
     1
 10
0.0
 20
0.0
 30
0.0
  0
VERTEX
  5
233
330
232
100
AcDbEntity
  8
Layer 05
100
AcDbVertex
100
AcDb2dVertex
 10
4315.067293086337
 20
-1165.566597775283
 30
0.0
  0
VERTEX
  5
234
330
232
100
AcDbEntity
  8
Layer 05
100
AcDbVertex
100
AcDb2dVertex
 10
4337.440155455085
 20
-1170.360782568587
 30
0.0
  0
VERTEX
  5
235
330
232
100
AcDbEntity
  8
Layer 05
100
AcDbVertex
100
AcDb2dVertex
 10
4315.067293086337
 20
-1173.827000682054
 30
0.0
  0
SEQEND
  5
236
330
232
100
AcDbEntity
  8
Layer 05
  0
POLYLINE
  5
237
330
1F
100
AcDbEntity
  8
Layer 05
100
AcDb2dPolyline
 66
     1
 10
0.0
 20
0.0
 30
0.0
  0
VERTEX
  5
238
330
237
100
AcDbEntity
  8
Layer 05
100
AcDbVertex
100
AcDb2dVertex
 10
4315.067293086337
 20
-1147.407016857956
 30
0.0
  0
VERTEX
  5
239
330
237
100
AcDbEntity
  8
Layer 05
100
AcDbVertex
100
AcDb2dVertex
 10
4335.381781245883
 20
-1149.777040476569
 30
0.0
  0
VERTEX
  5
23A
330
237
100
AcDbEntity
  8
Layer 05
100
AcDbVertex
100
AcDb2dVertex
 10
4315.067293086337
 20
-1154.325060213781
 30
0.0
  0
SEQEND
  5
23B
330
237
100
AcDbEntity
  8
Layer 05
  0
POLYLINE
  5
23C
330
1F
100
AcDbEntity
  8
Layer 05
100
AcDb2dPolyline
 66
     1
 10
0.0
 20
0.0
 30
0.0
  0
VERTEX
  5
23D
330
23C
100
AcDbEntity
  8
Layer 05
100
AcDbVertex
100
AcDb2dVertex
 10
4315.067293086337
 20
-1130.789973255442
 30
0.0
  0
VERTEX
  5
23E
330
23C
100
AcDbEntity
  8
Layer 05
100
AcDbVertex
100
AcDb2dVertex
 10
4336.067905982284
 20
-1133.310046802956
 30
0.0
  0
VERTEX
  5
23F
330
23C
100
AcDbEntity
  8
Layer 05
100
AcDbVertex
100
AcDb2dVertex
 10
4315.067293086337
 20
-1139.162676626416
 30
0.0
  0
SEQEND
  5
240
330
23C
100
AcDbEntity
  8
Layer 05
  0
POLYLINE
  5
241
330
1F
100
AcDbEntity
  8
Layer 05
100
AcDb2dPolyline
 66
     1
 10
0.0
 20
0.0
 30
0.0
  0
VERTEX
  5
242
330
241
100
AcDbEntity
  8
Layer 05
100
AcDbVertex
100
AcDb2dVertex
 10
4315.067293086337
 20
-1115.489240779969
 30
0.0
  0
VERTEX
  5
243
330
241
100
AcDbEntity
  8
Layer 05
100
AcDbVertex
100
AcDb2dVertex
 10
4333.323407036682
 20
-1119.587552074944
 30
0.0
  0
VERTEX
  5
244
330
241
100
AcDbEntity
  8
Layer 05
100
AcDbVertex
100
AcDb2dVertex
 10
4315.067293086337
 20
-1125.143760668527
 30
0.0
  0
SEQEND
  5
245
330
241
100
AcDbEntity
  8
Layer 05
  0
POLYLINE
  5
246
330
1F
100
AcDbEntity
  8
Layer 01
100
AcDb2dPolyline
 66
     1
 10
0.0
 20
0.0
 30
0.0
  0
VERTEX
  5
247
330
246
100
AcDbEntity
  8
Layer 01
100
AcDbVertex
100
AcDb2dVertex
 10
4593.93485723118
 20
-1223.737306257952
 30
0.0
  0
VERTEX
  5
248
330
246
100
AcDbEntity
  8
Layer 01
100
AcDbVertex
100
AcDb2dVertex
 10
4593.93485723118
 20
-1080.959891110957
 30
0.0
  0
VERTEX
  5
249
330
246
100
AcDbEntity
  8
Layer 01
100
AcDbVertex
100
AcDb2dVertex
 10
4315.067293086337
 20
-1080.959891110957
 30
0.0
  0
SEQEND
  5
24A
330
246
100
AcDbEntity
  8
Layer 01
  0
POLYLINE
  5
24B
330
1F
100
AcDbEntity
  8
Default
100
AcDb2dPolyline
 66
     1
 10
0.0
 20
0.0
 30
0.0
  0
VERTEX
  5
24C
330
24B
100
AcDbEntity
  8
Default
100
AcDbVertex
100
AcDb2dVertex
 10
4606.63485723118
 20
-1223.737306257952
 30
0.0
  0
VERTEX
  5
24D
330
24B
100
AcDbEntity
  8
Default
100
AcDbVertex
100
AcDb2dVertex
 10
4606.63485723118
 20
-1068.259891110957
 30
0.0
  0
VERTEX
  5
24E
330
24B
100
AcDbEntity
  8
Default
100
AcDbVertex
100
AcDb2dVertex
 10
4315.067293086337
 20
-1068.259891110957
 30
0.0
  0
SEQEND
  5
24F
330
24B
100
AcDbEntity
  8
Default
  0
LINE
  5
250
330
1F
100
AcDbEntity
  8
Layer 02
100
AcDbLine
 10
4606.63485723118
 20
-1140.959891110957
 30
0.0
 11
4572.562769570356
 21
-1140.959891110957
 31
0.0
  0
LINE
  5
251
330
1F
100
AcDbEntity
  8
Layer 02
100
AcDbLine
 10
4606.63485723118
 20
-1165.959891110957
 30
0.0
 11
4572.562769570356
 21
-1165.959891110957
 31
0.0
  0
LINE
  5
252
330
1F
100
AcDbEntity
  8
Layer 02
100
AcDbLine
 10
4606.63485723118
 20
-1140.959891110957
 30
0.0
 11
4572.562769570356
 21
-1140.959891110957
 31
0.0
  0
POLYLINE
  5
253
330
1F
100
AcDbEntity
  8
Layer 05
100
AcDb2dPolyline
 66
     1
 10
0.0
 20
0.0
 30
0.0
  0
VERTEX
  5
254
330
253
100
AcDbEntity
  8
Layer 05
100
AcDbVertex
100
AcDb2dVertex
 10
4054.476507984204
 20
-1235.063120150473
 30
0.0
  0
VERTEX
  5
255
330
253
100
AcDbEntity
  8
Layer 05
100
AcDbVertex
100
AcDb2dVertex
 10
4063.203996343013
 20
-1206.387086971529
 30
0.0
  0
VERTEX
  5
256
330
253
100
AcDbEntity
  8
Layer 05
100
AcDbVertex
100
AcDb2dVertex
 10
4068.779891683364
 20
-1235.063120150473
 30
0.0
  0
SEQEND
  5
257
330
253
100
AcDbEntity
  8
Layer 05
  0
POLYLINE
  5
258
330
1F
100
AcDbEntity
  8
Layer 05
100
AcDb2dPolyline
 66
     1
 10
0.0
 20
0.0
 30
0.0
  0
VERTEX
  5
259
330
258
100
AcDbEntity
  8
Layer 05
100
AcDbVertex
100
AcDb2dVertex
 10
4034.414998564165
 20
-1235.063120150473
 30
0.0
  0
VERTEX
  5
25A
330
258
100
AcDbEntity
  8
Layer 05
100
AcDbVertex
100
AcDb2dVertex
 10
4040.561880041794
 20
-1204.328712762327
 30
0.0
  0
VERTEX
  5
25B
330
258
100
AcDbEntity
  8
Layer 05
100
AcDbVertex
100
AcDb2dVertex
 10
4045.684281273151
 20
-1235.063120150473
 30
0.0
  0
SEQEND
  5
25C
330
258
100
AcDbEntity
  8
Layer 05
  0
POLYLINE
  5
25D
330
1F
100
AcDbEntity
  8
Layer 05
100
AcDb2dPolyline
 66
     1
 10
0.0
 20
0.0
 30
0.0
  0
VERTEX
  5
25E
330
25D
100
AcDbEntity
  8
Layer 05
100
AcDbVertex
100
AcDb2dVertex
 10
4012.398327191056
 20
-1235.063120150473
 30
0.0
  0
VERTEX
  5
25F
330
25D
100
AcDbEntity
  8
Layer 05
100
AcDbVertex
100
AcDb2dVertex
 10
4021.350387422578
 20
-1207.75933644433
 30
0.0
  0
VERTEX
  5
260
330
25D
100
AcDbEntity
  8
Layer 05
100
AcDbVertex
100
AcDb2dVertex
 10
4027.231202374671
 20
-1235.063120150473
 30
0.0
  0
SEQEND
  5
261
330
25D
100
AcDbEntity
  8
Layer 05
  0
POLYLINE
  5
262
330
1F
100
AcDbEntity
  8
Layer 05
100
AcDb2dPolyline
 66
     1
 10
0.0
 20
0.0
 30
0.0
  0
VERTEX
  5
263
330
262
100
AcDbEntity
  8
Layer 05
100
AcDbVertex
100
AcDb2dVertex
 10
4189.03407703679
 20
-1185.152814574576
 30
0.0
  0
VERTEX
  5
264
330
262
100
AcDbEntity
  8
Layer 05
100
AcDbVertex
100
AcDb2dVertex
 10
4162.692083121097
 20
-1189.233968561515
 30
0.0
  0
SEQEND
  5
265
330
262
100
AcDbEntity
  8
Layer 05
  0
POLYLINE
  5
266
330
1F
100
AcDbEntity
  8
Layer 05
100
AcDb2dPolyline
 66
     1
 10
0.0
 20
0.0
 30
0.0
  0
VERTEX
  5
267
330
266
100
AcDbEntity
  8
Layer 05
100
AcDbVertex
100
AcDb2dVertex
 10
4189.03407703679
 20
-1165.650874106303
 30
0.0
  0
VERTEX
  5
268
330
266
100
AcDbEntity
  8
Layer 05
100
AcDbVertex
100
AcDb2dVertex
 10
4163.378207857498
 20
-1171.3947254151
 30
0.0
  0
VERTEX
  5
269
330
266
100
AcDbEntity
  8
Layer 05
100
AcDbVertex
100
AcDb2dVertex
 10
4189.034077036789
 20
-1176.892411667805
 30
0.0
  0
SEQEND
  5
26A
330
266
100
AcDbEntity
  8
Layer 05
  0
POLYLINE
  5
26B
330
1F
100
AcDbEntity
  8
Layer 05
100
AcDb2dPolyline
 66
     1
 10
0.0
 20
0.0
 30
0.0
  0
VERTEX
  5
26C
330
26B
100
AcDbEntity
  8
Layer 05
100
AcDbVertex
100
AcDb2dVertex
 10
4189.03407703679
 20
-1150.488490518938
 30
0.0
  0
VERTEX
  5
26D
330
26B
100
AcDbEntity
  8
Layer 05
100
AcDbVertex
100
AcDb2dVertex
 10
4168.181081012302
 20
-1156.299981214287
 30
0.0
  0
VERTEX
  5
26E
330
26B
100
AcDbEntity
  8
Layer 05
100
AcDbVertex
100
AcDb2dVertex
 10
4189.034077036789
 20
-1158.732830750477
 30
0.0
  0
SEQEND
  5
26F
330
26B
100
AcDbEntity
  8
Layer 05
  0
POLYLINE
  5
270
330
1F
100
AcDbEntity
  8
Layer 05
100
AcDb2dPolyline
 66
     1
 10
0.0
 20
0.0
 30
0.0
  0
VERTEX
  5
271
330
270
100
AcDbEntity
  8
Layer 05
100
AcDbVertex
100
AcDb2dVertex
 10
4189.03407703679
 20
-1136.469574561049
 30
0.0
  0
VERTEX
  5
272
330
270
100
AcDbEntity
  8
Layer 05
100
AcDbVertex
100
AcDb2dVertex
 10
4175.728453112708
 20
-1140.519112277074
 30
0.0
  0
VERTEX
  5
273
330
270
100
AcDbEntity
  8
Layer 05
100
AcDbVertex
100
AcDb2dVertex
 10
4189.03407703679
 20
-1142.115787147964
 30
0.0
  0
SEQEND
  5
274
330
270
100
AcDbEntity
  8
Layer 05
  0
POLYLINE
  5
275
330
1F
100
AcDbEntity
  8
Layer 05
100
AcDb2dPolyline
 66
     1
 10
0.0
 20
0.0
 30
0.0
  0
VERTEX
  5
276
330
275
100
AcDbEntity
  8
Layer 05
100
AcDbVertex
100
AcDb2dVertex
 10
4173.670078903506
 20
-1123.36599386706
 30
0.0
  0
VERTEX
  5
277
330
275
100
AcDbEntity
  8
Layer 05
100
AcDbVertex
100
AcDb2dVertex
 10
4189.03407703679
 20
-1126.815054672491
 30
0.0
  0
SEQEND
  5
278
330
275
100
AcDbEntity
  8
Layer 05
  0
POLYLINE
  5
279
330
1F
100
AcDbEntity
  8
Layer 01
100
AcDb2dPolyline
 66
     1
 10
0.0
 20
0.0
 30
0.0
  0
VERTEX
  5
27A
330
279
100
AcDbEntity
  8
Layer 01
100
AcDbVertex
100
AcDb2dVertex
 10
4189.03407703679
 20
-1092.285705003479
 30
0.0
  0
VERTEX
  5
27B
330
279
100
AcDbEntity
  8
Layer 01
100
AcDbVertex
100
AcDb2dVertex
 10
3917.901641181633
 20
-1092.285705003479
 30
0.0
  0
VERTEX
  5
27C
330
279
100
AcDbEntity
  8
Layer 01
100
AcDbVertex
100
AcDb2dVertex
 10
3917.901641181633
 20
-1235.063120150473
 30
0.0
  0
SEQEND
  5
27D
330
279
100
AcDbEntity
  8
Layer 01
  0
POLYLINE
  5
27E
330
1F
100
AcDbEntity
  8
Default
100
AcDb2dPolyline
 66
     1
 10
0.0
 20
0.0
 30
0.0
  0
VERTEX
  5
27F
330
27E
100
AcDbEntity
  8
Default
100
AcDbVertex
100
AcDb2dVertex
 10
4189.03407703679
 20
-1079.585705003479
 30
0.0
  0
VERTEX
  5
280
330
27E
100
AcDbEntity
  8
Default
100
AcDbVertex
100
AcDb2dVertex
 10
3905.201641181633
 20
-1079.585705003479
 30
0.0
  0
VERTEX
  5
281
330
27E
100
AcDbEntity
  8
Default
100
AcDbVertex
100
AcDb2dVertex
 10
3905.201641181633
 20
-1235.063120150473
 30
0.0
  0
SEQEND
  5
282
330
27E
100
AcDbEntity
  8
Default
  0
MTEXT
  5
283
330
1F
100
AcDbEntity
  8
Layer 03
100
AcDbMText
 10
3967.619845864381
 20
-1118.989002184459
 30
0.0
 40
11.10825828515776
 41
350.3931037339979
 46
7.884448543704364
 71
     1
 72
     1
  1
Zip Pocket - bottom (1x)
  7
Millimeter Small
210
0.0
220
0.0
230
-1.0
 73
     1
 44
1.0
1001
ACAD
1000
ACAD_MTEXT_DEFINED_HEIGHT_BEGIN
1070
    46
1040
7.884448543704364
1000
ACAD_MTEXT_DEFINED_HEIGHT_END
  0
LINE
  5
284
330
1F
100
AcDbEntity
  8
Layer 02
100
AcDbLine
 10
3905.201641181633
 20
-1152.285705003479
 30
0.0
 11
3939.273728842456
 21
-1152.285705003479
 31
0.0
  0
LINE
  5
285
330
1F
100
AcDbEntity
  8
Layer 02
100
AcDbLine
 10
3905.201641181633
 20
-1177.285705003479
 30
0.0
 11
3939.273728842456
 21
-1177.285705003479
 31
0.0
  0
LINE
  5
286
330
1F
100
AcDbEntity
  8
Layer 02
100
AcDbLine
 10
3905.201641181633
 20
-1152.285705003479
 30
0.0
 11
3939.273728842456
 21
-1152.285705003479
 31
0.0
  0
POLYLINE
  5
287
330
1F
100
AcDbEntity
  8
Layer 05
100
AcDb2dPolyline
 66
     1
 10
0.0
 20
0.0
 30
0.0
  0
VERTEX
  5
288
330
287
100
AcDbEntity
  8
Layer 05
100
AcDbVertex
100
AcDb2dVertex
 10
4159.729213328051
 20
-1277.255035697196
 30
0.0
  0
VERTEX
  5
289
330
287
100
AcDbEntity
  8
Layer 05
100
AcDbVertex
100
AcDb2dVertex
 10
4163.759064297308
 20
-1297.979983539094
 30
0.0
  0
SEQEND
  5
28A
330
287
100
AcDbEntity
  8
Layer 05
  0
POLYLINE
  5
28B
330
1F
100
AcDbEntity
  8
Layer 05
100
AcDb2dPolyline
 66
     1
 10
0.0
 20
0.0
 30
0.0
  0
VERTEX
  5
28C
330
28B
100
AcDbEntity
  8
Layer 05
100
AcDbVertex
100
AcDb2dVertex
 10
4136.633602917838
 20
-1277.255035697196
 30
0.0
  0
VERTEX
  5
28D
330
28B
100
AcDbEntity
  8
Layer 05
100
AcDbVertex
100
AcDb2dVertex
 10
4139.744698523288
 20
-1295.921609329892
 30
0.0
  0
VERTEX
  5
28E
330
28B
100
AcDbEntity
  8
Layer 05
100
AcDbVertex
100
AcDb2dVertex
 10
4145.425829628891
 20
-1277.255035697196
 30
0.0
  0
SEQEND
  5
28F
330
28B
100
AcDbEntity
  8
Layer 05
  0
POLYLINE
  5
290
330
1F
100
AcDbEntity
  8
Layer 05
100
AcDb2dPolyline
 66
     1
 10
0.0
 20
0.0
 30
0.0
  0
VERTEX
  5
291
330
290
100
AcDbEntity
  8
Layer 05
100
AcDbVertex
100
AcDb2dVertex
 10
4118.180524019358
 20
-1277.255035697196
 30
0.0
  0
VERTEX
  5
292
330
290
100
AcDbEntity
  8
Layer 05
100
AcDbVertex
100
AcDb2dVertex
 10
4121.905455376874
 20
-1294.549359857091
 30
0.0
  0
VERTEX
  5
293
330
290
100
AcDbEntity
  8
Layer 05
100
AcDbVertex
100
AcDb2dVertex
 10
4125.364320208852
 20
-1277.255035697196
 30
0.0
  0
SEQEND
  5
294
330
290
100
AcDbEntity
  8
Layer 05
  0
POLYLINE
  5
295
330
1F
100
AcDbEntity
  8
Layer 05
100
AcDb2dPolyline
 66
     1
 10
0.0
 20
0.0
 30
0.0
  0
VERTEX
  5
296
330
295
100
AcDbEntity
  8
Layer 05
100
AcDbVertex
100
AcDb2dVertex
 10
4098.577214339254
 20
-1291.804860911489
 30
0.0
  0
VERTEX
  5
297
330
295
100
AcDbEntity
  8
Layer 05
100
AcDbVertex
100
AcDb2dVertex
 10
4103.347648835743
 20
-1277.255035697196
 30
0.0
  0
SEQEND
  5
298
330
295
100
AcDbEntity
  8
Layer 05
  0
POLYLINE
  5
299
330
1F
100
AcDbEntity
  8
Layer 05
100
AcDb2dPolyline
 66
     1
 10
0.0
 20
0.0
 30
0.0
  0
VERTEX
  5
29A
330
299
100
AcDbEntity
  8
Layer 05
100
AcDbVertex
100
AcDb2dVertex
 10
4279.983398681477
 20
-1327.556320989485
 30
0.0
  0
VERTEX
  5
29B
330
299
100
AcDbEntity
  8
Layer 05
100
AcDbVertex
100
AcDb2dVertex
 10
4246.780157401779
 20
-1330.227846149921
 30
0.0
  0
VERTEX
  5
29C
330
299
100
AcDbEntity
  8
Layer 05
100
AcDbVertex
100
AcDb2dVertex
 10
4279.983398681477
 20
-1337.428549078048
 30
0.0
  0
SEQEND
  5
29D
330
299
100
AcDbEntity
  8
Layer 05
  0
POLYLINE
  5
29E
330
1F
100
AcDbEntity
  8
Layer 05
100
AcDb2dPolyline
 66
     1
 10
0.0
 20
0.0
 30
0.0
  0
VERTEX
  5
29F
330
29E
100
AcDbEntity
  8
Layer 05
100
AcDbVertex
100
AcDb2dVertex
 10
4279.983398681476
 20
-1312.154102517038
 30
0.0
  0
VERTEX
  5
2A0
330
29E
100
AcDbEntity
  8
Layer 05
100
AcDbVertex
100
AcDb2dVertex
 10
4249.52465634738
 20
-1316.505351421909
 30
0.0
  0
VERTEX
  5
2A1
330
29E
100
AcDbEntity
  8
Layer 05
100
AcDbVertex
100
AcDb2dVertex
 10
4279.983398681477
 20
-1321.275997811587
 30
0.0
  0
SEQEND
  5
2A2
330
29E
100
AcDbEntity
  8
Layer 05
  0
POLYLINE
  5
2A3
330
1F
100
AcDbEntity
  8
Layer 01
100
AcDb2dPolyline
 66
     1
 10
0.0
 20
0.0
 30
0.0
  0
VERTEX
  5
2A4
330
2A3
100
AcDbEntity
  8
Layer 01
100
AcDbVertex
100
AcDb2dVertex
 10
4008.85096282632
 20
-1277.255035697196
 30
0.0
  0
VERTEX
  5
2A5
330
2A3
100
AcDbEntity
  8
Layer 01
100
AcDbVertex
100
AcDb2dVertex
 10
4008.85096282632
 20
-1384.477620550202
 30
0.0
  0
VERTEX
  5
2A6
330
2A3
100
AcDbEntity
  8
Layer 01
100
AcDbVertex
100
AcDb2dVertex
 10
4279.983398681476
 20
-1384.477620550202
 30
0.0
  0
SEQEND
  5
2A7
330
2A3
100
AcDbEntity
  8
Layer 01
  0
POLYLINE
  5
2A8
330
1F
100
AcDbEntity
  8
Default
100
AcDb2dPolyline
 66
     1
 10
0.0
 20
0.0
 30
0.0
  0
VERTEX
  5
2A9
330
2A8
100
AcDbEntity
  8
Default
100
AcDbVertex
100
AcDb2dVertex
 10
3996.15096282632
 20
-1277.255035697196
 30
0.0
  0
VERTEX
  5
2AA
330
2A8
100
AcDbEntity
  8
Default
100
AcDbVertex
100
AcDb2dVertex
 10
3996.15096282632
 20
-1397.177620550202
 30
0.0
  0
VERTEX
  5
2AB
330
2A8
100
AcDbEntity
  8
Default
100
AcDbVertex
100
AcDb2dVertex
 10
4279.983398681476
 20
-1397.177620550202
 30
0.0
  0
SEQEND
  5
2AC
330
2A8
100
AcDbEntity
  8
Default
  0
LINE
  5
2AD
330
1F
100
AcDbEntity
  8
Layer 02
100
AcDbLine
 10
3678.894940345725
 20
-654.828790984705
 30
0.0
 11
3641.221324316297
 21
-654.828790984705
 31
0.0
  0
LINE
  5
2AE
330
1F
100
AcDbEntity
  8
Layer 02
100
AcDbLine
 10
3678.894940345725
 20
-679.828790984705
 30
0.0
 11
3641.221324316297
 21
-679.828790984705
 31
0.0
  0
LINE
  5
2AF
330
1F
100
AcDbEntity
  8
Layer 02
100
AcDbLine
 10
3678.894940345725
 20
-554.8287909847052
 30
0.0
 11
3641.221324316297
 21
-554.8287909847052
 31
0.0
  0
LINE
  5
2B0
330
1F
100
AcDbEntity
  8
Layer 02
100
AcDbLine
 10
3678.894940345725
 20
-529.8287909847052
 30
0.0
 11
3641.221324316297
 21
-529.8287909847052
 31
0.0
  0
POLYLINE
  5
2B1
330
1F
100
AcDbEntity
  8
Layer 05
100
AcDb2dPolyline
 66
     1
 10
0.0
 20
0.0
 30
0.0
  0
VERTEX
  5
2B2
330
2B1
100
AcDbEntity
  8
Layer 05
100
AcDbVertex
100
AcDb2dVertex
 10
4279.258255683082
 20
-950.9254676550995
 30
0.0
  0
VERTEX
  5
2B3
330
2B1
100
AcDbEntity
  8
Layer 05
100
AcDbVertex
100
AcDb2dVertex
 10
4279.258255683082
 20
-1026.3254676551
 30
0.0
  0
SEQEND
  5
2B4
330
2B1
100
AcDbEntity
  8
Layer 05
  0
POLYLINE
  5
2B5
330
1F
100
AcDbEntity
  8
Layer 05
100
AcDb2dPolyline
 66
     1
 10
0.0
 20
0.0
 30
0.0
  0
VERTEX
  5
2B6
330
2B5
100
AcDbEntity
  8
Layer 05
100
AcDbVertex
100
AcDb2dVertex
 10
4178.467373893547
 20
-950.9254676550995
 30
0.0
  0
VERTEX
  5
2B7
330
2B5
100
AcDbEntity
  8
Layer 05
100
AcDbVertex
100
AcDb2dVertex
 10
4178.467373893547
 20
-1026.3254676551
 30
0.0
  0
SEQEND
  5
2B8
330
2B5
100
AcDbEntity
  8
Layer 05
  0
POLYLINE
  5
2B9
330
1F
100
AcDbEntity
  8
Layer 01
100
AcDb2dPolyline
 66
     1
 10
0.0
 20
0.0
 30
0.0
  0
VERTEX
  5
2BA
330
2B9
100
AcDbEntity
  8
Layer 01
100
AcDbVertex
100
AcDb2dVertex
 10
4178.467373893547
 20
-963.6254676550996
 30
0.0
  0
VERTEX
  5
2BB
330
2B9
100
AcDbEntity
  8
Layer 01
100
AcDbVertex
100
AcDb2dVertex
 10
3909.377923017701
 20
-963.6254676550996
 30
0.0
  0
VERTEX
  5
2BC
330
2B9
100
AcDbEntity
  8
Layer 01
100
AcDbVertex
100
AcDb2dVertex
 10
3909.377923017701
 20
-1013.625467655099
 30
0.0
  0
VERTEX
  5
2BD
330
2B9
100
AcDbEntity
  8
Layer 01
100
AcDbVertex
100
AcDb2dVertex
 10
4178.467373893546
 20
-1013.6254676551
 30
0.0
  0
SEQEND
  5
2BE
330
2B9
100
AcDbEntity
  8
Layer 01
  0
POLYLINE
  5
2BF
330
1F
100
AcDbEntity
  8
Default
100
AcDb2dPolyline
 66
     1
 10
0.0
 20
0.0
 30
0.0
  0
VERTEX
  5
2C0
330
2BF
100
AcDbEntity
  8
Default
100
AcDbVertex
100
AcDb2dVertex
 10
4178.467373893547
 20
-950.9254676550995
 30
0.0
  0
VERTEX
  5
2C1
330
2BF
100
AcDbEntity
  8
Default
100
AcDbVertex
100
AcDb2dVertex
 10
3896.6779230177
 20
-950.9254676550995
 30
0.0
  0
VERTEX
  5
2C2
330
2BF
100
AcDbEntity
  8
Default
100
AcDbVertex
100
AcDb2dVertex
 10
3896.6779230177
 20
-1026.3254676551
 30
0.0
  0
VERTEX
  5
2C3
330
2BF
100
AcDbEntity
  8
Default
100
AcDbVertex
100
AcDb2dVertex
 10
4178.467373893547
 20
-1026.3254676551
 30
0.0
  0
SEQEND
  5
2C4
330
2BF
100
AcDbEntity
  8
Default
  0
MTEXT
  5
2C5
330
1F
100
AcDbEntity
  8
Layer 03
100
AcDbMText
 10
3912.633021512122
 20
-983.3605815331233
 30
0.0
 40
11.43092082488208
 41
307.6408691566091
 46
8.113468802878259
 71
     1
 72
     1
  1
Zip Pocket - top (1x)
  7
Millimeter Small
 73
     1
 44
1.0
1001
ACAD
1000
ACAD_MTEXT_DEFINED_HEIGHT_BEGIN
1070
    46
1040
8.113468802878259
1000
ACAD_MTEXT_DEFINED_HEIGHT_END
  0
POLYLINE
  5
2C6
330
1F
100
AcDbEntity
  8
Layer 05
100
AcDb2dPolyline
 66
     1
 10
0.0
 20
0.0
 30
0.0
  0
VERTEX
  5
2C7
330
2C6
100
AcDbEntity
  8
Layer 05
100
AcDbVertex
100
AcDb2dVertex
 10
4170.047812420145
 20
-985.5986947164034
 30
0.0
  0
VERTEX
  5
2C8
330
2C6
100
AcDbEntity
  8
Layer 05
100
AcDbVertex
100
AcDb2dVertex
 10
4178.467373893546
 20
-987.7686847868678
 30
0.0
  0
SEQEND
  5
2C9
330
2C6
100
AcDbEntity
  8
Layer 05
  0
POLYLINE
  5
2CA
330
1F
100
AcDbEntity
  8
Layer 05
100
AcDb2dPolyline
 66
     1
 10
0.0
 20
0.0
 30
0.0
  0
VERTEX
  5
2CB
330
2CA
100
AcDbEntity
  8
Layer 05
100
AcDbVertex
100
AcDb2dVertex
 10
4178.467373893546
 20
-995.075751402707
 30
0.0
  0
VERTEX
  5
2CC
330
2CA
100
AcDbEntity
  8
Layer 05
100
AcDbVertex
100
AcDb2dVertex
 10
4169.708689868647
 20
-995.4332487098459
 30
0.0
  0
SEQEND
  5
2CD
330
2CA
100
AcDbEntity
  8
Layer 05
  0
POLYLINE
  5
2CE
330
1F
100
AcDbEntity
  8
Layer 05
100
AcDb2dPolyline
 66
     1
 10
0.0
 20
0.0
 30
0.0
  0
VERTEX
  5
2CF
330
2CE
100
AcDbEntity
  8
Layer 05
100
AcDbVertex
100
AcDb2dVertex
 10
4279.258255683081
 20
-987.7686847868678
 30
0.0
  0
VERTEX
  5
2D0
330
2CE
100
AcDbEntity
  8
Layer 05
100
AcDbVertex
100
AcDb2dVertex
 10
4303.733581704987
 20
-994.0767585038539
 30
0.0
  0
VERTEX
  5
2D1
330
2CE
100
AcDbEntity
  8
Layer 05
100
AcDbVertex
100
AcDb2dVertex
 10
4279.258255683081
 20
-995.075751402707
 30
0.0
  0
SEQEND
  5
2D2
330
2CE
100
AcDbEntity
  8
Layer 05
  0
POLYLINE
  5
2D3
330
1F
100
AcDbEntity
  8
Default
100
AcDb2dPolyline
 66
     1
 10
0.0
 20
0.0
 30
0.0
  0
VERTEX
  5
2D4
330
2D3
100
AcDbEntity
  8
Default
100
AcDbVertex
100
AcDb2dVertex
 10
4279.258255683082
 20
-1026.3254676551
 30
0.0
  0
VERTEX
  5
2D5
330
2D3
100
AcDbEntity
  8
Default
100
AcDbVertex
100
AcDb2dVertex
 10
4572.868804807236
 20
-1026.3254676551
 30
0.0
  0
VERTEX
  5
2D6
330
2D3
100
AcDbEntity
  8
Default
100
AcDbVertex
100
AcDb2dVertex
 10
4572.868804807236
 20
-950.9254676550995
 30
0.0
  0
VERTEX
  5
2D7
330
2D3
100
AcDbEntity
  8
Default
100
AcDbVertex
100
AcDb2dVertex
 10
4279.258255683082
 20
-950.9254676550995
 30
0.0
  0
SEQEND
  5
2D8
330
2D3
100
AcDbEntity
  8
Default
  0
POLYLINE
  5
2D9
330
1F
100
AcDbEntity
  8
Layer 01
100
AcDb2dPolyline
 66
     1
 10
0.0
 20
0.0
 30
0.0
  0
VERTEX
  5
2DA
330
2D9
100
AcDbEntity
  8
Layer 01
100
AcDbVertex
100
AcDb2dVertex
 10
4279.258255683081
 20
-1013.6254676551
 30
0.0
  0
VERTEX
  5
2DB
330
2D9
100
AcDbEntity
  8
Layer 01
100
AcDbVertex
100
AcDb2dVertex
 10
4560.168804807236
 20
-1013.6254676551
 30
0.0
  0
VERTEX
  5
2DC
330
2D9
100
AcDbEntity
  8
Layer 01
100
AcDbVertex
100
AcDb2dVertex
 10
4560.168804807236
 20
-963.6254676550994
 30
0.0
  0
VERTEX
  5
2DD
330
2D9
100
AcDbEntity
  8
Layer 01
100
AcDbVertex
100
AcDb2dVertex
 10
4279.258255683082
 20
-963.6254676550996
 30
0.0
  0
SEQEND
  5
2DE
330
2D9
100
AcDbEntity
  8
Layer 01
  0
MTEXT
  5
2DF
330
1F
100
AcDbEntity
  8
Layer 04
100
AcDbMText
 10
3193.030264696686
 20
-641.95485981109
 30
0.0
 40
15.564919517781
 41
393.86013736298
 46
6.81811148441928
 71
     1
 72
     1
  1
Channel for Elastic
  7
Millimeter Small
 11
0.2806511703695003
 21
0.9598098356290322
 31
0.0
 73
     1
 44
1.0
1001
ACAD
1000
ACAD_MTEXT_DEFINED_HEIGHT_BEGIN
1070
    46
1040
6.81811148441928
1000
ACAD_MTEXT_DEFINED_HEIGHT_END
  0
POLYLINE
  5
2E0
330
1F
100
AcDbEntity
  8
Layer 05
100
AcDb2dPolyline
 66
     1
 10
0.0
 20
0.0
 30
0.0
  0
VERTEX
  5
2E1
330
2E0
100
AcDbEntity
  8
Layer 05
100
AcDbVertex
100
AcDb2dVertex
 10
3246.208122194236
 20
-753.2348521642609
 30
0.0
  0
VERTEX
  5
2E2
330
2E0
100
AcDbEntity
  8
Layer 05
100
AcDbVertex
100
AcDb2dVertex
 10
3433.958374297201
 20
-753.2348521642609
 30
0.0
  0
VERTEX
  5
2E3
330
2E0
100
AcDbEntity
  8
Layer 05
100
AcDbVertex
100
AcDb2dVertex
 10
3433.958374297201
 20
-832.7957498667541
 30
0.0
  0
SEQEND
  5
2E4
330
2E0
100
AcDbEntity
  8
Layer 05
  0
POLYLINE
  5
2E5
330
1F
100
AcDbEntity
  8
Layer 05
100
AcDb2dPolyline
 66
     1
 10
0.0
 20
0.0
 30
0.0
  0
VERTEX
  5
2E6
330
2E5
100
AcDbEntity
  8
Layer 05
100
AcDbVertex
100
AcDb2dVertex
 10
3346.606276746273
 20
-405.7927729450965
 30
0.0
  0
VERTEX
  5
2E7
330
2E5
100
AcDbEntity
  8
Layer 05
100
AcDbVertex
100
AcDb2dVertex
 10
3346.606276746273
 20
-651.6318752426033
 30
0.0
  0
VERTEX
  5
2E8
330
2E5
100
AcDbEntity
  8
Layer 05
100
AcDbVertex
100
AcDb2dVertex
 10
3158.856024643308
 20
-651.6318752426033
 30
0.0
  0
SEQEND
  5
2E9
330
2E5
100
AcDbEntity
  8
Layer 05
  0
POLYLINE
  5
2EA
330
1F
100
AcDbEntity
  8
Layer 05
100
AcDb2dPolyline
 66
     1
 10
0.0
 20
0.0
 30
0.0
  0
VERTEX
  5
2EB
330
2EA
100
AcDbEntity
  8
Layer 05
100
AcDbVertex
100
AcDb2dVertex
 10
3679.514783527502
 20
-687.5915599218467
 30
0.0
  0
VERTEX
  5
2EC
330
2EA
100
AcDbEntity
  8
Layer 05
100
AcDbVertex
100
AcDb2dVertex
 10
3493.399150737182
 20
-687.5915599218467
 30
0.0
  0
VERTEX
  5
2ED
330
2EA
100
AcDbEntity
  8
Layer 05
100
AcDbVertex
100
AcDb2dVertex
 10
3493.399150737182
 20
-441.75245762434
 30
0.0
  0
SEQEND
  5
2EE
330
2EA
100
AcDbEntity
  8
Layer 05
  0
POLYLINE
  5
2EF
330
1F
100
AcDbEntity
  8
Layer 05
100
AcDb2dPolyline
 66
     1
 10
0.0
 20
0.0
 30
0.0
  0
VERTEX
  5
2F0
330
2EF
100
AcDbEntity
  8
Layer 05
100
AcDbVertex
100
AcDb2dVertex
 10
3506.905526604262
 20
-753.2348521642609
 30
0.0
  0
VERTEX
  5
2F1
330
2EF
100
AcDbEntity
  8
Layer 05
100
AcDbVertex
100
AcDb2dVertex
 10
3693.021159394582
 20
-753.2348521642609
 30
0.0
  0
SEQEND
  5
2F2
330
2EF
100
AcDbEntity
  8
Layer 05
  0
LINE
  5
2F3
330
1F
100
AcDbEntity
  8
Layer 05
100
AcDbLine
 10
3506.905526604262
 20
-832.7957498667541
 30
0.0
 11
3506.905526604262
 21
-753.2348521642609
 31
0.0
  0
LINE
  5
2F4
330
1F
100
AcDbEntity
  8
Layer 01
100
AcDbLine
 10
3680.321159394582
 20
-832.7957498667541
 30
0.0
 11
3680.321159394582
 21
-753.2348521642609
 31
0.0
  0
LINE
  5
2F5
330
1F
100
AcDbEntity
  8
Default
100
AcDbLine
 10
3693.021159394582
 20
-832.7957498667541
 30
0.0
 11
3693.021159394582
 21
-753.2348521642609
 31
0.0
  0
LINE
  5
2F6
330
1F
100
AcDbEntity
  8
Default
100
AcDbLine
 10
3506.905526604262
 20
-832.7957498667541
 30
0.0
 11
3693.021159394582
 21
-832.7957498667541
 31
0.0
  0
LINE
  5
2F7
330
1F
100
AcDbEntity
  8
Layer 01
100
AcDbLine
 10
3506.905526604262
 20
-820.0957498667541
 30
0.0
 11
3693.021159394582
 21
-820.0957498667541
 31
0.0
  0
POLYLINE
  5
2F8
330
1F
100
AcDbEntity
  8
Layer 05
100
AcDb2dPolyline
 66
     1
 10
0.0
 20
0.0
 30
0.0
  0
VERTEX
  5
2F9
330
2F8
100
AcDbEntity
  8
Layer 05
100
AcDbVertex
100
AcDb2dVertex
 10
3581.313333257126
 20
-753.2348521642609
 30
0.0
  0
VERTEX
  5
2FA
330
2F8
100
AcDbEntity
  8
Layer 05
100
AcDbVertex
100
AcDb2dVertex
 10
3584.524645121815
 20
-771.6269110256651
 30
0.0
  0
VERTEX
  5
2FB
330
2F8
100
AcDbEntity
  8
Layer 05
100
AcDbVertex
100
AcDb2dVertex
 10
3587.111028399201
 20
-753.2348521642609
 30
0.0
  0
SEQEND
  5
2FC
330
2F8
100
AcDbEntity
  8
Layer 05
  0
POLYLINE
  5
2FD
330
1F
100
AcDbEntity
  8
Layer 05
100
AcDb2dPolyline
 66
     1
 10
0.0
 20
0.0
 30
0.0
  0
VERTEX
  5
2FE
330
2FD
100
AcDbEntity
  8
Layer 05
100
AcDbVertex
100
AcDb2dVertex
 10
3520.43198183001
 20
-771.6269110256651
 30
0.0
  0
VERTEX
  5
2FF
330
2FD
100
AcDbEntity
  8
Layer 05
100
AcDbVertex
100
AcDb2dVertex
 10
3506.905526604262
 20
-774.003180186945
 30
0.0
  0
SEQEND
  5
300
330
2FD
100
AcDbEntity
  8
Layer 05
  0
POLYLINE
  5
301
330
1F
100
AcDbEntity
  8
Layer 05
100
AcDb2dPolyline
 66
     1
 10
0.0
 20
0.0
 30
0.0
  0
VERTEX
  5
302
330
301
100
AcDbEntity
  8
Layer 05
100
AcDbVertex
100
AcDb2dVertex
 10
3506.905526604262
 20
-780.509512464444
 30
0.0
  0
VERTEX
  5
303
330
301
100
AcDbEntity
  8
Layer 05
100
AcDbVertex
100
AcDb2dVertex
 10
3523.533239731226
 20
-781.9644373630533
 30
0.0
  0
VERTEX
  5
304
330
301
100
AcDbEntity
  8
Layer 05
100
AcDbVertex
100
AcDb2dVertex
 10
3506.905526604263
 20
-785.162074502854
 30
0.0
  0
SEQEND
  5
305
330
301
100
AcDbEntity
  8
Layer 05
  0
POLYLINE
  5
306
330
1F
100
AcDbEntity
  8
Layer 05
100
AcDb2dPolyline
 66
     1
 10
0.0
 20
0.0
 30
0.0
  0
VERTEX
  5
307
330
306
100
AcDbEntity
  8
Layer 05
100
AcDbVertex
100
AcDb2dVertex
 10
3506.905526604262
 20
-792.794028815945
 30
0.0
  0
VERTEX
  5
308
330
306
100
AcDbEntity
  8
Layer 05
100
AcDbVertex
100
AcDb2dVertex
 10
3523.016363414356
 20
-794.8863452847884
 30
0.0
  0
SEQEND
  5
309
330
306
100
AcDbEntity
  8
Layer 05
  0
POLYLINE
  5
30A
330
1F
100
AcDbEntity
  8
Layer 05
100
AcDb2dPolyline
 66
     1
 10
0.0
 20
0.0
 30
0.0
  0
VERTEX
  5
30B
330
30A
100
AcDbEntity
  8
Layer 05
100
AcDbVertex
100
AcDb2dVertex
 10
3573.604652532121
 20
-687.5915599218467
 30
0.0
  0
VERTEX
  5
30C
330
30A
100
AcDbEntity
  8
Layer 05
100
AcDbVertex
100
AcDb2dVertex
 10
3575.67015610656
 20
-672.9035345036091
 30
0.0
  0
SEQEND
  5
30D
330
30A
100
AcDbEntity
  8
Layer 05
  0
POLYLINE
  5
30E
330
1F
100
AcDbEntity
  8
Layer 05
100
AcDb2dPolyline
 66
     1
 10
0.0
 20
0.0
 30
0.0
  0
VERTEX
  5
30F
330
30E
100
AcDbEntity
  8
Layer 05
100
AcDbVertex
100
AcDb2dVertex
 10
3565.332629769172
 20
-673.4204108204785
 30
0.0
  0
VERTEX
  5
310
330
30E
100
AcDbEntity
  8
Layer 05
100
AcDbVertex
100
AcDb2dVertex
 10
3567.806957390046
 20
-687.5915599218467
 30
0.0
  0
SEQEND
  5
311
330
30E
100
AcDbEntity
  8
Layer 05
  0
POLYLINE
  5
312
330
1F
100
AcDbEntity
  8
Layer 05
100
AcDb2dPolyline
 66
     1
 10
0.0
 20
0.0
 30
0.0
  0
VERTEX
  5
313
330
312
100
AcDbEntity
  8
Layer 05
100
AcDbVertex
100
AcDb2dVertex
 10
3493.399150737183
 20
-577.2174293180408
 30
0.0
  0
VERTEX
  5
314
330
312
100
AcDbEntity
  8
Layer 05
100
AcDbVertex
100
AcDb2dVertex
 10
3524.499400736489
 20
-582.9670553683328
 30
0.0
  0
VERTEX
  5
315
330
312
100
AcDbEntity
  8
Layer 05
100
AcDbVertex
100
AcDb2dVertex
 10
3493.399150737183
 20
-584.7109946206303
 30
0.0
  0
SEQEND
  5
316
330
312
100
AcDbEntity
  8
Layer 05
  0
POLYLINE
  5
317
330
1F
100
AcDbEntity
  8
Layer 05
100
AcDb2dPolyline
 66
     1
 10
0.0
 20
0.0
 30
0.0
  0
VERTEX
  5
318
330
317
100
AcDbEntity
  8
Layer 05
100
AcDbVertex
100
AcDb2dVertex
 10
3493.399150737183
 20
-564.5987680910316
 30
0.0
  0
VERTEX
  5
319
330
317
100
AcDbEntity
  8
Layer 05
100
AcDbVertex
100
AcDb2dVertex
 10
3518.296884934056
 20
-570.0451474465976
 30
0.0
  0
VERTEX
  5
31A
330
317
100
AcDbEntity
  8
Layer 05
100
AcDbVertex
100
AcDb2dVertex
 10
3493.399150737183
 20
-570.7432147605286
 30
0.0
  0
SEQEND
  5
31B
330
317
100
AcDbEntity
  8
Layer 05
  0
POLYLINE
  5
31C
330
1F
100
AcDbEntity
  8
Layer 05
100
AcDb2dPolyline
 66
     1
 10
0.0
 20
0.0
 30
0.0
  0
VERTEX
  5
31D
330
31C
100
AcDbEntity
  8
Layer 05
100
AcDbVertex
100
AcDb2dVertex
 10
3493.399150737183
 20
-551.4590255489335
 30
0.0
  0
VERTEX
  5
31E
330
31C
100
AcDbEntity
  8
Layer 05
100
AcDbVertex
100
AcDb2dVertex
 10
3515.19562703284
 20
-557.6401158417319
 30
0.0
  0
VERTEX
  5
31F
330
31C
100
AcDbEntity
  8
Layer 05
100
AcDbVertex
100
AcDb2dVertex
 10
3493.399150737182
 20
-558.3666650515871
 30
0.0
  0
SEQEND
  5
320
330
31C
100
AcDbEntity
  8
Layer 05
  0
POLYLINE
  5
321
330
1F
100
AcDbEntity
  8
Layer 05
100
AcDb2dPolyline
 66
     1
 10
0.0
 20
0.0
 30
0.0
  0
VERTEX
  5
322
330
321
100
AcDbEntity
  8
Layer 05
100
AcDbVertex
100
AcDb2dVertex
 10
3493.399150737182
 20
-539.745914319349
 30
0.0
  0
VERTEX
  5
323
330
321
100
AcDbEntity
  8
Layer 05
100
AcDbVertex
100
AcDb2dVertex
 10
3516.229379666579
 20
-546.2688368706051
 30
0.0
  0
VERTEX
  5
324
330
321
100
AcDbEntity
  8
Layer 05
100
AcDbVertex
100
AcDb2dVertex
 10
3493.399150737183
 20
-547.2614555197092
 30
0.0
  0
SEQEND
  5
325
330
321
100
AcDbEntity
  8
Layer 05
  0
LINE
  5
326
330
1F
100
AcDbEntity
  8
Default
100
AcDbLine
 10
3679.514783527502
 20
-687.5915599218467
 30
0.0
 11
3679.514783527502
 21
-441.75245762434
 31
0.0
  0
LINE
  5
327
330
1F
100
AcDbEntity
  8
Layer 01
100
AcDbLine
 10
3666.814783527502
 20
-687.5915599218467
 30
0.0
 11
3666.814783527502
 21
-441.75245762434
 31
0.0
  0
LINE
  5
328
330
1F
100
AcDbEntity
  8
Default
100
AcDbLine
 10
3679.514783527502
 20
-441.75245762434
 30
0.0
 11
3493.399150737182
 21
-441.75245762434
 31
0.0
  0
LINE
  5
329
330
1F
100
AcDbEntity
  8
Layer 01
100
AcDbLine
 10
3679.514783527502
 20
-454.45245762434
 30
0.0
 11
3493.399150737182
 21
-454.45245762434
 31
0.0
  0
MTEXT
  5
32A
330
1F
100
AcDbEntity
  8
Layer 03
100
AcDbMText
 10
3512.855724119883
 20
-475.2771261563431
 30
0.0
 40
13.32575450340866
 41
299.1052505384661
 46
9.458388794267236
 71
     1
 72
     1
  1
Stuff Pocket (1x)
  7
Millimeter Small
 73
     1
 44
1.0
1001
ACAD
1000
ACAD_MTEXT_DEFINED_HEIGHT_BEGIN
1070
    46
1040
9.458388794267236
1000
ACAD_MTEXT_DEFINED_HEIGHT_END
  0
POLYLINE
  5
32B
330
1F
100
AcDbEntity
  8
Layer 05
100
AcDb2dPolyline
 66
     1
 10
0.0
 20
0.0
 30
0.0
  0
VERTEX
  5
32C
330
32B
100
AcDbEntity
  8
Layer 05
100
AcDbVertex
100
AcDb2dVertex
 10
3274.930113186154
 20
-651.6318752426033
 30
0.0
  0
VERTEX
  5
32D
330
32B
100
AcDbEntity
  8
Layer 05
100
AcDbVertex
100
AcDb2dVertex
 10
3282.08440812474
 20
-630.7413340219329
 30
0.0
  0
VERTEX
  5
32E
330
32B
100
AcDbEntity
  8
Layer 05
100
AcDbVertex
100
AcDb2dVertex
 10
3281.794261718897
 20
-651.6318752426033
 30
0.0
  0
SEQEND
  5
32F
330
32B
100
AcDbEntity
  8
Layer 05
  0
POLYLINE
  5
330
330
1F
100
AcDbEntity
  8
Layer 05
100
AcDb2dPolyline
 66
     1
 10
0.0
 20
0.0
 30
0.0
  0
VERTEX
  5
331
330
330
100
AcDbEntity
  8
Layer 05
100
AcDbVertex
100
AcDb2dVertex
 10
3261.382810998678
 20
-651.6318752426033
 30
0.0
  0
VERTEX
  5
332
330
330
100
AcDbEntity
  8
Layer 05
100
AcDbVertex
100
AcDb2dVertex
 10
3268.128747569266
 20
-629.7075813881941
 30
0.0
  0
VERTEX
  5
333
330
330
100
AcDbEntity
  8
Layer 05
100
AcDbVertex
100
AcDb2dVertex
 10
3268.713395405383
 20
-651.6318752426033
 30
0.0
  0
SEQEND
  5
334
330
330
100
AcDbEntity
  8
Layer 05
  0
POLYLINE
  5
335
330
1F
100
AcDbEntity
  8
Layer 05
100
AcDb2dPolyline
 66
     1
 10
0.0
 20
0.0
 30
0.0
  0
VERTEX
  5
336
330
335
100
AcDbEntity
  8
Layer 05
100
AcDbVertex
100
AcDb2dVertex
 10
3249.233399153948
 20
-651.6318752426033
 30
0.0
  0
VERTEX
  5
337
330
335
100
AcDbEntity
  8
Layer 05
100
AcDbVertex
100
AcDb2dVertex
 10
3253.656210696923
 20
-628.1569524375858
 30
0.0
  0
VERTEX
  5
338
330
335
100
AcDbEntity
  8
Layer 05
100
AcDbVertex
100
AcDb2dVertex
 10
3256.417966321042
 20
-651.6318752426033
 30
0.0
  0
SEQEND
  5
339
330
335
100
AcDbEntity
  8
Layer 05
  0
POLYLINE
  5
33A
330
1F
100
AcDbEntity
  8
Layer 05
100
AcDb2dPolyline
 66
     1
 10
0.0
 20
0.0
 30
0.0
  0
VERTEX
  5
33B
330
33A
100
AcDbEntity
  8
Layer 05
100
AcDbVertex
100
AcDb2dVertex
 10
3346.606276746273
 20
-548.7513099413869
 30
0.0
  0
VERTEX
  5
33C
330
33A
100
AcDbEntity
  8
Layer 05
100
AcDbVertex
100
AcDb2dVertex
 10
3322.400760840553
 20
-550.1086285903058
 30
0.0
  0
SEQEND
  5
33D
330
33A
100
AcDbEntity
  8
Layer 05
  0
POLYLINE
  5
33E
330
1F
100
AcDbEntity
  8
Layer 05
100
AcDb2dPolyline
 66
     1
 10
0.0
 20
0.0
 30
0.0
  0
VERTEX
  5
33F
330
33E
100
AcDbEntity
  8
Layer 05
100
AcDbVertex
100
AcDb2dVertex
 10
3346.606276746273
 20
-534.7835300812852
 30
0.0
  0
VERTEX
  5
340
330
33E
100
AcDbEntity
  8
Layer 05
100
AcDbVertex
100
AcDb2dVertex
 10
3316.198245038121
 20
-535.6360917179625
 30
0.0
  0
VERTEX
  5
341
330
33E
100
AcDbEntity
  8
Layer 05
100
AcDbVertex
100
AcDb2dVertex
 10
3346.606276746273
 20
-541.2577446387974
 30
0.0
  0
SEQEND
  5
342
330
33E
100
AcDbEntity
  8
Layer 05
  0
POLYLINE
  5
343
330
1F
100
AcDbEntity
  8
Layer 05
100
AcDb2dPolyline
 66
     1
 10
0.0
 20
0.0
 30
0.0
  0
VERTEX
  5
344
330
343
100
AcDbEntity
  8
Layer 05
100
AcDbVertex
100
AcDb2dVertex
 10
3346.606276746273
 20
-522.4069803723437
 30
0.0
  0
VERTEX
  5
345
330
343
100
AcDbEntity
  8
Layer 05
100
AcDbVertex
100
AcDb2dVertex
 10
3321.883884523684
 20
-523.2310601130968
 30
0.0
  0
VERTEX
  5
346
330
343
100
AcDbEntity
  8
Layer 05
100
AcDbVertex
100
AcDb2dVertex
 10
3346.606276746273
 20
-528.6390834117882
 30
0.0
  0
SEQEND
  5
347
330
343
100
AcDbEntity
  8
Layer 05
  0
POLYLINE
  5
348
330
1F
100
AcDbEntity
  8
Layer 05
100
AcDb2dPolyline
 66
     1
 10
0.0
 20
0.0
 30
0.0
  0
VERTEX
  5
349
330
348
100
AcDbEntity
  8
Layer 05
100
AcDbVertex
100
AcDb2dVertex
 10
3346.606276746273
 20
-511.3017708404658
 30
0.0
  0
VERTEX
  5
34A
330
348
100
AcDbEntity
  8
Layer 05
100
AcDbVertex
100
AcDb2dVertex
 10
3333.77203981168
 20
-511.8597811419698
 30
0.0
  0
VERTEX
  5
34B
330
348
100
AcDbEntity
  8
Layer 05
100
AcDbVertex
100
AcDb2dVertex
 10
3346.606276746273
 20
-515.4993408696901
 30
0.0
  0
SEQEND
  5
34C
330
348
100
AcDbEntity
  8
Layer 05
  0
POLYLINE
  5
34D
330
1F
100
AcDbEntity
  8
Layer 05
100
AcDb2dPolyline
 66
     1
 10
0.0
 20
0.0
 30
0.0
  0
VERTEX
  5
34E
330
34D
100
AcDbEntity
  8
Layer 05
100
AcDbVertex
100
AcDb2dVertex
 10
3333.255163494811
 20
-499.9716258539736
 30
0.0
  0
VERTEX
  5
34F
330
34D
100
AcDbEntity
  8
Layer 05
100
AcDbVertex
100
AcDb2dVertex
 10
3346.606276746272
 20
-503.7862296401056
 30
0.0
  0
SEQEND
  5
350
330
34D
100
AcDbEntity
  8
Layer 05
  0
LINE
  5
351
330
1F
100
AcDbEntity
  8
Layer 04
100
AcDbLine
 10
3285.321909536593
 20
-405.7927729450965
 30
0.0
 11
3213.322934585909
 21
-651.6318752426031
 31
0.0
  0
LINE
  5
352
330
1F
100
AcDbEntity
  8
Layer 04
100
AcDbLine
 10
3172.089479614608
 20
-651.6318752426033
 30
0.0
 11
3248.512297355316
 21
-390.6876476159267
 31
0.0
  0
LINE
  5
353
330
1F
100
AcDbEntity
  8
Default
100
AcDbLine
 10
3237.369653968374
 20
-383.5486120488101
 30
0.0
 11
3158.856024643308
 21
-651.6318752426033
 31
0.0
  0
LINE
  5
354
330
1F
100
AcDbEntity
  8
Default
100
AcDbLine
 10
3346.606276746273
 20
-405.7927729450965
 30
0.0
 11
3285.321909536593
 21
-405.7927729450965
 31
0.0
  0
LINE
  5
355
330
1F
100
AcDbEntity
  8
Layer 01
100
AcDbLine
 10
3346.606276746273
 20
-418.4927729450966
 30
0.0
 11
3281.602456555646
 21
-418.4927729450966
 31
0.0
  0
LINE
  5
356
330
1F
100
AcDbEntity
  8
Default
100
AcDbLine
 10
3285.321909536592
 20
-405.7927729450965
 30
0.0
 11
3261.745752326604
 21
-390.6876476159266
 31
0.0
  0
LINE
  5
357
330
1F
100
AcDbEntity
  8
Default
100
AcDbLine
 10
3248.512297355316
 20
-390.6876476159267
 30
0.0
 11
3261.745752326605
 21
-390.6876476159267
 31
0.0
  0
LINE
  5
358
330
1F
100
AcDbEntity
  8
Default
100
AcDbLine
 10
3248.512297355316
 20
-390.6876476159268
 30
0.0
 11
3237.369653968374
 21
-383.5486120488101
 31
0.0
  0
POLYLINE
  5
359
330
1F
100
AcDbEntity
  8
Layer 05
100
AcDb2dPolyline
 66
     1
 10
0.0
 20
0.0
 30
0.0
  0
VERTEX
  5
35A
330
359
100
AcDbEntity
  8
Layer 05
100
AcDbVertex
100
AcDb2dVertex
 10
3369.146359269826
 20
-753.2348521642609
 30
0.0
  0
VERTEX
  5
35B
330
359
100
AcDbEntity
  8
Layer 05
100
AcDbVertex
100
AcDb2dVertex
 10
3368.919629358799
 20
-769.5594057581876
 30
0.0
  0
SEQEND
  5
35C
330
359
100
AcDbEntity
  8
Layer 05
  0
POLYLINE
  5
35D
330
1F
100
AcDbEntity
  8
Layer 05
100
AcDb2dPolyline
 66
     1
 10
0.0
 20
0.0
 30
0.0
  0
VERTEX
  5
35E
330
35D
100
AcDbEntity
  8
Layer 05
100
AcDbVertex
100
AcDb2dVertex
 10
3356.065492956312
 20
-753.2348521642609
 30
0.0
  0
VERTEX
  5
35F
330
35D
100
AcDbEntity
  8
Layer 05
100
AcDbVertex
100
AcDb2dVertex
 10
3356.514597753933
 20
-770.076282075057
 30
0.0
  0
VERTEX
  5
360
330
35D
100
AcDbEntity
  8
Layer 05
100
AcDbVertex
100
AcDb2dVertex
 10
3362.282210737083
 20
-753.2348521642609
 30
0.0
  0
SEQEND
  5
361
330
35D
100
AcDbEntity
  8
Layer 05
  0
POLYLINE
  5
362
330
1F
100
AcDbEntity
  8
Layer 05
100
AcDb2dPolyline
 66
     1
 10
0.0
 20
0.0
 30
0.0
  0
VERTEX
  5
363
330
362
100
AcDbEntity
  8
Layer 05
100
AcDbVertex
100
AcDb2dVertex
 10
3343.770063871971
 20
-753.2348521642609
 30
0.0
  0
VERTEX
  5
364
330
362
100
AcDbEntity
  8
Layer 05
100
AcDbVertex
100
AcDb2dVertex
 10
3345.143318782807
 20
-764.9075189063628
 30
0.0
  0
VERTEX
  5
365
330
362
100
AcDbEntity
  8
Layer 05
100
AcDbVertex
100
AcDb2dVertex
 10
3348.734908549607
 20
-753.2348521642609
 30
0.0
  0
SEQEND
  5
366
330
362
100
AcDbEntity
  8
Layer 05
  0
POLYLINE
  5
367
330
1F
100
AcDbEntity
  8
Layer 05
100
AcDb2dPolyline
 66
     1
 10
0.0
 20
0.0
 30
0.0
  0
VERTEX
  5
368
330
367
100
AcDbEntity
  8
Layer 05
100
AcDbVertex
100
AcDb2dVertex
 10
3334.288916128549
 20
-765.4243952232323
 30
0.0
  0
VERTEX
  5
369
330
367
100
AcDbEntity
  8
Layer 05
100
AcDbVertex
100
AcDb2dVertex
 10
3336.585496704877
 20
-753.2348521642609
 30
0.0
  0
SEQEND
  5
36A
330
367
100
AcDbEntity
  8
Layer 05
  0
POLYLINE
  5
36B
330
1F
100
AcDbEntity
  8
Layer 05
100
AcDb2dPolyline
 66
     1
 10
0.0
 20
0.0
 30
0.0
  0
VERTEX
  5
36C
330
36B
100
AcDbEntity
  8
Layer 05
100
AcDbVertex
100
AcDb2dVertex
 10
3433.958374297202
 20
-785.162074502854
 30
0.0
  0
VERTEX
  5
36D
330
36B
100
AcDbEntity
  8
Layer 05
100
AcDbVertex
100
AcDb2dVertex
 10
3410.269734708351
 20
-789.7175821160944
 30
0.0
  0
VERTEX
  5
36E
330
36B
100
AcDbEntity
  8
Layer 05
100
AcDbVertex
100
AcDb2dVertex
 10
3433.958374297201
 20
-792.794028815945
 30
0.0
  0
SEQEND
  5
36F
330
36B
100
AcDbEntity
  8
Layer 05
  0
POLYLINE
  5
370
330
1F
100
AcDbEntity
  8
Layer 05
100
AcDb2dPolyline
 66
     1
 10
0.0
 20
0.0
 30
0.0
  0
VERTEX
  5
371
330
370
100
AcDbEntity
  8
Layer 05
100
AcDbVertex
100
AcDb2dVertex
 10
3433.958374297201
 20
-774.003180186945
 30
0.0
  0
VERTEX
  5
372
330
370
100
AcDbEntity
  8
Layer 05
100
AcDbVertex
100
AcDb2dVertex
 10
3409.235982074612
 20
-778.3463031449674
 30
0.0
  0
VERTEX
  5
373
330
370
100
AcDbEntity
  8
Layer 05
100
AcDbVertex
100
AcDb2dVertex
 10
3433.958374297201
 20
-780.509512464444
 30
0.0
  0
SEQEND
  5
374
330
370
100
AcDbEntity
  8
Layer 05
  0
LINE
  5
375
330
1F
100
AcDbEntity
  8
Layer 04
100
AcDbLine
 10
3300.675032136838
 20
-753.2348521642607
 30
0.0
 11
3277.374007087521
 21
-832.7957498667541
 31
0.0
  0
LINE
  5
376
330
1F
100
AcDbEntity
  8
Layer 04
100
AcDbLine
 10
3240.564394906229
 20
-817.6906245375844
 30
0.0
 11
3259.441577165537
 21
-753.2348521642609
 31
0.0
  0
LINE
  5
377
330
1F
100
AcDbEntity
  8
Default
100
AcDbLine
 10
3246.208122194236
 20
-753.2348521642609
 30
0.0
 11
3229.421751519274
 21
-810.5515889704595
 31
0.0
  0
LINE
  5
378
330
1F
100
AcDbEntity
  8
Layer 01
100
AcDbLine
 10
3281.093460068467
 20
-820.0957498667541
 30
0.0
 11
3433.958374297201
 21
-820.0957498667541
 31
0.0
  0
LINE
  5
379
330
1F
100
AcDbEntity
  8
Default
100
AcDbLine
 10
3277.374007087521
 20
-832.7957498667541
 30
0.0
 11
3433.958374297201
 21
-832.7957498667541
 31
0.0
  0
POLYLINE
  5
37A
330
1F
100
AcDbEntity
  8
Layer 05
100
AcDb2dPolyline
 66
     1
 10
0.0
 20
0.0
 30
0.0
  0
VERTEX
  5
37B
330
37A
100
AcDbEntity
  8
Layer 05
100
AcDbVertex
100
AcDb2dVertex
 10
3365.07525954493
 20
128.7797472575029
 30
0.0
  0
VERTEX
  5
37C
330
37A
100
AcDbEntity
  8
Layer 05
100
AcDbVertex
100
AcDb2dVertex
 10
3378.553199173282
 20
124.786283663917
 30
0.0
  0
SEQEND
  5
37D
330
37A
100
AcDbEntity
  8
Layer 05
  0
POLYLINE
  5
37E
330
1F
100
AcDbEntity
  8
Layer 05
100
AcDb2dPolyline
 66
     1
 10
0.0
 20
0.0
 30
0.0
  0
VERTEX
  5
37F
330
37E
100
AcDbEntity
  8
Layer 05
100
AcDbVertex
100
AcDb2dVertex
 10
3379.658344290979
 20
138.0480250762774
 30
0.0
  0
VERTEX
  5
380
330
37E
100
AcDbEntity
  8
Layer 05
100
AcDbVertex
100
AcDb2dVertex
 10
3365.07525954493
 20
135.9647272554132
 30
0.0
  0
SEQEND
  5
381
330
37E
100
AcDbEntity
  8
Layer 05
  0
LINE
  5
382
330
1F
100
AcDbEntity
  8
Layer 05
100
AcDbLine
 10
3365.07525954493
 20
276.7277566324594
 30
0.0
 11
3365.07525954493
 21
1.327756632459398
 31
0.0
  0
POLYLINE
  5
383
330
1F
100
AcDbEntity
  8
Default
100
AcDb2dPolyline
 66
     1
 10
0.0
 20
0.0
 30
0.0
  0
VERTEX
  5
384
330
383
100
AcDbEntity
  8
Default
100
AcDbVertex
100
AcDb2dVertex
 10
3385.07525954493
 20
276.7277566324594
 30
0.0
  0
VERTEX
  5
385
330
383
100
AcDbEntity
  8
Default
100
AcDbVertex
100
AcDb2dVertex
 10
3365.07525954493
 20
276.7277566324594
 30
0.0
  0
SEQEND
  5
386
330
383
100
AcDbEntity
  8
Default
  0
POLYLINE
  5
387
330
1F
100
AcDbEntity
  8
Default
100
AcDb2dPolyline
 66
     1
 10
0.0
 20
0.0
 30
0.0
  0
VERTEX
  5
388
330
387
100
AcDbEntity
  8
Default
100
AcDbVertex
100
AcDb2dVertex
 10
3365.07525954493
 20
1.327756632459398
 30
0.0
  0
VERTEX
  5
389
330
387
100
AcDbEntity
  8
Default
100
AcDbVertex
100
AcDb2dVertex
 10
3385.07525954493
 20
1.327756632459398
 30
0.0
  0
SEQEND
  5
38A
330
387
100
AcDbEntity
  8
Default
  0
POLYLINE
  5
38B
330
1F
100
AcDbEntity
  8
Layer 01
100
AcDb2dPolyline
 66
     1
 10
0.0
 20
0.0
 30
0.0
  0
VERTEX
  5
38C
330
38B
100
AcDbEntity
  8
Layer 01
100
AcDbVertex
100
AcDb2dVertex
 10
3385.07525954493
 20
264.0277566324594
 30
0.0
  0
VERTEX
  5
38D
330
38B
100
AcDbEntity
  8
Layer 01
100
AcDbVertex
100
AcDb2dVertex
 10
3365.075259544929
 20
264.0277566324594
 30
0.0
  0
SEQEND
  5
38E
330
38B
100
AcDbEntity
  8
Layer 01
  0
POLYLINE
  5
38F
330
1F
100
AcDbEntity
  8
Layer 01
100
AcDb2dPolyline
 66
     1
 10
0.0
 20
0.0
 30
0.0
  0
VERTEX
  5
390
330
38F
100
AcDbEntity
  8
Layer 01
100
AcDbVertex
100
AcDb2dVertex
 10
3365.07525954493
 20
14.02775663245941
 30
0.0
  0
VERTEX
  5
391
330
38F
100
AcDbEntity
  8
Layer 01
100
AcDbVertex
100
AcDb2dVertex
 10
3385.07525954493
 20
14.02775663245941
 30
0.0
  0
SEQEND
  5
392
330
38F
100
AcDbEntity
  8
Layer 01
  0
POLYLINE
  5
393
330
1F
100
AcDbEntity
  8
Default
100
AcDb2dPolyline
 66
     1
 10
0.0
 20
0.0
 30
0.0
  0
VERTEX
  5
394
330
393
100
AcDbEntity
  8
Default
100
AcDbVertex
100
AcDb2dVertex
 10
3294.741945508013
 20
276.7277566324594
 30
0.0
  0
VERTEX
  5
395
330
393
100
AcDbEntity
  8
Default
100
AcDbVertex
100
AcDb2dVertex
 10
3104.741945508013
 20
276.7277566324594
 30
0.0
  0
SEQEND
  5
396
330
393
100
AcDbEntity
  8
Default
  0
POLYLINE
  5
397
330
1F
100
AcDbEntity
  8
Default
100
AcDb2dPolyline
 66
     1
 10
0.0
 20
0.0
 30
0.0
  0
VERTEX
  5
398
330
397
100
AcDbEntity
  8
Default
100
AcDbVertex
100
AcDb2dVertex
 10
3104.741945508013
 20
1.327756632459398
 30
0.0
  0
VERTEX
  5
399
330
397
100
AcDbEntity
  8
Default
100
AcDbVertex
100
AcDb2dVertex
 10
3294.741945508013
 20
1.327756632459398
 30
0.0
  0
SEQEND
  5
39A
330
397
100
AcDbEntity
  8
Default
  0
POLYLINE
  5
39B
330
1F
100
AcDbEntity
  8
Layer 01
100
AcDb2dPolyline
 66
     1
 10
0.0
 20
0.0
 30
0.0
  0
VERTEX
  5
39C
330
39B
100
AcDbEntity
  8
Layer 01
100
AcDbVertex
100
AcDb2dVertex
 10
3294.741945508012
 20
264.0277566324594
 30
0.0
  0
VERTEX
  5
39D
330
39B
100
AcDbEntity
  8
Layer 01
100
AcDbVertex
100
AcDb2dVertex
 10
3104.741945508013
 20
264.0277566324594
 30
0.0
  0
SEQEND
  5
39E
330
39B
100
AcDbEntity
  8
Layer 01
  0
POLYLINE
  5
39F
330
1F
100
AcDbEntity
  8
Layer 01
100
AcDb2dPolyline
 66
     1
 10
0.0
 20
0.0
 30
0.0
  0
VERTEX
  5
3A0
330
39F
100
AcDbEntity
  8
Layer 01
100
AcDbVertex
100
AcDb2dVertex
 10
3104.741945508013
 20
14.0277566324594
 30
0.0
  0
VERTEX
  5
3A1
330
39F
100
AcDbEntity
  8
Layer 01
100
AcDbVertex
100
AcDb2dVertex
 10
3294.741945508013
 20
14.02775663245941
 30
0.0
  0
SEQEND
  5
3A2
330
39F
100
AcDbEntity
  8
Layer 01
  0
POLYLINE
  5
3A3
330
1F
100
AcDbEntity
  8
Layer 05
100
AcDb2dPolyline
 66
     1
 10
0.0
 20
0.0
 30
0.0
  0
VERTEX
  5
3A4
330
3A3
100
AcDbEntity
  8
Layer 05
100
AcDbVertex
100
AcDb2dVertex
 10
3294.741945508013
 20
135.9647272554132
 30
0.0
  0
VERTEX
  5
3A5
330
3A3
100
AcDbEntity
  8
Layer 05
100
AcDbVertex
100
AcDb2dVertex
 10
3278.380966958554
 20
133.6274446054906
 30
0.0
  0
VERTEX
  5
3A6
330
3A3
100
AcDbEntity
  8
Layer 05
100
AcDbVertex
100
AcDb2dVertex
 10
3294.741945508013
 20
128.7797472575029
 30
0.0
  0
SEQEND
  5
3A7
330
3A3
100
AcDbEntity
  8
Layer 05
  0
LINE
  5
3A8
330
1F
100
AcDbEntity
  8
Layer 05
100
AcDbLine
 10
3294.741945508013
 20
276.7277566324594
 30
0.0
 11
3294.741945508013
 21
1.327756632459398
 31
0.0
  0
LINE
  5
3A9
330
1F
100
AcDbEntity
  8
Layer 05
100
AcDbLine
 10
3340.758434097534
 20
-192.079055304073
 30
0.0
 11
3340.758434097534
 21
-367.479055304073
 31
0.0
  0
POLYLINE
  5
3AA
330
1F
100
AcDbEntity
  8
Layer 01
100
AcDb2dPolyline
 66
     1
 10
0.0
 20
0.0
 30
0.0
  0
VERTEX
  5
3AB
330
3AA
100
AcDbEntity
  8
Layer 01
100
AcDbVertex
100
AcDb2dVertex
 10
3319.221766087398
 20
-204.7790553040729
 30
0.0
  0
VERTEX
  5
3AC
330
3AA
100
AcDbEntity
  8
Layer 01
100
AcDbVertex
100
AcDb2dVertex
 10
3044.185222803306
 20
-204.7790553040729
 30
0.0
  0
VERTEX
  5
3AD
330
3AA
100
AcDbEntity
  8
Layer 01
100
AcDbVertex
100
AcDb2dVertex
 10
3044.185222803306
 20
-354.7790553040732
 30
0.0
  0
VERTEX
  5
3AE
330
3AA
100
AcDbEntity
  8
Layer 01
100
AcDbVertex
100
AcDb2dVertex
 10
3319.221766087398
 20
-354.7790553040729
 30
0.0
  0
SEQEND
  5
3AF
330
3AA
100
AcDbEntity
  8
Layer 01
  0
POLYLINE
  5
3B0
330
1F
100
AcDbEntity
  8
Default
100
AcDb2dPolyline
 66
     1
 10
0.0
 20
0.0
 30
0.0
  0
VERTEX
  5
3B1
330
3B0
100
AcDbEntity
  8
Default
100
AcDbVertex
100
AcDb2dVertex
 10
3319.221766087398
 20
-192.079055304073
 30
0.0
  0
VERTEX
  5
3B2
330
3B0
100
AcDbEntity
  8
Default
100
AcDbVertex
100
AcDb2dVertex
 10
3031.485222803306
 20
-192.079055304073
 30
0.0
  0
VERTEX
  5
3B3
330
3B0
100
AcDbEntity
  8
Default
100
AcDbVertex
100
AcDb2dVertex
 10
3031.485222803306
 20
-367.479055304073
 30
0.0
  0
VERTEX
  5
3B4
330
3B0
100
AcDbEntity
  8
Default
100
AcDbVertex
100
AcDb2dVertex
 10
3319.221766087398
 20
-367.479055304073
 30
0.0
  0
SEQEND
  5
3B5
330
3B0
100
AcDbEntity
  8
Default
  0
MTEXT
  5
3B6
330
1F
100
AcDbEntity
  8
Layer 03
100
AcDbMText
 10
3099.227965181357
 20
-259.3995617606864
 30
0.0
 40
30.0
 41
367.1739130434783
 46
21.29347826086956
 71
     1
 72
     1
  1
Top (2x)
  7
Millimeter Small
 73
     1
 44
1.0
1001
ACAD
1000
ACAD_MTEXT_DEFINED_HEIGHT_BEGIN
1070
    46
1040
21.29347826086956
1000
ACAD_MTEXT_DEFINED_HEIGHT_END
  0
LINE
  5
3B7
330
1F
100
AcDbEntity
  8
Layer 05
100
AcDbLine
 10
3319.221766087398
 20
-192.079055304073
 30
0.0
 11
3319.221766087398
 21
-367.479055304073
 31
0.0
  0
POLYLINE
  5
3B8
330
1F
100
AcDbEntity
  8
Layer 05
100
AcDb2dPolyline
 66
     1
 10
0.0
 20
0.0
 30
0.0
  0
VERTEX
  5
3B9
330
3B8
100
AcDbEntity
  8
Layer 05
100
AcDbVertex
100
AcDb2dVertex
 10
3298.16256496209
 20
-267.2863413237243
 30
0.0
  0
VERTEX
  5
3BA
330
3B8
100
AcDbEntity
  8
Layer 05
100
AcDbVertex
100
AcDb2dVertex
 10
3319.221766087398
 20
-271.470288567163
 30
0.0
  0
SEQEND
  5
3BB
330
3B8
100
AcDbEntity
  8
Layer 05
  0
POLYLINE
  5
3BC
330
1F
100
AcDbEntity
  8
Layer 05
100
AcDb2dPolyline
 66
     1
 10
0.0
 20
0.0
 30
0.0
  0
VERTEX
  5
3BD
330
3BC
100
AcDbEntity
  8
Layer 05
100
AcDbVertex
100
AcDb2dVertex
 10
3319.221766087398
 20
-278.0787000510894
 30
0.0
  0
VERTEX
  5
3BE
330
3BC
100
AcDbEntity
  8
Layer 05
100
AcDbVertex
100
AcDb2dVertex
 10
3299.723193078767
 20
-279.1471150104665
 30
0.0
  0
SEQEND
  5
3BF
330
3BC
100
AcDbEntity
  8
Layer 05
  0
POLYLINE
  5
3C0
330
1F
100
AcDbEntity
  8
Layer 05
100
AcDb2dPolyline
 66
     1
 10
0.0
 20
0.0
 30
0.0
  0
VERTEX
  5
3C1
330
3C0
100
AcDbEntity
  8
Layer 05
100
AcDbVertex
100
AcDb2dVertex
 10
3340.758434097534
 20
-271.470288567163
 30
0.0
  0
VERTEX
  5
3C2
330
3C0
100
AcDbEntity
  8
Layer 05
100
AcDbVertex
100
AcDb2dVertex
 10
3366.830202095859
 20
-276.6501100237839
 30
0.0
  0
VERTEX
  5
3C3
330
3C0
100
AcDbEntity
  8
Layer 05
100
AcDbVertex
100
AcDb2dVertex
 10
3340.758434097534
 20
-278.0787000510894
 30
0.0
  0
SEQEND
  5
3C4
330
3C0
100
AcDbEntity
  8
Layer 05
  0
POLYLINE
  5
3C5
330
1F
100
AcDbEntity
  8
Layer 01
100
AcDb2dPolyline
 66
     1
 10
0.0
 20
0.0
 30
0.0
  0
VERTEX
  5
3C6
330
3C5
100
AcDbEntity
  8
Layer 01
100
AcDbVertex
100
AcDb2dVertex
 10
3340.758434097533
 20
-354.7790553040729
 30
0.0
  0
VERTEX
  5
3C7
330
3C5
100
AcDbEntity
  8
Layer 01
100
AcDbVertex
100
AcDb2dVertex
 10
3615.721890813442
 20
-354.7790553040729
 30
0.0
  0
VERTEX
  5
3C8
330
3C5
100
AcDbEntity
  8
Layer 01
100
AcDbVertex
100
AcDb2dVertex
 10
3615.721890813442
 20
-204.7790553040729
 30
0.0
  0
VERTEX
  5
3C9
330
3C5
100
AcDbEntity
  8
Layer 01
100
AcDbVertex
100
AcDb2dVertex
 10
3340.758434097534
 20
-204.7790553040729
 30
0.0
  0
SEQEND
  5
3CA
330
3C5
100
AcDbEntity
  8
Layer 01
  0
POLYLINE
  5
3CB
330
1F
100
AcDbEntity
  8
Default
100
AcDb2dPolyline
 66
     1
 10
0.0
 20
0.0
 30
0.0
  0
VERTEX
  5
3CC
330
3CB
100
AcDbEntity
  8
Default
100
AcDbVertex
100
AcDb2dVertex
 10
3340.758434097534
 20
-367.479055304073
 30
0.0
  0
VERTEX
  5
3CD
330
3CB
100
AcDbEntity
  8
Default
100
AcDbVertex
100
AcDb2dVertex
 10
3628.421890813442
 20
-367.479055304073
 30
0.0
  0
VERTEX
  5
3CE
330
3CB
100
AcDbEntity
  8
Default
100
AcDbVertex
100
AcDb2dVertex
 10
3628.421890813442
 20
-192.079055304073
 30
0.0
  0
VERTEX
  5
3CF
330
3CB
100
AcDbEntity
  8
Default
100
AcDbVertex
100
AcDb2dVertex
 10
3340.758434097534
 20
-192.079055304073
 30
0.0
  0
SEQEND
  5
3D0
330
3CB
100
AcDbEntity
  8
Default
  0
LINE
  5
3D1
330
1F
100
AcDbEntity
  8
Layer 05
100
AcDbLine
 10
3039.484231453141
 20
276.7277566324594
 30
0.0
 11
3039.484231453141
 21
1.327756632459398
 31
0.0
  0
LINE
  5
3D2
330
1F
100
AcDbEntity
  8
Layer 05
100
AcDbLine
 10
3104.741945508013
 20
276.7277566324594
 30
0.0
 11
3104.741945508013
 21
1.327756632459398
 31
0.0
  0
POLYLINE
  5
3D3
330
1F
100
AcDbEntity
  8
Layer 01
100
AcDb2dPolyline
 66
     1
 10
0.0
 20
0.0
 30
0.0
  0
VERTEX
  5
3D4
330
3D3
100
AcDbEntity
  8
Layer 01
100
AcDbVertex
100
AcDb2dVertex
 10
3385.07525954493
 20
14.02775663245941
 30
0.0
  0
VERTEX
  5
3D5
330
3D3
100
AcDbEntity
  8
Layer 01
100
AcDbVertex
100
AcDb2dVertex
 10
3551.823614804753
 20
14.02775663245941
 30
0.0
  0
VERTEX
  5
3D6
330
3D3
100
AcDbEntity
  8
Layer 01
100
AcDbVertex
100
AcDb2dVertex
 10
3551.823614804753
 20
264.0277566324593
 30
0.0
  0
VERTEX
  5
3D7
330
3D3
100
AcDbEntity
  8
Layer 01
100
AcDbVertex
100
AcDb2dVertex
 10
3385.07525954493
 20
264.0277566324594
 30
0.0
  0
SEQEND
  5
3D8
330
3D3
100
AcDbEntity
  8
Layer 01
  0
POLYLINE
  5
3D9
330
1F
100
AcDbEntity
  8
Default
100
AcDb2dPolyline
 66
     1
 10
0.0
 20
0.0
 30
0.0
  0
VERTEX
  5
3DA
330
3D9
100
AcDbEntity
  8
Default
100
AcDbVertex
100
AcDb2dVertex
 10
3385.07525954493
 20
1.327756632459398
 30
0.0
  0
VERTEX
  5
3DB
330
3D9
100
AcDbEntity
  8
Default
100
AcDbVertex
100
AcDb2dVertex
 10
3564.523614804752
 20
1.327756632459398
 30
0.0
  0
VERTEX
  5
3DC
330
3D9
100
AcDbEntity
  8
Default
100
AcDbVertex
100
AcDb2dVertex
 10
3564.523614804752
 20
276.7277566324594
 30
0.0
  0
VERTEX
  5
3DD
330
3D9
100
AcDbEntity
  8
Default
100
AcDbVertex
100
AcDb2dVertex
 10
3385.07525954493
 20
276.7277566324594
 30
0.0
  0
SEQEND
  5
3DE
330
3D9
100
AcDbEntity
  8
Default
  0
MTEXT
  5
3DF
330
1F
100
AcDbEntity
  8
Layer 05
100
AcDbMText
 10
3439.459633368788
 20
148.3607164132765
 30
0.0
 40
30.0
 41
174.7826086956522
 46
12.0
 71
     1
 72
     1
  1
B-1
  7
Millimeter Small
 73
     1
 44
1.0
1001
ACAD
1000
ACAD_MTEXT_DEFINED_HEIGHT_BEGIN
1070
    46
1040
12.0
1000
ACAD_MTEXT_DEFINED_HEIGHT_END
  0
POLYLINE
  5
3E0
330
1F
100
AcDbEntity
  8
Layer 01
100
AcDb2dPolyline
 66
     1
 10
0.0
 20
0.0
 30
0.0
  0
VERTEX
  5
3E1
330
3E0
100
AcDbEntity
  8
Layer 01
100
AcDbVertex
100
AcDb2dVertex
 10
3039.484231453141
 20
264.0277566324594
 30
0.0
  0
VERTEX
  5
3E2
330
3E0
100
AcDbEntity
  8
Layer 01
100
AcDbVertex
100
AcDb2dVertex
 10
2866.232586712963
 20
264.0277566324594
 30
0.0
  0
VERTEX
  5
3E3
330
3E0
100
AcDbEntity
  8
Layer 01
100
AcDbVertex
100
AcDb2dVertex
 10
2866.232586712963
 20
14.02775663245943
 30
0.0
  0
VERTEX
  5
3E4
330
3E0
100
AcDbEntity
  8
Layer 01
100
AcDbVertex
100
AcDb2dVertex
 10
3039.484231453141
 20
14.0277566324594
 30
0.0
  0
SEQEND
  5
3E5
330
3E0
100
AcDbEntity
  8
Layer 01
  0
POLYLINE
  5
3E6
330
1F
100
AcDbEntity
  8
Default
100
AcDb2dPolyline
 66
     1
 10
0.0
 20
0.0
 30
0.0
  0
VERTEX
  5
3E7
330
3E6
100
AcDbEntity
  8
Default
100
AcDbVertex
100
AcDb2dVertex
 10
3039.484231453141
 20
276.7277566324594
 30
0.0
  0
VERTEX
  5
3E8
330
3E6
100
AcDbEntity
  8
Default
100
AcDbVertex
100
AcDb2dVertex
 10
2853.532586712964
 20
276.7277566324594
 30
0.0
  0
VERTEX
  5
3E9
330
3E6
100
AcDbEntity
  8
Default
100
AcDbVertex
100
AcDb2dVertex
 10
2853.532586712964
 20
1.327756632459398
 30
0.0
  0
VERTEX
  5
3EA
330
3E6
100
AcDbEntity
  8
Default
100
AcDbVertex
100
AcDb2dVertex
 10
3039.484231453141
 20
1.327756632459398
 30
0.0
  0
SEQEND
  5
3EB
330
3E6
100
AcDbEntity
  8
Default
  0
MTEXT
  5
3EC
330
1F
100
AcDbEntity
  8
Layer 03
100
AcDbMText
 10
2880.413113112502
 20
242.559102299092
 30
0.0
 40
15.950250744991
 41
320.9121100975906
 46
11.32121058312948
 71
     1
 72
     1
  1
Inner Side (2x)
  7
Millimeter Small
 73
     1
 44
1.0
1001
ACAD
1000
ACAD_MTEXT_DEFINED_HEIGHT_BEGIN
1070
    46
1040
11.32121058312948
1000
ACAD_MTEXT_DEFINED_HEIGHT_END
  0
MTEXT
  5
3ED
330
1F
100
AcDbEntity
  8
Layer 05
100
AcDbMText
 10
2919.278104318549
 20
148.3607164132765
 30
0.0
 40
30.0
 41
186.1956521739131
 46
12.65217391304347
 71
     1
 72
     1
  1
B-3
  7
Millimeter Small
 73
     1
 44
1.0
1001
ACAD
1000
ACAD_MTEXT_DEFINED_HEIGHT_BEGIN
1070
    46
1040
12.65217391304347
1000
ACAD_MTEXT_DEFINED_HEIGHT_END
  0
POLYLINE
  5
3EE
330
1F
100
AcDbEntity
  8
Layer 05
100
AcDb2dPolyline
 66
     1
 10
0.0
 20
0.0
 30
0.0
  0
VERTEX
  5
3EF
330
3EE
100
AcDbEntity
  8
Layer 05
100
AcDbVertex
100
AcDb2dVertex
 10
3039.484231453141
 20
153.4518779087114
 30
0.0
  0
VERTEX
  5
3F0
330
3EE
100
AcDbEntity
  8
Layer 05
100
AcDbVertex
100
AcDb2dVertex
 10
3024.250825659006
 20
149.0994762532443
 30
0.0
  0
VERTEX
  5
3F1
330
3EE
100
AcDbEntity
  8
Layer 05
100
AcDbVertex
100
AcDb2dVertex
 10
3039.484231453141
 20
146.1510751317989
 30
0.0
  0
SEQEND
  5
3F2
330
3EE
100
AcDbEntity
  8
Layer 05
  0
POLYLINE
  5
3F3
330
1F
100
AcDbEntity
  8
Layer 05
100
AcDb2dPolyline
 66
     1
 10
0.0
 20
0.0
 30
0.0
  0
VERTEX
  5
3F4
330
3F3
100
AcDbEntity
  8
Layer 05
100
AcDbVertex
100
AcDb2dVertex
 10
3039.484231453141
 20
138.3066477351504
 30
0.0
  0
VERTEX
  5
3F5
330
3F3
100
AcDbEntity
  8
Layer 05
100
AcDbVertex
100
AcDb2dVertex
 10
3023.145680541309
 20
134.7325897231873
 30
0.0
  0
VERTEX
  5
3F6
330
3F3
100
AcDbEntity
  8
Layer 05
100
AcDbVertex
100
AcDb2dVertex
 10
3039.484231453141
 20
128.9350393996341
 30
0.0
  0
SEQEND
  5
3F7
330
3F3
100
AcDbEntity
  8
Layer 05
  0
POLYLINE
  5
3F8
330
1F
100
AcDbEntity
  8
Layer 05
100
AcDb2dPolyline
 66
     1
 10
0.0
 20
0.0
 30
0.0
  0
VERTEX
  5
3F9
330
3F8
100
AcDbEntity
  8
Layer 05
100
AcDbVertex
100
AcDb2dVertex
 10
3104.741945508013
 20
128.9350393996341
 30
0.0
  0
VERTEX
  5
3FA
330
3F8
100
AcDbEntity
  8
Layer 05
100
AcDbVertex
100
AcDb2dVertex
 10
3122.662893244779
 20
122.5759934285236
 30
0.0
  0
SEQEND
  5
3FB
330
3F8
100
AcDbEntity
  8
Layer 05
  0
POLYLINE
  5
3FC
330
1F
100
AcDbEntity
  8
Layer 05
100
AcDb2dPolyline
 66
     1
 10
0.0
 20
0.0
 30
0.0
  0
VERTEX
  5
3FD
330
3FC
100
AcDbEntity
  8
Layer 05
100
AcDbVertex
100
AcDb2dVertex
 10
3104.741945508013
 20
146.1510751317989
 30
0.0
  0
VERTEX
  5
3FE
330
3FC
100
AcDbEntity
  8
Layer 05
100
AcDbVertex
100
AcDb2dVertex
 10
3123.768038362476
 20
142.4686055470642
 30
0.0
  0
VERTEX
  5
3FF
330
3FC
100
AcDbEntity
  8
Layer 05
100
AcDbVertex
100
AcDb2dVertex
 10
3104.741945508013
 20
138.3066477351504
 30
0.0
  0
SEQEND
  5
400
330
3FC
100
AcDbEntity
  8
Layer 05
  0
POLYLINE
  5
401
330
1F
100
AcDbEntity
  8
Layer 05
100
AcDb2dPolyline
 66
     1
 10
0.0
 20
0.0
 30
0.0
  0
VERTEX
  5
402
330
401
100
AcDbEntity
  8
Layer 05
100
AcDbVertex
100
AcDb2dVertex
 10
3128.188618833262
 20
160.1509274302113
 30
0.0
  0
VERTEX
  5
403
330
401
100
AcDbEntity
  8
Layer 05
100
AcDbVertex
100
AcDb2dVertex
 10
3104.741945508013
 20
153.4518779087114
 30
0.0
  0
SEQEND
  5
404
330
401
100
AcDbEntity
  8
Layer 05
  0
MTEXT
  5
405
330
1F
100
AcDbEntity
  8
Layer 05
100
AcDbMText
 10
3165.779617675678
 20
148.3607164132765
 30
0.0
 40
30.0
 41
185.5434782608696
 46
12.0
 71
     1
 72
     1
  1
B-2
  7
Millimeter Small
 73
     1
 44
1.0
1001
ACAD
1000
ACAD_MTEXT_DEFINED_HEIGHT_BEGIN
1070
    46
1040
12.0
1000
ACAD_MTEXT_DEFINED_HEIGHT_END
  0
POLYLINE
  5
406
330
1F
100
AcDbEntity
  8
Default
100
AcDb2dPolyline
 66
     1
 10
0.0
 20
0.0
 30
0.0
  0
VERTEX
  5
407
330
406
100
AcDbEntity
  8
Default
100
AcDbVertex
100
AcDb2dVertex
 10
2154.60026965409
 20
328.2045971936704
 30
0.0
  0
VERTEX
  5
408
330
406
100
AcDbEntity
  8
Default
100
AcDbVertex
100
AcDb2dVertex
 10
2154.60026965409
 20
160.8179644966813
 30
0.0
  0
VERTEX
  5
409
330
406
100
AcDbEntity
  8
Default
100
AcDbVertex
100
AcDb2dVertex
 10
2443.400584540793
 20
160.8179644966813
 30
0.0
  0
SEQEND
  5
40A
330
406
100
AcDbEntity
  8
Default
  0
POLYLINE
  5
40B
330
1F
100
AcDbEntity
  8
Layer 01
100
AcDb2dPolyline
 66
     1
 10
0.0
 20
0.0
 30
0.0
  0
VERTEX
  5
40C
330
40B
100
AcDbEntity
  8
Layer 01
100
AcDbVertex
100
AcDb2dVertex
 10
2167.300269654089
 20
328.2045971936702
 30
0.0
  0
VERTEX
  5
40D
330
40B
100
AcDbEntity
  8
Layer 01
100
AcDbVertex
100
AcDb2dVertex
 10
2167.300269654089
 20
173.5179644966813
 30
0.0
  0
VERTEX
  5
40E
330
40B
100
AcDbEntity
  8
Layer 01
100
AcDbVertex
100
AcDb2dVertex
 10
2443.400584540793
 20
173.5179644966813
 30
0.0
  0
SEQEND
  5
40F
330
40B
100
AcDbEntity
  8
Layer 01
  0
MTEXT
  5
410
330
1F
100
AcDbEntity
  8
Layer 05
100
AcDbMText
 10
2261.770911399778
 20
242.298051417496
 30
0.0
 40
30.0
 41
186.5217391304348
 46
12.65217391304347
 71
     1
 72
     1
  1
A-3
  7
Millimeter Small
 73
     1
 44
1.0
1001
ACAD
1000
ACAD_MTEXT_DEFINED_HEIGHT_BEGIN
1070
    46
1040
12.65217391304347
1000
ACAD_MTEXT_DEFINED_HEIGHT_END
  0
POLYLINE
  5
411
330
1F
100
AcDbEntity
  8
Layer 05
100
AcDb2dPolyline
 66
     1
 10
0.0
 20
0.0
 30
0.0
  0
VERTEX
  5
412
330
411
100
AcDbEntity
  8
Layer 05
100
AcDbVertex
100
AcDb2dVertex
 10
2443.400584540794
 20
265.3232666078258
 30
0.0
  0
VERTEX
  5
413
330
411
100
AcDbEntity
  8
Layer 05
100
AcDbVertex
100
AcDb2dVertex
 10
2429.71505159075
 20
262.2392028444357
 30
0.0
  0
VERTEX
  5
414
330
411
100
AcDbEntity
  8
Layer 05
100
AcDbVertex
100
AcDb2dVertex
 10
2443.400584540794
 20
259.6976038679991
 30
0.0
  0
SEQEND
  5
415
330
411
100
AcDbEntity
  8
Layer 05
  0
POLYLINE
  5
416
330
1F
100
AcDbEntity
  8
Layer 05
100
AcDb2dPolyline
 66
     1
 10
0.0
 20
0.0
 30
0.0
  0
VERTEX
  5
417
330
416
100
AcDbEntity
  8
Layer 05
100
AcDbVertex
100
AcDb2dVertex
 10
2443.400584540794
 20
255.3142517806886
 30
0.0
  0
VERTEX
  5
418
330
416
100
AcDbEntity
  8
Layer 05
100
AcDbVertex
100
AcDb2dVertex
 10
2430.367072020992
 20
251.4808657454527
 30
0.0
  0
VERTEX
  5
419
330
416
100
AcDbEntity
  8
Layer 05
100
AcDbVertex
100
AcDb2dVertex
 10
2443.400584540793
 20
248.9136587339765
 30
0.0
  0
SEQEND
  5
41A
330
416
100
AcDbEntity
  8
Layer 05
  0
POLYLINE
  5
41B
330
1F
100
AcDbEntity
  8
Layer 05
100
AcDb2dPolyline
 66
     1
 10
0.0
 20
0.0
 30
0.0
  0
VERTEX
  5
41C
330
41B
100
AcDbEntity
  8
Layer 05
100
AcDbVertex
100
AcDb2dVertex
 10
2301.267026833195
 20
316.6829087695923
 30
0.0
  0
VERTEX
  5
41D
330
41B
100
AcDbEntity
  8
Layer 05
100
AcDbVertex
100
AcDb2dVertex
 10
2304.905454756588
 20
328.20459719367
 30
0.0
  0
SEQEND
  5
41E
330
41B
100
AcDbEntity
  8
Layer 05
  0
POLYLINE
  5
41F
330
1F
100
AcDbEntity
  8
Layer 05
100
AcDb2dPolyline
 66
     1
 10
0.0
 20
0.0
 30
0.0
  0
VERTEX
  5
420
330
41F
100
AcDbEntity
  8
Layer 05
100
AcDbVertex
100
AcDb2dVertex
 10
2311.881816822427
 20
328.20459719367
 30
0.0
  0
VERTEX
  5
421
330
41F
100
AcDbEntity
  8
Layer 05
100
AcDbVertex
100
AcDb2dVertex
 10
2314.307435438023
 20
316.6829087695923
 30
0.0
  0
VERTEX
  5
422
330
41F
100
AcDbEntity
  8
Layer 05
100
AcDbVertex
100
AcDb2dVertex
 10
2315.690038048912
 20
328.20459719367
 30
0.0
  0
SEQEND
  5
423
330
41F
100
AcDbEntity
  8
Layer 05
  0
POLYLINE
  5
424
330
1F
100
AcDbEntity
  8
Layer 05
100
AcDb2dPolyline
 66
     1
 10
0.0
 20
0.0
 30
0.0
  0
VERTEX
  5
425
330
424
100
AcDbEntity
  8
Layer 05
100
AcDbVertex
100
AcDb2dVertex
 10
2320.84964208387
 20
328.20459719367
 30
0.0
  0
VERTEX
  5
426
330
424
100
AcDbEntity
  8
Layer 05
100
AcDbVertex
100
AcDb2dVertex
 10
2325.065772537006
 20
313.0967964032646
 30
0.0
  0
VERTEX
  5
427
330
424
100
AcDbEntity
  8
Layer 05
100
AcDbVertex
100
AcDb2dVertex
 10
2326.885989499705
 20
328.20459719367
 30
0.0
  0
SEQEND
  5
428
330
424
100
AcDbEntity
  8
Layer 05
  0
POLYLINE
  5
429
330
1F
100
AcDbEntity
  8
Layer 05
100
AcDb2dPolyline
 66
     1
 10
0.0
 20
0.0
 30
0.0
  0
VERTEX
  5
42A
330
429
100
AcDbEntity
  8
Layer 05
100
AcDbVertex
100
AcDb2dVertex
 10
2331.60013415797
 20
328.2045971936699
 30
0.0
  0
VERTEX
  5
42B
330
429
100
AcDbEntity
  8
Layer 05
100
AcDbVertex
100
AcDb2dVertex
 10
2334.846078990627
 20
316.3568985544716
 30
0.0
  0
SEQEND
  5
42C
330
429
100
AcDbEntity
  8
Layer 05
  0
POLYLINE
  5
42D
330
1F
100
AcDbEntity
  8
Layer 05
100
AcDb2dPolyline
 66
     1
 10
0.0
 20
0.0
 30
0.0
  0
VERTEX
  5
42E
330
42D
100
AcDbEntity
  8
Layer 05
100
AcDbVertex
100
AcDb2dVertex
 10
2154.60026965409
 20
328.2045971936704
 30
0.0
  0
VERTEX
  5
42F
330
42D
100
AcDbEntity
  8
Layer 05
100
AcDbVertex
100
AcDb2dVertex
 10
2443.400584540793
 20
328.2045971936704
 30
0.0
  0
VERTEX
  5
430
330
42D
100
AcDbEntity
  8
Layer 05
100
AcDbVertex
100
AcDb2dVertex
 10
2443.400584540793
 20
160.8179644966813
 30
0.0
  0
SEQEND
  5
431
330
42D
100
AcDbEntity
  8
Layer 05
  0
POLYLINE
  5
432
330
1F
100
AcDbEntity
  8
Layer 05
100
AcDb2dPolyline
 66
     1
 10
0.0
 20
0.0
 30
0.0
  0
VERTEX
  5
433
330
432
100
AcDbEntity
  8
Layer 05
100
AcDbVertex
100
AcDb2dVertex
 10
2434.77136705309
 20
516.1637581218789
 30
0.0
  0
VERTEX
  5
434
330
432
100
AcDbEntity
  8
Layer 05
100
AcDbVertex
100
AcDb2dVertex
 10
2434.77136705309
 20
358.1503908188681
 30
0.0
  0
VERTEX
  5
435
330
432
100
AcDbEntity
  8
Layer 05
100
AcDbVertex
100
AcDb2dVertex
 10
2145.971052166386
 20
358.1503908188681
 30
0.0
  0
SEQEND
  5
436
330
432
100
AcDbEntity
  8
Layer 05
  0
POLYLINE
  5
437
330
1F
100
AcDbEntity
  8
Layer 05
100
AcDb2dPolyline
 66
     1
 10
0.0
 20
0.0
 30
0.0
  0
VERTEX
  5
438
330
437
100
AcDbEntity
  8
Layer 05
100
AcDbVertex
100
AcDb2dVertex
 10
2786.492666988787
 20
363.6161923221862
 30
0.0
  0
VERTEX
  5
439
330
437
100
AcDbEntity
  8
Layer 05
100
AcDbVertex
100
AcDb2dVertex
 10
2499.892981875491
 20
363.6161923221863
 30
0.0
  0
VERTEX
  5
43A
330
437
100
AcDbEntity
  8
Layer 05
100
AcDbVertex
100
AcDb2dVertex
 10
2499.892981875491
 20
521.6295596251985
 30
0.0
  0
SEQEND
  5
43B
330
437
100
AcDbEntity
  8
Layer 05
  0
POLYLINE
  5
43C
330
1F
100
AcDbEntity
  8
Layer 05
100
AcDb2dPolyline
 66
     1
 10
0.0
 20
0.0
 30
0.0
  0
VERTEX
  5
43D
330
43C
100
AcDbEntity
  8
Layer 05
100
AcDbVertex
100
AcDb2dVertex
 10
2490.91997071644
 20
160.8179644966813
 30
0.0
  0
VERTEX
  5
43E
330
43C
100
AcDbEntity
  8
Layer 05
100
AcDbVertex
100
AcDb2dVertex
 10
2490.91997071644
 20
328.8348264955033
 30
0.0
  0
VERTEX
  5
43F
330
43C
100
AcDbEntity
  8
Layer 05
100
AcDbVertex
100
AcDb2dVertex
 10
2777.519655829736
 20
328.204597193669
 30
0.0
  0
SEQEND
  5
440
330
43C
100
AcDbEntity
  8
Layer 05
  0
POLYLINE
  5
441
330
1F
100
AcDbEntity
  8
Default
100
AcDb2dPolyline
 66
     1
 10
0.0
 20
0.0
 30
0.0
  0
VERTEX
  5
442
330
441
100
AcDbEntity
  8
Default
100
AcDbVertex
100
AcDb2dVertex
 10
2490.91997071644
 20
160.8179644966813
 30
0.0
  0
VERTEX
  5
443
330
441
100
AcDbEntity
  8
Default
100
AcDbVertex
100
AcDb2dVertex
 10
2777.519655829736
 20
160.8179644966813
 30
0.0
  0
VERTEX
  5
444
330
441
100
AcDbEntity
  8
Default
100
AcDbVertex
100
AcDb2dVertex
 10
2777.519655829736
 20
328.204597193669
 30
0.0
  0
SEQEND
  5
445
330
441
100
AcDbEntity
  8
Default
  0
POLYLINE
  5
446
330
1F
100
AcDbEntity
  8
Layer 01
100
AcDb2dPolyline
 66
     1
 10
0.0
 20
0.0
 30
0.0
  0
VERTEX
  5
447
330
446
100
AcDbEntity
  8
Layer 01
100
AcDbVertex
100
AcDb2dVertex
 10
2490.91997071644
 20
173.5179644966813
 30
0.0
  0
VERTEX
  5
448
330
446
100
AcDbEntity
  8
Layer 01
100
AcDbVertex
100
AcDb2dVertex
 10
2764.819655829736
 20
173.5179644966813
 30
0.0
  0
VERTEX
  5
449
330
446
100
AcDbEntity
  8
Layer 01
100
AcDbVertex
100
AcDb2dVertex
 10
2764.819655829736
 20
328.204597193669
 30
0.0
  0
SEQEND
  5
44A
330
446
100
AcDbEntity
  8
Layer 01
  0
MTEXT
  5
44B
330
1F
100
AcDbEntity
  8
Layer 05
100
AcDbMText
 10
2601.492045942865
 20
242.298051417496
 30
0.0
 40
30.0
 41
185.8695652173913
 46
12.0
 71
     1
 72
     1
  1
A-2
  7
Millimeter Small
 73
     1
 44
1.0
1001
ACAD
1000
ACAD_MTEXT_DEFINED_HEIGHT_BEGIN
1070
    46
1040
12.0
1000
ACAD_MTEXT_DEFINED_HEIGHT_END
  0
POLYLINE
  5
44C
330
1F
100
AcDbEntity
  8
Layer 05
100
AcDb2dPolyline
 66
     1
 10
0.0
 20
0.0
 30
0.0
  0
VERTEX
  5
44D
330
44C
100
AcDbEntity
  8
Layer 05
100
AcDbVertex
100
AcDb2dVertex
 10
2638.740410737438
 20
328.2045971936693
 30
0.0
  0
VERTEX
  5
44E
330
44C
100
AcDbEntity
  8
Layer 05
100
AcDbVertex
100
AcDb2dVertex
 10
2642.52161683259
 20
314.0748270486267
 30
0.0
  0
VERTEX
  5
44F
330
44C
100
AcDbEntity
  8
Layer 05
100
AcDbVertex
100
AcDb2dVertex
 10
2644.943863143169
 20
328.2045971936693
 30
0.0
  0
SEQEND
  5
450
330
44C
100
AcDbEntity
  8
Layer 05
  0
POLYLINE
  5
451
330
1F
100
AcDbEntity
  8
Layer 05
100
AcDb2dPolyline
 66
     1
 10
0.0
 20
0.0
 30
0.0
  0
VERTEX
  5
452
330
451
100
AcDbEntity
  8
Layer 05
100
AcDbVertex
100
AcDb2dVertex
 10
2500.381163039966
 20
267.4553662863669
 30
0.0
  0
VERTEX
  5
453
330
451
100
AcDbEntity
  8
Layer 05
100
AcDbVertex
100
AcDb2dVertex
 10
2490.91997071644
 20
265.3232666078258
 30
0.0
  0
SEQEND
  5
454
330
451
100
AcDbEntity
  8
Layer 05
  0
POLYLINE
  5
455
330
1F
100
AcDbEntity
  8
Layer 05
100
AcDb2dPolyline
 66
     1
 10
0.0
 20
0.0
 30
0.0
  0
VERTEX
  5
456
330
455
100
AcDbEntity
  8
Layer 05
100
AcDbVertex
100
AcDb2dVertex
 10
2490.91997071644
 20
259.6976038679991
 30
0.0
  0
VERTEX
  5
457
330
455
100
AcDbEntity
  8
Layer 05
100
AcDbVertex
100
AcDb2dVertex
 10
2500.055152824845
 20
258.0010700478667
 30
0.0
  0
VERTEX
  5
458
330
455
100
AcDbEntity
  8
Layer 05
100
AcDbVertex
100
AcDb2dVertex
 10
2490.91997071644
 20
255.3142517806886
 30
0.0
  0
SEQEND
  5
459
330
455
100
AcDbEntity
  8
Layer 05
  0
POLYLINE
  5
45A
330
1F
100
AcDbEntity
  8
Layer 05
100
AcDb2dPolyline
 66
     1
 10
0.0
 20
0.0
 30
0.0
  0
VERTEX
  5
45B
330
45A
100
AcDbEntity
  8
Layer 05
100
AcDbVertex
100
AcDb2dVertex
 10
2490.91997071644
 20
248.9136587339765
 30
0.0
  0
VERTEX
  5
45C
330
45A
100
AcDbEntity
  8
Layer 05
100
AcDbVertex
100
AcDb2dVertex
 10
2499.403132394604
 20
247.2427329488836
 30
0.0
  0
SEQEND
  5
45D
330
45A
100
AcDbEntity
  8
Layer 05
  0
POLYLINE
  5
45E
330
1F
100
AcDbEntity
  8
Layer 05
100
AcDb2dPolyline
 66
     1
 10
0.0
 20
0.0
 30
0.0
  0
VERTEX
  5
45F
330
45E
100
AcDbEntity
  8
Layer 05
100
AcDbVertex
100
AcDb2dVertex
 10
2653.91687430222
 20
363.6161923221865
 30
0.0
  0
VERTEX
  5
460
330
45E
100
AcDbEntity
  8
Layer 05
100
AcDbVertex
100
AcDb2dVertex
 10
2655.40675057309
 20
372.3071372355928
 30
0.0
  0
SEQEND
  5
461
330
45E
100
AcDbEntity
  8
Layer 05
  0
POLYLINE
  5
462
330
1F
100
AcDbEntity
  8
Layer 05
100
AcDb2dPolyline
 66
     1
 10
0.0
 20
0.0
 30
0.0
  0
VERTEX
  5
463
330
462
100
AcDbEntity
  8
Layer 05
100
AcDbVertex
100
AcDb2dVertex
 10
2645.300433904348
 20
372.6331474507135
 30
0.0
  0
VERTEX
  5
464
330
462
100
AcDbEntity
  8
Layer 05
100
AcDbVertex
100
AcDb2dVertex
 10
2647.713421896489
 20
363.6161923221866
 30
0.0
  0
SEQEND
  5
465
330
462
100
AcDbEntity
  8
Layer 05
  0
POLYLINE
  5
466
330
1F
100
AcDbEntity
  8
Layer 05
100
AcDb2dPolyline
 66
     1
 10
0.0
 20
0.0
 30
0.0
  0
VERTEX
  5
467
330
466
100
AcDbEntity
  8
Layer 05
100
AcDbVertex
100
AcDb2dVertex
 10
2499.892981875491
 20
408.7563330806889
 30
0.0
  0
VERTEX
  5
468
330
466
100
AcDbEntity
  8
Layer 05
100
AcDbVertex
100
AcDb2dVertex
 10
2511.962255919983
 20
404.9081587476626
 30
0.0
  0
VERTEX
  5
469
330
466
100
AcDbEntity
  8
Layer 05
100
AcDbVertex
100
AcDb2dVertex
 10
2499.892981875491
 20
401.7022578295945
 30
0.0
  0
SEQEND
  5
46A
330
466
100
AcDbEntity
  8
Layer 05
  0
POLYLINE
  5
46B
330
1F
100
AcDbEntity
  8
Layer 05
100
AcDb2dPolyline
 66
     1
 10
0.0
 20
0.0
 30
0.0
  0
VERTEX
  5
46C
330
46B
100
AcDbEntity
  8
Layer 05
100
AcDbVertex
100
AcDb2dVertex
 10
2499.892981875491
 20
420.5644997701854
 30
0.0
  0
VERTEX
  5
46D
330
46B
100
AcDbEntity
  8
Layer 05
100
AcDbVertex
100
AcDb2dVertex
 10
2511.962255919983
 20
415.3404856315249
 30
0.0
  0
VERTEX
  5
46E
330
46B
100
AcDbEntity
  8
Layer 05
100
AcDbVertex
100
AcDb2dVertex
 10
2499.892981875491
 20
413.5913154801494
 30
0.0
  0
SEQEND
  5
46F
330
46B
100
AcDbEntity
  8
Layer 05
  0
POLYLINE
  5
470
330
1F
100
AcDbEntity
  8
Layer 05
100
AcDb2dPolyline
 66
     1
 10
0.0
 20
0.0
 30
0.0
  0
VERTEX
  5
471
330
470
100
AcDbEntity
  8
Layer 05
100
AcDbVertex
100
AcDb2dVertex
 10
2499.892981875491
 20
431.3079329620774
 30
0.0
  0
VERTEX
  5
472
330
470
100
AcDbEntity
  8
Layer 05
100
AcDbVertex
100
AcDb2dVertex
 10
2512.288266135104
 20
426.7508431607494
 30
0.0
  0
VERTEX
  5
473
330
470
100
AcDbEntity
  8
Layer 05
100
AcDbVertex
100
AcDb2dVertex
 10
2499.892981875491
 20
425.6571416084306
 30
0.0
  0
SEQEND
  5
474
330
470
100
AcDbEntity
  8
Layer 05
  0
POLYLINE
  5
475
330
1F
100
AcDbEntity
  8
Layer 05
100
AcDb2dPolyline
 66
     1
 10
0.0
 20
0.0
 30
0.0
  0
VERTEX
  5
476
330
475
100
AcDbEntity
  8
Layer 05
100
AcDbVertex
100
AcDb2dVertex
 10
2499.892981875491
 20
441.1745362373479
 30
0.0
  0
VERTEX
  5
477
330
475
100
AcDbEntity
  8
Layer 05
100
AcDbVertex
100
AcDb2dVertex
 10
2511.636245704862
 20
436.857159829491
 30
0.0
  0
VERTEX
  5
478
330
475
100
AcDbEntity
  8
Layer 05
100
AcDbVertex
100
AcDb2dVertex
 10
2499.892981875491
 20
435.7895903904572
 30
0.0
  0
SEQEND
  5
479
330
475
100
AcDbEntity
  8
Layer 05
  0
MTEXT
  5
47A
330
1F
100
AcDbEntity
  8
Layer 05
100
AcDbMText
 10
2601.610458666538
 20
429.6222415596304
 30
0.0
 40
30.0
 41
175.1086956521739
 46
12.0
 71
     1
 72
     1
  1
A-1
  7
Millimeter Small
 73
     1
 44
1.0
1001
ACAD
1000
ACAD_MTEXT_DEFINED_HEIGHT_BEGIN
1070
    46
1040
12.0
1000
ACAD_MTEXT_DEFINED_HEIGHT_END
  0
POLYLINE
  5
47B
330
1F
100
AcDbEntity
  8
Layer 01
100
AcDb2dPolyline
 66
     1
 10
0.0
 20
0.0
 30
0.0
  0
VERTEX
  5
47C
330
47B
100
AcDbEntity
  8
Layer 01
100
AcDbVertex
100
AcDb2dVertex
 10
2773.792666988787
 20
363.6161923221863
 30
0.0
  0
VERTEX
  5
47D
330
47B
100
AcDbEntity
  8
Layer 01
100
AcDbVertex
100
AcDb2dVertex
 10
2773.792666988787
 20
508.9295596251986
 30
0.0
  0
VERTEX
  5
47E
330
47B
100
AcDbEntity
  8
Layer 01
100
AcDbVertex
100
AcDb2dVertex
 10
2499.892981875492
 20
508.9295596251986
 30
0.0
  0
SEQEND
  5
47F
330
47B
100
AcDbEntity
  8
Layer 01
  0
POLYLINE
  5
480
330
1F
100
AcDbEntity
  8
Default
100
AcDb2dPolyline
 66
     1
 10
0.0
 20
0.0
 30
0.0
  0
VERTEX
  5
481
330
480
100
AcDbEntity
  8
Default
100
AcDbVertex
100
AcDb2dVertex
 10
2786.492666988787
 20
363.6161923221862
 30
0.0
  0
VERTEX
  5
482
330
480
100
AcDbEntity
  8
Default
100
AcDbVertex
100
AcDb2dVertex
 10
2786.492666988787
 20
521.6295596251985
 30
0.0
  0
VERTEX
  5
483
330
480
100
AcDbEntity
  8
Default
100
AcDbVertex
100
AcDb2dVertex
 10
2499.892981875491
 20
521.6295596251985
 30
0.0
  0
SEQEND
  5
484
330
480
100
AcDbEntity
  8
Default
  0
POLYLINE
  5
485
330
1F
100
AcDbEntity
  8
Layer 05
100
AcDb2dPolyline
 66
     1
 10
0.0
 20
0.0
 30
0.0
  0
VERTEX
  5
486
330
485
100
AcDbEntity
  8
Layer 05
100
AcDbVertex
100
AcDb2dVertex
 10
2318.256772012002
 20
358.1503908188677
 30
0.0
  0
VERTEX
  5
487
330
485
100
AcDbEntity
  8
Layer 05
100
AcDbVertex
100
AcDb2dVertex
 10
2319.696657200509
 20
370.1014378834802
 30
0.0
  0
VERTEX
  5
488
330
485
100
AcDbEntity
  8
Layer 05
100
AcDbVertex
100
AcDb2dVertex
 10
2322.970916670266
 20
358.1503908188676
 30
0.0
  0
SEQEND
  5
489
330
485
100
AcDbEntity
  8
Layer 05
  0
POLYLINE
  5
48A
330
1F
100
AcDbEntity
  8
Layer 05
100
AcDb2dPolyline
 66
     1
 10
0.0
 20
0.0
 30
0.0
  0
VERTEX
  5
48B
330
48A
100
AcDbEntity
  8
Layer 05
100
AcDbVertex
100
AcDb2dVertex
 10
2307.060820561209
 20
358.1503908188677
 30
0.0
  0
VERTEX
  5
48C
330
48A
100
AcDbEntity
  8
Layer 05
100
AcDbVertex
100
AcDb2dVertex
 10
2308.612309886406
 20
371.0794685288423
 30
0.0
  0
VERTEX
  5
48D
330
48A
100
AcDbEntity
  8
Layer 05
100
AcDbVertex
100
AcDb2dVertex
 10
2312.220424596166
 20
358.1503908188677
 30
0.0
  0
SEQEND
  5
48E
330
48A
100
AcDbEntity
  8
Layer 05
  0
POLYLINE
  5
48F
330
1F
100
AcDbEntity
  8
Layer 05
100
AcDb2dPolyline
 66
     1
 10
0.0
 20
0.0
 30
0.0
  0
VERTEX
  5
490
330
48F
100
AcDbEntity
  8
Layer 05
100
AcDbVertex
100
AcDb2dVertex
 10
2296.276237268884
 20
358.1503908188677
 30
0.0
  0
VERTEX
  5
491
330
48F
100
AcDbEntity
  8
Layer 05
100
AcDbVertex
100
AcDb2dVertex
 10
2300.462054508389
 20
371.405478743963
 30
0.0
  0
VERTEX
  5
492
330
48F
100
AcDbEntity
  8
Layer 05
100
AcDbVertex
100
AcDb2dVertex
 10
2303.252599334724
 20
358.1503908188677
 30
0.0
  0
SEQEND
  5
493
330
48F
100
AcDbEntity
  8
Layer 05
  0
POLYLINE
  5
494
330
1F
100
AcDbEntity
  8
Layer 05
100
AcDb2dPolyline
 66
     1
 10
0.0
 20
0.0
 30
0.0
  0
VERTEX
  5
495
330
494
100
AcDbEntity
  8
Layer 05
100
AcDbVertex
100
AcDb2dVertex
 10
2434.77136705309
 20
396.2364563262749
 30
0.0
  0
VERTEX
  5
496
330
494
100
AcDbEntity
  8
Layer 05
100
AcDbVertex
100
AcDb2dVertex
 10
2425.975987329857
 20
393.9001835872911
 30
0.0
  0
SEQEND
  5
497
330
494
100
AcDbEntity
  8
Layer 05
  0
POLYLINE
  5
498
330
1F
100
AcDbEntity
  8
Layer 05
100
AcDb2dPolyline
 66
     1
 10
0.0
 20
0.0
 30
0.0
  0
VERTEX
  5
499
330
498
100
AcDbEntity
  8
Layer 05
100
AcDbVertex
100
AcDb2dVertex
 10
2434.77136705309
 20
408.1255139768298
 30
0.0
  0
VERTEX
  5
49A
330
498
100
AcDbEntity
  8
Layer 05
100
AcDbVertex
100
AcDb2dVertex
 10
2424.345936254254
 20
406.6145819769984
 30
0.0
  0
VERTEX
  5
49B
330
498
100
AcDbEntity
  8
Layer 05
100
AcDbVertex
100
AcDb2dVertex
 10
2434.77136705309
 20
403.2905315773693
 30
0.0
  0
SEQEND
  5
49C
330
498
100
AcDbEntity
  8
Layer 05
  0
POLYLINE
  5
49D
330
1F
100
AcDbEntity
  8
Layer 05
100
AcDb2dPolyline
 66
     1
 10
0.0
 20
0.0
 30
0.0
  0
VERTEX
  5
49E
330
49D
100
AcDbEntity
  8
Layer 05
100
AcDbVertex
100
AcDb2dVertex
 10
2434.77136705309
 20
420.191340105111
 30
0.0
  0
VERTEX
  5
49F
330
49D
100
AcDbEntity
  8
Layer 05
100
AcDbVertex
100
AcDb2dVertex
 10
2424.997956684495
 20
419.3289803667055
 30
0.0
  0
VERTEX
  5
4A0
330
49D
100
AcDbEntity
  8
Layer 05
100
AcDbVertex
100
AcDb2dVertex
 10
2434.77136705309
 20
415.0986982668658
 30
0.0
  0
SEQEND
  5
4A1
330
49D
100
AcDbEntity
  8
Layer 05
  0
POLYLINE
  5
4A2
330
1F
100
AcDbEntity
  8
Layer 05
100
AcDb2dPolyline
 66
     1
 10
0.0
 20
0.0
 30
0.0
  0
VERTEX
  5
4A3
330
4A2
100
AcDbEntity
  8
Layer 05
100
AcDbVertex
100
AcDb2dVertex
 10
2434.77136705309
 20
430.3237888871377
 30
0.0
  0
VERTEX
  5
4A4
330
4A2
100
AcDbEntity
  8
Layer 05
100
AcDbVertex
100
AcDb2dVertex
 10
2424.997956684495
 20
429.4352970354472
 30
0.0
  0
VERTEX
  5
4A5
330
4A2
100
AcDbEntity
  8
Layer 05
100
AcDbVertex
100
AcDb2dVertex
 10
2434.77136705309
 20
425.8421314587578
 30
0.0
  0
SEQEND
  5
4A6
330
4A2
100
AcDbEntity
  8
Layer 05
  0
POLYLINE
  5
4A7
330
1F
100
AcDbEntity
  8
Layer 05
100
AcDb2dPolyline
 66
     1
 10
0.0
 20
0.0
 30
0.0
  0
VERTEX
  5
4A8
330
4A7
100
AcDbEntity
  8
Layer 05
100
AcDbVertex
100
AcDb2dVertex
 10
2424.345936254254
 20
439.5416137041888
 30
0.0
  0
VERTEX
  5
4A9
330
4A7
100
AcDbEntity
  8
Layer 05
100
AcDbVertex
100
AcDb2dVertex
 10
2434.77136705309
 20
435.7087347340283
 30
0.0
  0
SEQEND
  5
4AA
330
4A7
100
AcDbEntity
  8
Layer 05
  0
MTEXT
  5
4AB
330
1F
100
AcDbEntity
  8
Layer 05
100
AcDbMText
 10
2253.141693912075
 20
424.1564400563108
 30
0.0
 40
30.0
 41
186.1956521739131
 46
12.0
 71
     1
 72
     1
  1
A-4
  7
Millimeter Small
 73
     1
 44
1.0
1001
ACAD
1000
ACAD_MTEXT_DEFINED_HEIGHT_BEGIN
1070
    46
1040
12.0
1000
ACAD_MTEXT_DEFINED_HEIGHT_END
  0
MTEXT
  5
4AC
330
1F
100
AcDbEntity
  8
Layer 03
100
AcDbMText
 10
2170.26962957566
 20
477.2951217625189
 30
0.0
 40
22.46913368439458
 41
538.7707489975484
 46
15.94820032164094
 71
     1
 72
     1
  1
Outer Bottom (1x)
  7
Millimeter Small
 73
     1
 44
1.0
1001
ACAD
1000
ACAD_MTEXT_DEFINED_HEIGHT_BEGIN
1070
    46
1040
15.94820032164094
1000
ACAD_MTEXT_DEFINED_HEIGHT_END
  0
POLYLINE
  5
4AD
330
1F
100
AcDbEntity
  8
Layer 01
100
AcDb2dPolyline
 66
     1
 10
0.0
 20
0.0
 30
0.0
  0
VERTEX
  5
4AE
330
4AD
100
AcDbEntity
  8
Layer 01
100
AcDbVertex
100
AcDb2dVertex
 10
2434.771367053091
 20
503.463758121879
 30
0.0
  0
VERTEX
  5
4AF
330
4AD
100
AcDbEntity
  8
Layer 01
100
AcDbVertex
100
AcDb2dVertex
 10
2158.671052166386
 20
503.4637581218789
 30
0.0
  0
VERTEX
  5
4B0
330
4AD
100
AcDbEntity
  8
Layer 01
100
AcDbVertex
100
AcDb2dVertex
 10
2158.671052166386
 20
358.1503908188679
 30
0.0
  0
SEQEND
  5
4B1
330
4AD
100
AcDbEntity
  8
Layer 01
  0
POLYLINE
  5
4B2
330
1F
100
AcDbEntity
  8
Default
100
AcDb2dPolyline
 66
     1
 10
0.0
 20
0.0
 30
0.0
  0
VERTEX
  5
4B3
330
4B2
100
AcDbEntity
  8
Default
100
AcDbVertex
100
AcDb2dVertex
 10
2434.77136705309
 20
516.1637581218789
 30
0.0
  0
VERTEX
  5
4B4
330
4B2
100
AcDbEntity
  8
Default
100
AcDbVertex
100
AcDb2dVertex
 10
2145.971052166386
 20
516.1637581218789
 30
0.0
  0
VERTEX
  5
4B5
330
4B2
100
AcDbEntity
  8
Default
100
AcDbVertex
100
AcDb2dVertex
 10
2145.971052166386
 20
358.1503908188681
 30
0.0
  0
SEQEND
  5
4B6
330
4B2
100
AcDbEntity
  8
Default
  0
POLYLINE
  5
4B7
330
1F
100
AcDbEntity
  8
Default
100
AcDb2dPolyline
 66
     1
 10
0.0
 20
0.0
 30
0.0
 70
     1
  0
VERTEX
  5
4B8
330
4B7
100
AcDbEntity
  8
Default
100
AcDbVertex
100
AcDb2dVertex
 10
3435.81026823883
 20
-1497.686831510974
 30
0.0
  0
VERTEX
  5
4B9
330
4B7
100
AcDbEntity
  8
Default
100
AcDbVertex
100
AcDb2dVertex
 10
3511.21026823883
 20
-1497.686831510974
 30
0.0
  0
VERTEX
  5
4BA
330
4B7
100
AcDbEntity
  8
Default
100
AcDbVertex
100
AcDb2dVertex
 10
3511.21026823883
 20
-1462.286831510974
 30
0.0
  0
VERTEX
  5
4BB
330
4B7
100
AcDbEntity
  8
Default
100
AcDbVertex
100
AcDb2dVertex
 10
3435.81026823883
 20
-1462.286831510974
 30
0.0
  0
SEQEND
  5
4BC
330
4B7
100
AcDbEntity
  8
Default
  0
POLYLINE
  5
4BD
330
1F
100
AcDbEntity
  8
Layer 01
100
AcDb2dPolyline
 66
     1
 10
0.0
 20
0.0
 30
0.0
 70
     1
  0
VERTEX
  5
4BE
330
4BD
100
AcDbEntity
  8
Layer 01
100
AcDbVertex
100
AcDb2dVertex
 10
3448.51026823883
 20
-1484.986831510974
 30
0.0
  0
VERTEX
  5
4BF
330
4BD
100
AcDbEntity
  8
Layer 01
100
AcDbVertex
100
AcDb2dVertex
 10
3498.51026823883
 20
-1484.986831510974
 30
0.0
  0
VERTEX
  5
4C0
330
4BD
100
AcDbEntity
  8
Layer 01
100
AcDbVertex
100
AcDb2dVertex
 10
3498.51026823883
 20
-1474.986831510974
 30
0.0
  0
VERTEX
  5
4C1
330
4BD
100
AcDbEntity
  8
Layer 01
100
AcDbVertex
100
AcDb2dVertex
 10
3448.51026823883
 20
-1474.986831510974
 30
0.0
  0
SEQEND
  5
4C2
330
4BD
100
AcDbEntity
  8
Layer 01
  0
LINE
  5
4C3
330
1F
100
AcDbEntity
  8
Layer 02
100
AcDbLine
 10
3996.15096282632
 20
-1324.477620550202
 30
0.0
 11
4030.223050487144
 21
-1324.477620550202
 31
0.0
  0
LINE
  5
4C4
330
1F
100
AcDbEntity
  8
Layer 02
100
AcDbLine
 10
3996.15096282632
 20
-1299.477620550202
 30
0.0
 11
4030.223050487144
 21
-1299.477620550202
 31
0.0
  0
LINE
  5
4C5
330
1F
100
AcDbEntity
  8
Layer 02
100
AcDbLine
 10
3996.15096282632
 20
-1324.477620550202
 30
0.0
 11
4030.223050487144
 21
-1324.477620550202
 31
0.0
  0
LINE
  5
4C6
330
1F
100
AcDbEntity
  8
Default
100
AcDbLine
 10
3253.797849877533
 20
-817.6906245375843
 30
0.0
 11
3277.374007087521
 21
-832.7957498667541
 31
0.0
  0
LINE
  5
4C7
330
1F
100
AcDbEntity
  8
Default
100
AcDbLine
 10
3253.797849877533
 20
-817.6906245375844
 30
0.0
 11
3240.564394906229
 21
-817.6906245375844
 31
0.0
  0
LINE
  5
4C8
330
1F
100
AcDbEntity
  8
Default
100
AcDbLine
 10
3229.421751519274
 20
-810.5515889704595
 30
0.0
 11
3240.564394906229
 21
-817.6906245375845
 31
0.0
  0
ENDSEC
  0
SECTION
  2
OBJECTS
  0
DICTIONARY
  5
C
330
0
100
AcDbDictionary
281
     1
  3
ACAD_DETAILVIEWSTYLE
350
504
  3
ACAD_GROUP
350
D
  3
ACAD_LAYOUT
350
1A
  3
ACAD_MATERIAL
350
43
  3
ACAD_MLEADERSTYLE
350
5B
  3
ACAD_MLINESTYLE
350
17
  3
ACAD_PLOTSETTINGS
350
19
  3
ACAD_PLOTSTYLENAME
350
E
  3
ACAD_SCALELIST
350
47
  3
ACAD_SECTIONVIEWSTYLE
350
505
  3
ACAD_TABLESTYLE
350
59
  3
ACAD_VISUALSTYLE
350
2A
  3
ACDB_RECOMPOSE_DATA
350
501
  3
AcDbVariableDictionary
350
4C9
  0
SUN
  5
5D
330
29
100
AcDbSun
 90
        1
290
     0
 63
     7
421
 16777215
 40
1.0
291
     1
 91
  2455826
 92
 54000000
292
     0
 70
     2
 71
   256
280
     1
  0
DICTIONARY
  5
504
102
{ACAD_REACTORS
330
C
102
}
330
C
100
AcDbDictionary
281
     1
  0
DICTIONARY
  5
D
102
{ACAD_REACTORS
330
C
102
}
330
C
100
AcDbDictionary
281
     1
  0
DICTIONARY
  5
1A
102
{ACAD_REACTORS
330
C
102
}
330
C
100
AcDbDictionary
281
     1
  3
Layout1
350
1E
  3
Layout2
350
26
  3
Model
350
22
  0
DICTIONARY
  5
43
102
{ACAD_REACTORS
330
C
102
}
330
C
100
AcDbDictionary
281
     1
  3
ByBlock
350
45
  3
ByLayer
350
44
  3
Global
350
46
  0
DICTIONARY
  5
5B
102
{ACAD_REACTORS
330
C
102
}
330
C
100
AcDbDictionary
281
     1
  3
Standard
350
5C
  0
DICTIONARY
  5
17
102
{ACAD_REACTORS
330
C
102
}
330
C
100
AcDbDictionary
281
     1
  3
Standard
350
18
  0
DICTIONARY
  5
19
102
{ACAD_REACTORS
330
C
102
}
330
C
100
AcDbDictionary
281
     1
  0
ACDBDICTIONARYWDFLT
  5
E
102
{ACAD_REACTORS
330
C
102
}
330
C
100
AcDbDictionary
281
     1
  3
Normal
350
F
100
AcDbDictionaryWithDefault
340
F
  0
DICTIONARY
  5
47
102
{ACAD_REACTORS
330
C
102
}
330
C
100
AcDbDictionary
281
     1
  3
A0
350
48
  3
A1
350
49
  3
A2
350
4A
  3
A3
350
4B
  3
A4
350
4C
  3
A5
350
4D
  3
A6
350
4E
  3
A7
350
4F
  3
A8
350
50
  3
A9
350
51
  3
B1
350
52
  3
B2
350
53
  3
B3
350
54
  3
B4
350
55
  3
B5
350
56
  3
B6
350
57
  3
B7
350
58
  0
DICTIONARY
  5
505
102
{ACAD_REACTORS
330
C
102
}
330
C
100
AcDbDictionary
281
     1
  0
DICTIONARY
  5
59
102
{ACAD_REACTORS
330
C
102
}
330
C
100
AcDbDictionary
281
     1
  3
Standard
350
5A
  0
DICTIONARY
  5
2A
102
{ACAD_REACTORS
330
C
102
}
330
C
100
AcDbDictionary
281
     1
  3
2dWireframe
350
2F
  3
Basic
350
32
  3
Brighten
350
36
  3
ColorChange
350
3A
  3
Conceptual
350
34
  3
Dim
350
35
  3
EdgeColorOff
350
3D
  3
Facepattern
350
39
  3
Flat
350
2B
  3
FlatWithEdges
350
2C
  3
Gouraud
350
2D
  3
GouraudWithEdges
350
2E
  3
Hidden
350
31
  3
JitterOff
350
3B
  3
Linepattern
350
38
  3
OverhangOff
350
3C
  3
Realistic
350
33
  3
Shaded
350
42
  3
Shaded with edges
350
41
  3
Shades of Gray
350
3E
  3
Sketchy
350
3F
  3
Thicken
350
37
  3
Wireframe
350
30
  3
X-Ray
350
40
  0
XRECORD
  5
501
102
{ACAD_REACTORS
330
C
102
}
330
C
100
AcDbXrecord
280
     1
 90
        1
330
5A
  0
DICTIONARY
  5
4C9
102
{ACAD_REACTORS
330
C
102
}
330
C
100
AcDbDictionary
281
     1
  3
CANNOSCALE
350
4CA
  3
CMLEADERSTYLE
350
503
  3
CTABLESTYLE
350
502
  3
XCLIPFRAME
350
4CB
  0
LAYOUT
  5
1E
102
{ACAD_REACTORS
330
1A
102
}
330
1A
100
AcDbPlotSettings
  1

  2
none_device
  4

  6

 40
0.0
 41
0.0
 42
0.0
 43
0.0
 44
0.0
 45
0.0
 46
0.0
 47
0.0
 48
0.0
 49
0.0
140
0.0
141
0.0
142
1.0
143
1.0
 70
   688
 72
     0
 73
     0
 74
     5
  7

 75
    16
 76
     0
 77
     2
 78
   300
147
1.0
148
0.0
149
0.0
100
AcDbLayout
  1
Layout1
 70
     1
 71
     1
 10
0.0
 20
0.0
 11
12.0
 21
9.0
 12
0.0
 22
0.0
 32
0.0
 14
1.000000000000000E+20
 24
1.000000000000000E+20
 34
1.000000000000000E+20
 15
-1.000000000000000E+20
 25
-1.000000000000000E+20
 35
-1.000000000000000E+20
146
0.0
 13
0.0
 23
0.0
 33
0.0
 16
1.0
 26
0.0
 36
0.0
 17
0.0
 27
1.0
 37
0.0
 76
     0
330
1B
  0
LAYOUT
  5
26
102
{ACAD_REACTORS
330
1A
102
}
330
1A
100
AcDbPlotSettings
  1

  2
none_device
  4

  6

 40
0.0
 41
0.0
 42
0.0
 43
0.0
 44
0.0
 45
0.0
 46
0.0
 47
0.0
 48
0.0
 49
0.0
140
0.0
141
0.0
142
1.0
143
1.0
 70
   688
 72
     0
 73
     0
 74
     5
  7

 75
    16
 76
     0
 77
     2
 78
   300
147
1.0
148
0.0
149
0.0
100
AcDbLayout
  1
Layout2
 70
     1
 71
     2
 10
0.0
 20
0.0
 11
0.0
 21
0.0
 12
0.0
 22
0.0
 32
0.0
 14
0.0
 24
0.0
 34
0.0
 15
0.0
 25
0.0
 35
0.0
146
0.0
 13
0.0
 23
0.0
 33
0.0
 16
1.0
 26
0.0
 36
0.0
 17
0.0
 27
1.0
 37
0.0
 76
     0
330
23
  0
LAYOUT
  5
22
102
{ACAD_REACTORS
330
1A
102
}
330
1A
100
AcDbPlotSettings
  1

  2
none_device
  4
Letter_(8.50_x_11.00_Inches)
  6

 40
6.35
 41
6.35
 42
6.35000508
 43
6.35000508
 44
215.9
 45
279.4
 46
0.0
 47
0.0
 48
0.0
 49
0.0
140
0.0
141
0.0
142
1.0
143
1.0
 70
  1712
 72
     0
 73
     0
 74
     0
  7

 75
     0
 76
     0
 77
     2
 78
   300
147
1.0
148
0.0
149
0.0
100
AcDbLayout
  1
Model
 70
     1
 71
     0
 10
0.0
 20
0.0
 11
12.0
 21
9.0
 12
0.0
 22
0.0
 32
0.0
 14
1708.303593951773
 24
-1497.686831510974
 34
0.0
 15
4642.221810675577
 25
521.6295596251985
 35
0.0
146
0.0
 13
0.0
 23
0.0
 33
0.0
 16
1.0
 26
0.0
 36
0.0
 17
0.0
 27
1.0
 37
0.0
 76
     0
330
1F
331
29
  0
MATERIAL
  5
45
102
{ACAD_REACTORS
330
43
102
}
330
43
100
AcDbMaterial
  1
ByBlock
 72
     1
 94
      127
  0
MATERIAL
  5
44
102
{ACAD_REACTORS
330
43
102
}
330
43
100
AcDbMaterial
  1
ByLayer
 72
     1
 94
      127
  0
MATERIAL
  5
46
102
{ACAD_REACTORS
330
43
102
}
330
43
100
AcDbMaterial
  1
Global
 72
     1
 94
      127
  0
MLEADERSTYLE
  5
5C
102
{ACAD_REACTORS
330
5B
102
}
102
{ACAD_XDICTIONARY
360
4FF
102
}
330
5B
100
AcDbMLeaderStyle
170
     2
171
     1
172
     0
 90
        2
 40
0.0
 41
0.0
173
     1
 91
-1056964608
340
14
 92
       -2
290
     1
 42
0.09
291
     1
 43
0.36
  3
Standard
341
0
 44
0.18
300

342
11
174
     1
178
     6
175
     1
176
     0
 93
-1056964608
 45
0.18
292
     0
297
     0
 46
0.18
343
0
 94
-1056964608
 47
1.0
 49
1.0
140
1.0
293
     1
141
0.0
294
     1
177
     0
142
1.0
295
     0
296
     0
143
0.125
1001
ACAD_MLEADERVER
1070
     2
  0
MLINESTYLE
  5
18
102
{ACAD_REACTORS
330
17
102
}
330
17
100
AcDbMlineStyle
  2
Standard
 70
     0
  3

 62
   256
 51
90.0
 52
90.0
 71
     2
 49
0.5
 62
   256
  6
BYLAYER
 49
-0.5
 62
   256
  6
BYLAYER
  0
ACDBPLACEHOLDER
  5
F
102
{ACAD_REACTORS
330
E
102
}
330
E
  0
SCALE
  5
48
102
{ACAD_REACTORS
330
47
102
}
330
47
100
AcDbScale
 70
     0
300
1:1
140
1.0
141
1.0
290
     1
  0
SCALE
  5
49
102
{ACAD_REACTORS
330
47
102
}
330
47
100
AcDbScale
 70
     0
300
1/128" = 1'-0"
140
0.0078125
141
12.0
290
     0
  0
SCALE
  5
4A
102
{ACAD_REACTORS
330
47
102
}
330
47
100
AcDbScale
 70
     0
300
1/64" = 1'-0"
140
0.015625
141
12.0
290
     0
  0
SCALE
  5
4B
102
{ACAD_REACTORS
330
47
102
}
330
47
100
AcDbScale
 70
     0
300
1/32" = 1'-0"
140
0.03125
141
12.0
290
     0
  0
SCALE
  5
4C
102
{ACAD_REACTORS
330
47
102
}
330
47
100
AcDbScale
 70
     0
300
1/16" = 1'-0"
140
0.0625
141
12.0
290
     0
  0
SCALE
  5
4D
102
{ACAD_REACTORS
330
47
102
}
330
47
100
AcDbScale
 70
     0
300
3/32" = 1'-0"
140
0.09375
141
12.0
290
     0
  0
SCALE
  5
4E
102
{ACAD_REACTORS
330
47
102
}
330
47
100
AcDbScale
 70
     0
300
1/8" = 1'-0"
140
0.125
141
12.0
290
     0
  0
SCALE
  5
4F
102
{ACAD_REACTORS
330
47
102
}
330
47
100
AcDbScale
 70
     0
300
3/16" = 1'-0"
140
0.1875
141
12.0
290
     0
  0
SCALE
  5
50
102
{ACAD_REACTORS
330
47
102
}
330
47
100
AcDbScale
 70
     0
300
1/4" = 1'-0"
140
0.25
141
12.0
290
     0
  0
SCALE
  5
51
102
{ACAD_REACTORS
330
47
102
}
330
47
100
AcDbScale
 70
     0
300
3/8" = 1'-0"
140
0.375
141
12.0
290
     0
  0
SCALE
  5
52
102
{ACAD_REACTORS
330
47
102
}
330
47
100
AcDbScale
 70
     0
300
1/2" = 1'-0"
140
0.5
141
12.0
290
     0
  0
SCALE
  5
53
102
{ACAD_REACTORS
330
47
102
}
330
47
100
AcDbScale
 70
     0
300
3/4" = 1'-0"
140
0.75
141
12.0
290
     0
  0
SCALE
  5
54
102
{ACAD_REACTORS
330
47
102
}
330
47
100
AcDbScale
 70
     0
300
1" = 1'-0"
140
1.0
141
12.0
290
     0
  0
SCALE
  5
55
102
{ACAD_REACTORS
330
47
102
}
330
47
100
AcDbScale
 70
     0
300
1-1/2" = 1'-0"
140
1.5
141
12.0
290
     0
  0
SCALE
  5
56
102
{ACAD_REACTORS
330
47
102
}
330
47
100
AcDbScale
 70
     0
300
3" = 1'-0"
140
3.0
141
12.0
290
     0
  0
SCALE
  5
57
102
{ACAD_REACTORS
330
47
102
}
330
47
100
AcDbScale
 70
     0
300
6" = 1'-0"
140
6.0
141
12.0
290
     0
  0
SCALE
  5
58
102
{ACAD_REACTORS
330
47
102
}
330
47
100
AcDbScale
 70
     0
300
1'-0" = 1'-0"
140
12.0
141
12.0
290
     0
  0
TABLESTYLE
  5
5A
102
{ACAD_REACTORS
330
59
102
}
102
{ACAD_XDICTIONARY
360
4FC
102
}
330
59
100
AcDbTableStyle
  3
Standard
 70
     0
 71
     0
 40
0.06
 41
0.06
280
     0
281
     0
  7
Standard
140
0.18
170
     2
 62
     0
 63
   257
283
     0
 90
        4
 91
        0
  1

274
    -2
284
     1
 64
     0
275
    -2
285
     1
 65
     0
276
    -2
286
     1
 66
     0
277
    -2
287
     1
 67
     0
278
    -2
288
     1
 68
     0
279
    -2
289
     1
 69
     0
  7
Standard
140
0.25
170
     5
 62
     0
 63
   257
283
     0
 90
        4
 91
        0
  1

274
    -2
284
     1
 64
     0
275
    -2
285
     1
 65
     0
276
    -2
286
     1
 66
     0
277
    -2
287
     1
 67
     0
278
    -2
288
     1
 68
     0
279
    -2
289
     1
 69
     0
  7
Standard
140
0.18
170
     5
 62
     0
 63
   257
283
     0
 90
        4
 91
        0
  1

274
    -2
284
     1
 64
     0
275
    -2
285
     1
 65
     0
276
    -2
286
     1
 66
     0
277
    -2
287
     1
 67
     0
278
    -2
288
     1
 68
     0
279
    -2
289
     1
 69
     0
  0
VISUALSTYLE
  5
2F
102
{ACAD_REACTORS
330
2A
102
}
102
{ACAD_XDICTIONARY
360
4D4
102
}
330
2A
100
AcDbVisualStyle
  2
2dWireframe
 70
     4
 71
     0
 72
     2
 73
     0
 90
        0
 40
0.6
 41
30.0
 62
     5
 63
     7
421
 16777215
 74
     1
 91
        4
 64
     7
 65
   257
 75
     1
175
     1
 42
1.0
 92
        0
 66
   257
 43
1.0
 76
     1
 77
     6
 78
     2
 67
     7
 79
     5
170
     0
171
     0
290
     0
174
     0
 93
        1
 44
0.0
173
     0
291
     0
 45
0.0
  0
VISUALSTYLE
  5
32
102
{ACAD_REACTORS
330
2A
102
}
102
{ACAD_XDICTIONARY
360
4DA
102
}
330
2A
100
AcDbVisualStyle
  2
Basic
 70
     7
 71
     1
 72
     0
 73
     1
 90
        0
 40
0.6
 41
30.0
 62
     5
 63
     7
421
 16777215
 74
     0
 91
        4
 64
     7
 65
   257
 75
     1
175
     1
 42
1.0
 92
        8
 66
     7
 43
1.0
 76
     1
 77
     6
 78
     2
 67
     7
 79
     5
170
     0
171
     0
290
     0
174
     0
 93
        1
 44
0.0
173
     0
291
     1
 45
0.0
  0
VISUALSTYLE
  5
36
102
{ACAD_REACTORS
330
2A
102
}
102
{ACAD_XDICTIONARY
360
4E2
102
}
330
2A
100
AcDbVisualStyle
  2
Brighten
 70
    12
 71
     2
 72
     2
 73
     0
 90
        0
 40
0.6
 41
30.0
 62
     5
 63
     7
421
 16777215
 74
     1
 91
        4
 64
     7
 65
   257
 75
     1
175
     1
 42
1.0
 92
        8
 66
     7
 43
1.0
 76
     1
 77
     6
 78
     2
 67
     7
 79
     5
170
     0
171
     0
290
     0
174
     0
 93
        1
 44
50.0
173
     0
291
     1
 45
0.0
  0
VISUALSTYLE
  5
3A
102
{ACAD_REACTORS
330
2A
102
}
102
{ACAD_XDICTIONARY
360
4EA
102
}
330
2A
100
AcDbVisualStyle
  2
ColorChange
 70
    16
 71
     2
 72
     2
 73
     3
 90
        0
 40
0.6
 41
30.0
 62
     5
 63
     8
421
  8421504
 74
     1
 91
        4
 64
     7
 65
   257
 75
     1
175
     1
 42
1.0
 92
        8
 66
     8
424
  8421504
 43
1.0
 76
     1
 77
     6
 78
     2
 67
     7
 79
     5
170
     0
171
     0
290
     0
174
     0
 93
        1
 44
0.0
173
     0
291
     1
 45
0.0
  0
VISUALSTYLE
  5
34
102
{ACAD_REACTORS
330
2A
102
}
102
{ACAD_XDICTIONARY
360
4DE
102
}
330
2A
100
AcDbVisualStyle
  2
Conceptual
 70
     9
 71
     3
 72
     2
 73
     0
 90
        0
 40
0.6
 41
30.0
 62
     5
 63
     7
421
 16777215
 74
     2
 91
        2
 64
     7
 65
   257
 75
     1
175
     1
 42
179.0
 92
        8
 66
     7
 43
1.0
 76
     1
 77
     6
 78
     2
 67
     7
 79
     3
170
     0
171
     0
290
     0
174
     0
 93
        1
 44
0.0
173
     0
291
     0
 45
0.0
  0
VISUALSTYLE
  5
35
102
{ACAD_REACTORS
330
2A
102
}
102
{ACAD_XDICTIONARY
360
4E0
102
}
330
2A
100
AcDbVisualStyle
  2
Dim
 70
    11
 71
     2
 72
     2
 73
     0
 90
        0
 40
0.6
 41
30.0
 62
     5
 63
     7
421
 16777215
 74
     1
 91
        4
 64
     7
 65
   257
 75
     1
175
     1
 42
1.0
 92
        8
 66
     7
 43
1.0
 76
     1
 77
     6
 78
     2
 67
     7
 79
     5
170
     0
171
     0
290
     0
174
     0
 93
        1
 44
-50.0
173
     0
291
     1
 45
0.0
  0
VISUALSTYLE
  5
3D
102
{ACAD_REACTORS
330
2A
102
}
102
{ACAD_XDICTIONARY
360
4F0
102
}
330
2A
100
AcDbVisualStyle
  2
EdgeColorOff
 70
    22
 71
     2
 72
     2
 73
     0
 90
        0
 40
0.6
 41
30.0
 62
     5
 63
     7
421
 16777215
 74
     1
 91
        4
 64
     7
 65
   257
 75
     1
175
     1
 42
1.0
 92
        8
 66
     7
 43
1.0
 76
     1
 77
     6
 78
     2
 67
     7
 79
     5
170
     0
171
     0
290
     0
174
     0
 93
        1
 44
0.0
173
     0
291
     1
 45
0.0
  0
VISUALSTYLE
  5
39
102
{ACAD_REACTORS
330
2A
102
}
102
{ACAD_XDICTIONARY
360
4E8
102
}
330
2A
100
AcDbVisualStyle
  2
Facepattern
 70
    15
 71
     2
 72
     2
 73
     0
 90
        0
 40
0.6
 41
30.0
 62
     5
 63
     7
421
 16777215
 74
     1
 91
        4
 64
     7
 65
   257
 75
     1
175
     1
 42
1.0
 92
        8
 66
     7
 43
1.0
 76
     1
 77
     6
 78
     2
 67
     7
 79
     5
170
     0
171
     0
290
     0
174
     0
 93
        1
 44
0.0
173
     0
291
     1
 45
0.0
  0
VISUALSTYLE
  5
2B
102
{ACAD_REACTORS
330
2A
102
}
102
{ACAD_XDICTIONARY
360
4CC
102
}
330
2A
100
AcDbVisualStyle
  2
Flat
 70
     0
 71
     2
 72
     1
 73
     1
 90
        2
 40
0.6
 41
30.0
 62
     5
 63
     7
421
 16777215
 74
     0
 91
        0
 64
     7
 65
   257
 75
     1
175
     1
 42
1.0
 92
        8
 66
     7
 43
1.0
 76
     1
 77
     6
 78
     2
 67
     7
 79
     5
170
     0
171
     0
290
     0
174
     0
 93
       13
 44
0.0
173
     0
291
     1
 45
0.0
  0
VISUALSTYLE
  5
2C
102
{ACAD_REACTORS
330
2A
102
}
102
{ACAD_XDICTIONARY
360
4CE
102
}
330
2A
100
AcDbVisualStyle
  2
FlatWithEdges
 70
     1
 71
     2
 72
     1
 73
     1
 90
        2
 40
0.6
 41
30.0
 62
     5
 63
     7
421
 16777215
 74
     1
 91
        0
 64
     7
 65
   257
 75
     1
175
     1
 42
1.0
 92
        0
 66
   257
 43
1.0
 76
     1
 77
     6
 78
     2
 67
     7
 79
     5
170
     0
171
     0
290
     0
174
     0
 93
       13
 44
0.0
173
     0
291
     1
 45
0.0
  0
VISUALSTYLE
  5
2D
102
{ACAD_REACTORS
330
2A
102
}
102
{ACAD_XDICTIONARY
360
4D0
102
}
330
2A
100
AcDbVisualStyle
  2
Gouraud
 70
     2
 71
     2
 72
     2
 73
     1
 90
        2
 40
0.6
 41
30.0
 62
     5
 63
     7
421
 16777215
 74
     0
 91
        0
 64
     7
 65
   257
 75
     1
175
     1
 42
1.0
 92
        0
 66
     7
 43
1.0
 76
     1
 77
     6
 78
     2
 67
     7
 79
     5
170
     0
171
     0
290
     0
174
     0
 93
       13
 44
0.0
173
     0
291
     1
 45
0.0
  0
VISUALSTYLE
  5
2E
102
{ACAD_REACTORS
330
2A
102
}
102
{ACAD_XDICTIONARY
360
4D2
102
}
330
2A
100
AcDbVisualStyle
  2
GouraudWithEdges
 70
     3
 71
     2
 72
     2
 73
     1
 90
        2
 40
0.6
 41
30.0
 62
     5
 63
     7
421
 16777215
 74
     1
 91
        0
 64
     7
 65
   257
 75
     1
175
     1
 42
1.0
 92
        0
 66
   257
 43
1.0
 76
     1
 77
     6
 78
     2
 67
     7
 79
     5
170
     0
171
     0
290
     0
174
     0
 93
       13
 44
0.0
173
     0
291
     1
 45
0.0
  0
VISUALSTYLE
  5
31
102
{ACAD_REACTORS
330
2A
102
}
102
{ACAD_XDICTIONARY
360
4D8
102
}
330
2A
100
AcDbVisualStyle
  2
Hidden
 70
     6
 71
     1
 72
     2
 73
     2
 90
        0
 40
0.6
 41
30.0
 62
     5
 63
     7
421
 16777215
 74
     2
 91
        2
 64
     7
 65
   257
 75
     2
175
     1
 42
40.0
 92
        0
 66
   257
 43
1.0
 76
     1
 77
     6
 78
     2
 67
     7
 79
     3
170
     0
171
     0
290
     0
174
     0
 93
        1
 44
0.0
173
     0
291
     0
 45
0.0
  0
VISUALSTYLE
  5
3B
102
{ACAD_REACTORS
330
2A
102
}
102
{ACAD_XDICTIONARY
360
4EC
102
}
330
2A
100
AcDbVisualStyle
  2
JitterOff
 70
    20
 71
     2
 72
     2
 73
     0
 90
        0
 40
0.6
 41
30.0
 62
     5
 63
     7
421
 16777215
 74
     1
 91
        4
 64
     7
 65
   257
 75
     1
175
     1
 42
1.0
 92
       10
 66
     7
 43
1.0
 76
     1
 77
     6
 78
     2
 67
     7
 79
     5
170
     0
171
     0
290
     0
174
     0
 93
        1
 44
0.0
173
     0
291
     1
 45
0.0
  0
VISUALSTYLE
  5
38
102
{ACAD_REACTORS
330
2A
102
}
102
{ACAD_XDICTIONARY
360
4E6
102
}
330
2A
100
AcDbVisualStyle
  2
Linepattern
 70
    14
 71
     2
 72
     2
 73
     0
 90
        0
 40
0.6
 41
30.0
 62
     5
 63
     7
421
 16777215
 74
     1
 91
        4
 64
     7
 65
   257
 75
     7
175
     7
 42
1.0
 92
        8
 66
     7
 43
1.0
 76
     1
 77
     6
 78
     2
 67
     7
 79
     5
170
     0
171
     0
290
     0
174
     0
 93
        1
 44
0.0
173
     0
291
     1
 45
0.0
  0
VISUALSTYLE
  5
3C
102
{ACAD_REACTORS
330
2A
102
}
102
{ACAD_XDICTIONARY
360
4EE
102
}
330
2A
100
AcDbVisualStyle
  2
OverhangOff
 70
    21
 71
     2
 72
     2
 73
     0
 90
        0
 40
0.6
 41
30.0
 62
     5
 63
     7
421
 16777215
 74
     1
 91
        4
 64
     7
 65
   257
 75
     1
175
     1
 42
1.0
 92
        9
 66
     7
 43
1.0
 76
     1
 77
     6
 78
     2
 67
     7
 79
     5
170
     0
171
     0
290
     0
174
     0
 93
        1
 44
0.0
173
     0
291
     1
 45
0.0
  0
VISUALSTYLE
  5
33
102
{ACAD_REACTORS
330
2A
102
}
102
{ACAD_XDICTIONARY
360
4DC
102
}
330
2A
100
AcDbVisualStyle
  2
Realistic
 70
     8
 71
     2
 72
     3
 73
     0
 90
        2
 40
0.6
 41
30.0
 62
     5
 63
     7
421
 16777215
 74
     0
 91
        0
 64
     7
 65
   257
 75
     1
175
     1
 42
1.0
 92
        8
 66
   257
 43
1.0
 76
     1
 77
     6
 78
     2
 67
     7
 79
     3
170
     0
171
     0
290
     0
174
     0
 93
       13
 44
0.0
173
     0
291
     0
 45
0.0
  0
VISUALSTYLE
  5
42
102
{ACAD_REACTORS
330
2A
102
}
102
{ACAD_XDICTIONARY
360
4FA
102
}
330
2A
100
AcDbVisualStyle
  2
Shaded
 70
    27
 71
     2
 72
     2
 73
     1
 90
        2
 40
0.6
 41
30.0
 62
     5
 63
     7
421
 16777215
 74
     0
 91
        4
 64
     7
 65
   257
 75
     1
175
     1
 42
1.0
 92
        8
 66
   257
 43
1.0
 76
     1
 77
     6
 78
     2
 67
     8
425
  7895160
 79
     3
170
     0
171
     0
290
     0
174
     0
 93
        5
 44
0.0
173
     0
291
     0
 45
0.0
  0
VISUALSTYLE
  5
41
102
{ACAD_REACTORS
330
2A
102
}
102
{ACAD_XDICTIONARY
360
4F8
102
}
330
2A
100
AcDbVisualStyle
  2
Shaded with edges
 70
    26
 71
     2
 72
     2
 73
     1
 90
        2
 40
0.6
 41
30.0
 62
     5
 63
     7
421
 16777215
 74
     1
 91
       10
 64
     7
 65
   257
 75
     2
175
     1
 42
1.0
 92
        8
 66
   257
 43
1.0
 76
     1
 77
     6
 78
     2
 67
     7
 79
     3
170
     0
171
     0
290
     0
174
     0
 93
        5
 44
0.0
173
     0
291
     0
 45
0.0
  0
VISUALSTYLE
  5
3E
102
{ACAD_REACTORS
330
2A
102
}
102
{ACAD_XDICTIONARY
360
4F2
102
}
330
2A
100
AcDbVisualStyle
  2
Shades of Gray
 70
    23
 71
     2
 72
     2
 73
     3
 90
        0
 40
0.6
 41
30.0
 62
     5
 63
     7
421
 16777215
 74
     2
 91
        2
 64
     7
 65
     7
 75
     1
175
     1
 42
40.0
 92
        8
 66
     7
 43
1.0
 76
     1
 77
     6
 78
     2
 67
     7
 79
     3
170
     0
171
     0
290
     0
174
     0
 93
        1
 44
0.0
173
     0
291
     0
 45
0.0
  0
VISUALSTYLE
  5
3F
102
{ACAD_REACTORS
330
2A
102
}
102
{ACAD_XDICTIONARY
360
4F4
102
}
330
2A
100
AcDbVisualStyle
  2
Sketchy
 70
    24
 71
     1
 72
     2
 73
     2
 90
        0
 40
0.6
 41
30.0
 62
     5
 63
     7
421
 16777215
 74
     2
 91
        2
 64
     7
 65
     7
 75
     1
175
     1
 42
40.0
 92
       11
 66
     7
 43
1.0
 76
     1
 77
     6
 78
     2
 67
     7
 79
     6
170
     0
171
     0
290
     0
174
     0
 93
        1
 44
0.0
173
     0
291
     0
 45
0.0
  0
VISUALSTYLE
  5
37
102
{ACAD_REACTORS
330
2A
102
}
102
{ACAD_XDICTIONARY
360
4E4
102
}
330
2A
100
AcDbVisualStyle
  2
Thicken
 70
    13
 71
     2
 72
     2
 73
     0
 90
        0
 40
0.6
 41
30.0
 62
     5
 63
     7
421
 16777215
 74
     1
 91
        4
 64
     7
 65
   257
 75
     1
175
     1
 42
1.0
 92
       12
 66
     7
 43
1.0
 76
     1
 77
     6
 78
     2
 67
     7
 79
     5
170
     0
171
     0
290
     0
174
     0
 93
        1
 44
0.0
173
     0
291
     1
 45
0.0
  0
VISUALSTYLE
  5
30
102
{ACAD_REACTORS
330
2A
102
}
102
{ACAD_XDICTIONARY
360
4D6
102
}
330
2A
100
AcDbVisualStyle
  2
Wireframe
 70
     5
 71
     0
 72
     2
 73
     0
 90
        0
 40
0.6
 41
30.0
 62
     5
 63
     7
421
 16777215
 74
     1
 91
        4
 64
     7
 65
   257
 75
     1
175
     1
 42
1.0
 92
        0
 66
   257
 43
1.0
 76
     1
 77
     6
 78
     2
 67
     7
 79
     3
170
     0
171
     0
290
     0
174
     0
 93
        1
 44
0.0
173
     0
291
     0
 45
0.0
  0
VISUALSTYLE
  5
40
102
{ACAD_REACTORS
330
2A
102
}
102
{ACAD_XDICTIONARY
360
4F6
102
}
330
2A
100
AcDbVisualStyle
  2
X-Ray
 70
    25
 71
     2
 72
     2
 73
     1
 90
        1
 40
0.5
 41
30.0
 62
     5
 63
     7
421
 16777215
 74
     1
 91
        0
 64
     7
 65
   257
 75
     1
175
     1
 42
1.0
 92
        8
 66
     7
 43
1.0
 76
     1
 77
     6
 78
     2
 67
     7
 79
     3
170
     0
171
     0
290
     0
174
     0
 93
       13
 44
0.0
173
     0
291
     0
 45
0.0
  0
DICTIONARYVAR
  5
4CA
102
{ACAD_REACTORS
330
4C9
102
}
330
4C9
100
DictionaryVariables
280
     0
  1
1:1
  0
DICTIONARYVAR
  5
503
102
{ACAD_REACTORS
330
4C9
102
}
330
4C9
100
DictionaryVariables
280
     0
  1
Standard
  0
DICTIONARYVAR
  5
502
102
{ACAD_REACTORS
330
4C9
102
}
330
4C9
100
DictionaryVariables
280
     0
  1
Standard
  0
DICTIONARYVAR
  5
4CB
102
{ACAD_REACTORS
330
4C9
102
}
330
4C9
100
DictionaryVariables
280
     0
  1
2
  0
DICTIONARY
  5
4FF
330
5C
100
AcDbDictionary
280
     1
281
     1
  3
ACAD_XREC_ROUNDTRIP
360
500
  0
DICTIONARY
  5
4FC
330
5A
100
AcDbDictionary
280
     1
281
     1
  3
ACAD_ROUNDTRIP_2008_TABLESTYLE_CELLSTYLEMAP
360
4FD
  0
DICTIONARY
  5
4D4
330
2F
100
AcDbDictionary
280
     1
281
     1
  3
ACAD_XREC_ROUNDTRIP
360
4D5
  0
DICTIONARY
  5
4DA
330
32
100
AcDbDictionary
280
     1
281
     1
  3
ACAD_XREC_ROUNDTRIP
360
4DB
  0
DICTIONARY
  5
4E2
330
36
100
AcDbDictionary
280
     1
281
     1
  3
ACAD_XREC_ROUNDTRIP
360
4E3
  0
DICTIONARY
  5
4EA
330
3A
100
AcDbDictionary
280
     1
281
     1
  3
ACAD_XREC_ROUNDTRIP
360
4EB
  0
DICTIONARY
  5
4DE
330
34
100
AcDbDictionary
280
     1
281
     1
  3
ACAD_XREC_ROUNDTRIP
360
4DF
  0
DICTIONARY
  5
4E0
330
35
100
AcDbDictionary
280
     1
281
     1
  3
ACAD_XREC_ROUNDTRIP
360
4E1
  0
DICTIONARY
  5
4F0
330
3D
100
AcDbDictionary
280
     1
281
     1
  3
ACAD_XREC_ROUNDTRIP
360
4F1
  0
DICTIONARY
  5
4E8
330
39
100
AcDbDictionary
280
     1
281
     1
  3
ACAD_XREC_ROUNDTRIP
360
4E9
  0
DICTIONARY
  5
4CC
330
2B
100
AcDbDictionary
280
     1
281
     1
  3
ACAD_XREC_ROUNDTRIP
360
4CD
  0
DICTIONARY
  5
4CE
330
2C
100
AcDbDictionary
280
     1
281
     1
  3
ACAD_XREC_ROUNDTRIP
360
4CF
  0
DICTIONARY
  5
4D0
330
2D
100
AcDbDictionary
280
     1
281
     1
  3
ACAD_XREC_ROUNDTRIP
360
4D1
  0
DICTIONARY
  5
4D2
330
2E
100
AcDbDictionary
280
     1
281
     1
  3
ACAD_XREC_ROUNDTRIP
360
4D3
  0
DICTIONARY
  5
4D8
330
31
100
AcDbDictionary
280
     1
281
     1
  3
ACAD_XREC_ROUNDTRIP
360
4D9
  0
DICTIONARY
  5
4EC
330
3B
100
AcDbDictionary
280
     1
281
     1
  3
ACAD_XREC_ROUNDTRIP
360
4ED
  0
DICTIONARY
  5
4E6
330
38
100
AcDbDictionary
280
     1
281
     1
  3
ACAD_XREC_ROUNDTRIP
360
4E7
  0
DICTIONARY
  5
4EE
330
3C
100
AcDbDictionary
280
     1
281
     1
  3
ACAD_XREC_ROUNDTRIP
360
4EF
  0
DICTIONARY
  5
4DC
330
33
100
AcDbDictionary
280
     1
281
     1
  3
ACAD_XREC_ROUNDTRIP
360
4DD
  0
DICTIONARY
  5
4FA
330
42
100
AcDbDictionary
280
     1
281
     1
  3
ACAD_XREC_ROUNDTRIP
360
4FB
  0
DICTIONARY
  5
4F8
330
41
100
AcDbDictionary
280
     1
281
     1
  3
ACAD_XREC_ROUNDTRIP
360
4F9
  0
DICTIONARY
  5
4F2
330
3E
100
AcDbDictionary
280
     1
281
     1
  3
ACAD_XREC_ROUNDTRIP
360
4F3
  0
DICTIONARY
  5
4F4
330
3F
100
AcDbDictionary
280
     1
281
     1
  3
ACAD_XREC_ROUNDTRIP
360
4F5
  0
DICTIONARY
  5
4E4
330
37
100
AcDbDictionary
280
     1
281
     1
  3
ACAD_XREC_ROUNDTRIP
360
4E5
  0
DICTIONARY
  5
4D6
330
30
100
AcDbDictionary
280
     1
281
     1
  3
ACAD_XREC_ROUNDTRIP
360
4D7
  0
DICTIONARY
  5
4F6
330
40
100
AcDbDictionary
280
     1
281
     1
  3
ACAD_XREC_ROUNDTRIP
360
4F7
  0
XRECORD
  5
500
102
{ACAD_REACTORS
330
4FF
102
}
330
4FF
100
AcDbXrecord
280
     1
102
ACAD_ROUNDTRIP_2010_MLEADER_STYLE
  0
CELLSTYLEMAP
  5
4FD
102
{ACAD_REACTORS
330
4FC
102
}
330
4FC
100
AcDbCellStyleMap
 90
        3
300
CELLSTYLE
  1
TABLEFORMAT_BEGIN
 90
        5
170
     1
 91
        0
 92
    32768
 62
   257
 93
        1
300
CONTENTFORMAT
  1
CONTENTFORMAT_BEGIN
 90
        0
 91
        0
 92
        4
 93
        0
300

 40
0.0
140
1.0
 94
        5
 62
     0
340
11
144
0.25
309
CONTENTFORMAT_END
171
     1
301
MARGIN
  1
CELLMARGIN_BEGIN
 40
0.06
 40
0.06
 40
0.06
 40
0.06
 40
0.06
 40
0.06
309
CELLMARGIN_END
 94
        6
 95
        1
302
GRIDFORMAT
  1
GRIDFORMAT_BEGIN
 90
        0
 91
        1
 62
     0
 92
       -2
340
14
 93
        0
 40
0.045
309
GRIDFORMAT_END
 95
        2
302
GRIDFORMAT
  1
GRIDFORMAT_BEGIN
 90
        0
 91
        1
 62
     0
 92
       -2
340
14
 93
        0
 40
0.045
309
GRIDFORMAT_END
 95
        4
302
GRIDFORMAT
  1
GRIDFORMAT_BEGIN
 90
        0
 91
        1
 62
     0
 92
       -2
340
14
 93
        0
 40
0.045
309
GRIDFORMAT_END
 95
        8
302
GRIDFORMAT
  1
GRIDFORMAT_BEGIN
 90
        0
 91
        1
 62
     0
 92
       -2
340
14
 93
        0
 40
0.045
309
GRIDFORMAT_END
 95
       16
302
GRIDFORMAT
  1
GRIDFORMAT_BEGIN
 90
        0
 91
        1
 62
     0
 92
       -2
340
14
 93
        0
 40
0.045
309
GRIDFORMAT_END
 95
       32
302
GRIDFORMAT
  1
GRIDFORMAT_BEGIN
 90
        0
 91
        1
 62
     0
 92
       -2
340
14
 93
        0
 40
0.045
309
GRIDFORMAT_END
309
TABLEFORMAT_END
  1
CELLSTYLE_BEGIN
 90
        1
 91
        1
300
_TITLE
309
CELLSTYLE_END
300
CELLSTYLE
  1
TABLEFORMAT_BEGIN
 90
        5
170
     1
 91
        0
 92
        0
 62
   257
 93
        1
300
CONTENTFORMAT
  1
CONTENTFORMAT_BEGIN
 90
        0
 91
        0
 92
        4
 93
        0
300

 40
0.0
140
1.0
 94
        5
 62
     0
340
11
144
0.18
309
CONTENTFORMAT_END
171
     1
301
MARGIN
  1
CELLMARGIN_BEGIN
 40
0.06
 40
0.06
 40
0.06
 40
0.06
 40
0.06
 40
0.06
309
CELLMARGIN_END
 94
        6
 95
        1
302
GRIDFORMAT
  1
GRIDFORMAT_BEGIN
 90
        0
 91
        1
 62
     0
 92
       -2
340
14
 93
        0
 40
0.045
309
GRIDFORMAT_END
 95
        2
302
GRIDFORMAT
  1
GRIDFORMAT_BEGIN
 90
        0
 91
        1
 62
     0
 92
       -2
340
14
 93
        0
 40
0.045
309
GRIDFORMAT_END
 95
        4
302
GRIDFORMAT
  1
GRIDFORMAT_BEGIN
 90
        0
 91
        1
 62
     0
 92
       -2
340
14
 93
        0
 40
0.045
309
GRIDFORMAT_END
 95
        8
302
GRIDFORMAT
  1
GRIDFORMAT_BEGIN
 90
        0
 91
        1
 62
     0
 92
       -2
340
14
 93
        0
 40
0.045
309
GRIDFORMAT_END
 95
       16
302
GRIDFORMAT
  1
GRIDFORMAT_BEGIN
 90
        0
 91
        1
 62
     0
 92
       -2
340
14
 93
        0
 40
0.045
309
GRIDFORMAT_END
 95
       32
302
GRIDFORMAT
  1
GRIDFORMAT_BEGIN
 90
        0
 91
        1
 62
     0
 92
       -2
340
14
 93
        0
 40
0.045
309
GRIDFORMAT_END
309
TABLEFORMAT_END
  1
CELLSTYLE_BEGIN
 90
        2
 91
        1
300
_HEADER
309
CELLSTYLE_END
300
CELLSTYLE
  1
TABLEFORMAT_BEGIN
 90
        5
170
     1
 91
        0
 92
        0
 62
   257
 93
        1
300
CONTENTFORMAT
  1
CONTENTFORMAT_BEGIN
 90
        0
 91
        0
 92
        4
 93
        0
300

 40
0.0
140
1.0
 94
        2
 62
     0
340
11
144
0.18
309
CONTENTFORMAT_END
171
     1
301
MARGIN
  1
CELLMARGIN_BEGIN
 40
0.06
 40
0.06
 40
0.06
 40
0.06
 40
0.06
 40
0.06
309
CELLMARGIN_END
 94
        6
 95
        1
302
GRIDFORMAT
  1
GRIDFORMAT_BEGIN
 90
        0
 91
        1
 62
     0
 92
       -2
340
14
 93
        0
 40
0.045
309
GRIDFORMAT_END
 95
        2
302
GRIDFORMAT
  1
GRIDFORMAT_BEGIN
 90
        0
 91
        1
 62
     0
 92
       -2
340
14
 93
        0
 40
0.045
309
GRIDFORMAT_END
 95
        4
302
GRIDFORMAT
  1
GRIDFORMAT_BEGIN
 90
        0
 91
        1
 62
     0
 92
       -2
340
14
 93
        0
 40
0.045
309
GRIDFORMAT_END
 95
        8
302
GRIDFORMAT
  1
GRIDFORMAT_BEGIN
 90
        0
 91
        1
 62
     0
 92
       -2
340
14
 93
        0
 40
0.045
309
GRIDFORMAT_END
 95
       16
302
GRIDFORMAT
  1
GRIDFORMAT_BEGIN
 90
        0
 91
        1
 62
     0
 92
       -2
340
14
 93
        0
 40
0.045
309
GRIDFORMAT_END
 95
       32
302
GRIDFORMAT
  1
GRIDFORMAT_BEGIN
 90
        0
 91
        1
 62
     0
 92
       -2
340
14
 93
        0
 40
0.045
309
GRIDFORMAT_END
309
TABLEFORMAT_END
  1
CELLSTYLE_BEGIN
 90
        3
 91
        2
300
_DATA
309
CELLSTYLE_END
  0
XRECORD
  5
4D5
102
{ACAD_REACTORS
330
4D4
102
}
330
4D4
100
AcDbXrecord
280
     1
102
RTVSPropertyOp0
 70
     1
102
RTVSPropertyOp1
 70
     1
102
RTVSPropertyOp2
 70
     1
102
RTVSPropertyOp3
 70
     1
102
RTVSPropertyOp4
 70
     1
102
RTVSPropertyOp5
 70
     1
102
RTVSPropertyOp6
 70
     1
102
RTVSPropertyOp7
 70
     1
102
RTVSPropertyOp8
 70
     1
102
RTVSPropertyOp9
 70
     1
102
RTVSPropertyOp10
 70
     1
102
RTVSPropertyOp11
 70
     1
102
RTVSPropertyOp12
 70
     1
102
RTVSPropertyOp13
 70
     1
102
RTVSPropertyOp14
 70
     1
102
RTVSPropertyOp15
 70
     1
102
RTVSPropertyOp16
 70
     1
102
RTVSPropertyOp17
 70
     1
102
RTVSPropertyOp18
 70
     1
102
RTVSPropertyOp19
 70
     1
102
RTVSPropertyOp20
 70
     1
102
RTVSPropertyOp21
 70
     1
102
RTVSPropertyOp22
 70
     1
102
RTVSPropertyOp23
 70
     1
102
RTVSPropertyOp24
 70
     1
102
RTVSPropertyOp25
 70
     1
102
RTVSPropertyOp26
 70
     1
102
RTVSPropertyOp27
 70
     1
102
RTVSPropertyOp28
 70
     1
102
RTVSPropertyOp29
 70
     1
102
RTVSPropertyOp30
 70
     1
102
RTVSPropertyOp31
 70
     1
102
RTVSPropertyOp32
 70
     1
102
RTVSPropertyOp33
 70
     1
102
RTVSPropertyOp34
 70
     1
102
RTVSPropertyOp35
 70
     1
102
RTVSPropertyOp36
 70
     1
102
RTVSPropertyOp37
 70
     1
102
RTVSPropertyOp38
 70
     1
102
RTVSPropertyOp39
 70
     1
102
RTVSPropertyOp40
 70
     1
102
RTVSPropertyOp41
 70
     1
102
RTVSPropertyOp42
 70
     1
102
RTVSPropertyOp43
 70
     1
102
RTVSPropertyOp44
 70
     1
102
RTVSPropertyOp45
 70
     1
102
RTVSPropertyOp46
 70
     1
102
RTVSPropertyOp47
 70
     1
102
RTVSPropertyOp48
 70
     1
102
RTVSPropertyOp49
 70
     1
102
RTVSPropertyOp50
 70
     1
102
RTVSPropertyOp51
 70
     0
102
RTVSPropertyOp52
 70
     0
102
RTVSPropertyOp53
 70
     1
102
RTVSPropertyOp54
 70
     1
102
RTVSPropertyOp55
 70
     1
102
RTVSPropertyOp56
 70
     1
102
RTVSPropertyOp57
 70
     1
102
RTVSPost2010Prop28
280
     1
102
RTVSPost2010PropOp28
 70
     1
102
RTVSPost2010Prop29
280
     1
102
RTVSPost2010PropOp29
 70
     1
102
RTVSPost2010Prop30
280
     0
102
RTVSPost2010PropOp30
 70
     1
102
RTVSPost2010Prop31
280
     0
102
RTVSPost2010PropOp31
 70
     1
102
RTVSPost2010Prop32
280
     0
102
RTVSPost2010PropOp32
 70
     1
102
RTVSPost2010Prop33
280
     0
102
RTVSPost2010PropOp33
 70
     1
102
RTVSPost2010Prop34
280
     0
102
RTVSPost2010PropOp34
 70
     1
102
RTVSPost2010Prop35
280
     0
102
RTVSPost2010PropOp35
 70
     1
102
RTVSPost2010Prop36
280
     0
102
RTVSPost2010PropOp36
 70
     1
102
RTVSPost2010Prop37
 90
       50
102
RTVSPost2010PropOp37
 70
     1
102
RTVSPost2010Prop38
140
0.0
102
RTVSPost2010PropOp38
 70
     1
102
RTVSPost2010Prop39
140
1.0
102
RTVSPost2010PropOp39
 70
     1
102
RTVSPost2010Prop40
 90
        0
102
RTVSPost2010PropOp40
 70
     1
102
RTVSPost2010Prop41ColorIndex
 90
       18
102
RTVSPost2010Prop41ColorRGB
 90
        0
102
RTVSPost2010PropOp41
 70
     1
102
RTVSPost2010Prop42
 90
       50
102
RTVSPost2010PropOp42
 70
     1
102
RTVSPost2010Prop43
 90
        3
102
RTVSPost2010PropOp43
 70
     1
102
RTVSPost2010Prop44ColorIndex
 90
        5
102
RTVSPost2010Prop44ColorRGB
 90
      255
102
RTVSPost2010PropOp44
 70
     1
102
RTVSPost2010Prop45
280
     0
102
RTVSPost2010PropOp45
 70
     1
102
RTVSPost2010Prop46
 90
       50
102
RTVSPost2010PropOp46
 70
     1
102
RTVSPost2010Prop47
 90
       50
102
RTVSPost2010PropOp47
 70
     1
102
RTVSPost2010Prop48
 90
       50
102
RTVSPost2010PropOp48
 70
     1
102
RTVSPost2010Prop49
280
     0
102
RTVSPost2010PropOp49
 70
     1
102
RTVSPost2010Prop50
 90
       50
102
RTVSPost2010PropOp50
 70
     1
102
RTVSPost2010Prop51ColorIndex
 90
      256
102
RTVSPost2010Prop51ColorRGB
 90
-16777216
102
RTVSPost2010PropOp51
 70
     0
102
RTVSPost2010Prop52
140
1.0
102
RTVSPost2010PropOp52
 70
     0
102
RTVSPost2010Prop53
 90
        2
102
RTVSPost2010PropOp53
 70
     1
102
RTVSPost2010Prop54
  1
strokes_ogs.tif
102
RTVSPost2010PropOp54
 70
     1
102
RTVSPost2010Prop55
280
     0
102
RTVSPost2010PropOp55
 70
     1
102
RTVSPost2010Prop56
140
1.0
102
RTVSPost2010PropOp56
 70
     1
102
RTVSPost2010Prop57
140
1.0
102
RTVSPost2010PropOp57
 70
     1
  0
XRECORD
  5
4DB
102
{ACAD_REACTORS
330
4DA
102
}
330
4DA
100
AcDbXrecord
280
     1
102
RTVSPropertyOp0
 70
     1
102
RTVSPropertyOp1
 70
     1
102
RTVSPropertyOp2
 70
     1
102
RTVSPropertyOp3
 70
     1
102
RTVSPropertyOp4
 70
     1
102
RTVSPropertyOp5
 70
     1
102
RTVSPropertyOp6
 70
     1
102
RTVSPropertyOp7
 70
     1
102
RTVSPropertyOp8
 70
     1
102
RTVSPropertyOp9
 70
     1
102
RTVSPropertyOp10
 70
     1
102
RTVSPropertyOp11
 70
     1
102
RTVSPropertyOp12
 70
     1
102
RTVSPropertyOp13
 70
     1
102
RTVSPropertyOp14
 70
     1
102
RTVSPropertyOp15
 70
     1
102
RTVSPropertyOp16
 70
     1
102
RTVSPropertyOp17
 70
     1
102
RTVSPropertyOp18
 70
     1
102
RTVSPropertyOp19
 70
     1
102
RTVSPropertyOp20
 70
     1
102
RTVSPropertyOp21
 70
     1
102
RTVSPropertyOp22
 70
     1
102
RTVSPropertyOp23
 70
     1
102
RTVSPropertyOp24
 70
     1
102
RTVSPropertyOp25
 70
     1
102
RTVSPropertyOp26
 70
     1
102
RTVSPropertyOp27
 70
     1
102
RTVSPropertyOp28
 70
     1
102
RTVSPropertyOp29
 70
     1
102
RTVSPropertyOp30
 70
     1
102
RTVSPropertyOp31
 70
     1
102
RTVSPropertyOp32
 70
     1
102
RTVSPropertyOp33
 70
     1
102
RTVSPropertyOp34
 70
     1
102
RTVSPropertyOp35
 70
     1
102
RTVSPropertyOp36
 70
     1
102
RTVSPropertyOp37
 70
     1
102
RTVSPropertyOp38
 70
     1
102
RTVSPropertyOp39
 70
     1
102
RTVSPropertyOp40
 70
     1
102
RTVSPropertyOp41
 70
     1
102
RTVSPropertyOp42
 70
     1
102
RTVSPropertyOp43
 70
     1
102
RTVSPropertyOp44
 70
     1
102
RTVSPropertyOp45
 70
     1
102
RTVSPropertyOp46
 70
     1
102
RTVSPropertyOp47
 70
     1
102
RTVSPropertyOp48
 70
     1
102
RTVSPropertyOp49
 70
     1
102
RTVSPropertyOp50
 70
     1
102
RTVSPropertyOp51
 70
     0
102
RTVSPropertyOp52
 70
     0
102
RTVSPropertyOp53
 70
     1
102
RTVSPropertyOp54
 70
     1
102
RTVSPropertyOp55
 70
     1
102
RTVSPropertyOp56
 70
     1
102
RTVSPropertyOp57
 70
     1
102
RTVSPost2010Prop28
280
     0
102
RTVSPost2010PropOp28
 70
     1
102
RTVSPost2010Prop29
280
     1
102
RTVSPost2010PropOp29
 70
     1
102
RTVSPost2010Prop30
280
     1
102
RTVSPost2010PropOp30
 70
     1
102
RTVSPost2010Prop31
280
     0
102
RTVSPost2010PropOp31
 70
     1
102
RTVSPost2010Prop32
280
     0
102
RTVSPost2010PropOp32
 70
     1
102
RTVSPost2010Prop33
280
     0
102
RTVSPost2010PropOp33
 70
     1
102
RTVSPost2010Prop34
280
     0
102
RTVSPost2010PropOp34
 70
     1
102
RTVSPost2010Prop35
280
     0
102
RTVSPost2010PropOp35
 70
     1
102
RTVSPost2010Prop36
280
     0
102
RTVSPost2010PropOp36
 70
     1
102
RTVSPost2010Prop37
 90
       50
102
RTVSPost2010PropOp37
 70
     1
102
RTVSPost2010Prop38
140
0.0
102
RTVSPost2010PropOp38
 70
     1
102
RTVSPost2010Prop39
140
1.0
102
RTVSPost2010PropOp39
 70
     1
102
RTVSPost2010Prop40
 90
        0
102
RTVSPost2010PropOp40
 70
     1
102
RTVSPost2010Prop41ColorIndex
 90
       18
102
RTVSPost2010Prop41ColorRGB
 90
        0
102
RTVSPost2010PropOp41
 70
     1
102
RTVSPost2010Prop42
 90
       50
102
RTVSPost2010PropOp42
 70
     1
102
RTVSPost2010Prop43
 90
        3
102
RTVSPost2010PropOp43
 70
     1
102
RTVSPost2010Prop44ColorIndex
 90
        5
102
RTVSPost2010Prop44ColorRGB
 90
      255
102
RTVSPost2010PropOp44
 70
     1
102
RTVSPost2010Prop45
280
     0
102
RTVSPost2010PropOp45
 70
     1
102
RTVSPost2010Prop46
 90
       50
102
RTVSPost2010PropOp46
 70
     1
102
RTVSPost2010Prop47
 90
       50
102
RTVSPost2010PropOp47
 70
     1
102
RTVSPost2010Prop48
 90
       50
102
RTVSPost2010PropOp48
 70
     1
102
RTVSPost2010Prop49
280
     0
102
RTVSPost2010PropOp49
 70
     1
102
RTVSPost2010Prop50
 90
       50
102
RTVSPost2010PropOp50
 70
     1
102
RTVSPost2010Prop51ColorIndex
 90
      256
102
RTVSPost2010Prop51ColorRGB
 90
-16777216
102
RTVSPost2010PropOp51
 70
     0
102
RTVSPost2010Prop52
140
1.0
102
RTVSPost2010PropOp52
 70
     0
102
RTVSPost2010Prop53
 90
        2
102
RTVSPost2010PropOp53
 70
     1
102
RTVSPost2010Prop54
  1
strokes_ogs.tif
102
RTVSPost2010PropOp54
 70
     1
102
RTVSPost2010Prop55
280
     0
102
RTVSPost2010PropOp55
 70
     1
102
RTVSPost2010Prop56
140
1.0
102
RTVSPost2010PropOp56
 70
     1
102
RTVSPost2010Prop57
140
1.0
102
RTVSPost2010PropOp57
 70
     1
  0
XRECORD
  5
4E3
102
{ACAD_REACTORS
330
4E2
102
}
330
4E2
100
AcDbXrecord
280
     1
102
RTVSPropertyOp0
 70
     1
102
RTVSPropertyOp1
 70
     1
102
RTVSPropertyOp2
 70
     1
102
RTVSPropertyOp3
 70
     1
102
RTVSPropertyOp4
 70
     1
102
RTVSPropertyOp5
 70
     1
102
RTVSPropertyOp6
 70
     1
102
RTVSPropertyOp7
 70
     1
102
RTVSPropertyOp8
 70
     1
102
RTVSPropertyOp9
 70
     1
102
RTVSPropertyOp10
 70
     1
102
RTVSPropertyOp11
 70
     1
102
RTVSPropertyOp12
 70
     1
102
RTVSPropertyOp13
 70
     1
102
RTVSPropertyOp14
 70
     1
102
RTVSPropertyOp15
 70
     1
102
RTVSPropertyOp16
 70
     1
102
RTVSPropertyOp17
 70
     1
102
RTVSPropertyOp18
 70
     1
102
RTVSPropertyOp19
 70
     1
102
RTVSPropertyOp20
 70
     1
102
RTVSPropertyOp21
 70
     1
102
RTVSPropertyOp22
 70
     1
102
RTVSPropertyOp23
 70
     1
102
RTVSPropertyOp24
 70
     1
102
RTVSPropertyOp25
 70
     1
102
RTVSPropertyOp26
 70
     1
102
RTVSPropertyOp27
 70
     1
102
RTVSPropertyOp28
 70
     1
102
RTVSPropertyOp29
 70
     1
102
RTVSPropertyOp30
 70
     1
102
RTVSPropertyOp31
 70
     1
102
RTVSPropertyOp32
 70
     1
102
RTVSPropertyOp33
 70
     1
102
RTVSPropertyOp34
 70
     1
102
RTVSPropertyOp35
 70
     1
102
RTVSPropertyOp36
 70
     1
102
RTVSPropertyOp37
 70
     1
102
RTVSPropertyOp38
 70
     1
102
RTVSPropertyOp39
 70
     1
102
RTVSPropertyOp40
 70
     1
102
RTVSPropertyOp41
 70
     1
102
RTVSPropertyOp42
 70
     1
102
RTVSPropertyOp43
 70
     1
102
RTVSPropertyOp44
 70
     1
102
RTVSPropertyOp45
 70
     1
102
RTVSPropertyOp46
 70
     1
102
RTVSPropertyOp47
 70
     1
102
RTVSPropertyOp48
 70
     1
102
RTVSPropertyOp49
 70
     1
102
RTVSPropertyOp50
 70
     1
102
RTVSPropertyOp51
 70
     0
102
RTVSPropertyOp52
 70
     0
102
RTVSPropertyOp53
 70
     1
102
RTVSPropertyOp54
 70
     1
102
RTVSPropertyOp55
 70
     1
102
RTVSPropertyOp56
 70
     1
102
RTVSPropertyOp57
 70
     1
102
RTVSPost2010Prop28
280
     0
102
RTVSPost2010PropOp28
 70
     1
102
RTVSPost2010Prop29
280
     1
102
RTVSPost2010PropOp29
 70
     1
102
RTVSPost2010Prop30
280
     1
102
RTVSPost2010PropOp30
 70
     1
102
RTVSPost2010Prop31
280
     0
102
RTVSPost2010PropOp31
 70
     1
102
RTVSPost2010Prop32
280
     0
102
RTVSPost2010PropOp32
 70
     1
102
RTVSPost2010Prop33
280
     0
102
RTVSPost2010PropOp33
 70
     1
102
RTVSPost2010Prop34
280
     0
102
RTVSPost2010PropOp34
 70
     1
102
RTVSPost2010Prop35
280
     0
102
RTVSPost2010PropOp35
 70
     1
102
RTVSPost2010Prop36
280
     0
102
RTVSPost2010PropOp36
 70
     1
102
RTVSPost2010Prop37
 90
       50
102
RTVSPost2010PropOp37
 70
     1
102
RTVSPost2010Prop38
140
0.0
102
RTVSPost2010PropOp38
 70
     1
102
RTVSPost2010Prop39
140
1.0
102
RTVSPost2010PropOp39
 70
     1
102
RTVSPost2010Prop40
 90
        0
102
RTVSPost2010PropOp40
 70
     1
102
RTVSPost2010Prop41ColorIndex
 90
       18
102
RTVSPost2010Prop41ColorRGB
 90
        0
102
RTVSPost2010PropOp41
 70
     1
102
RTVSPost2010Prop42
 90
       50
102
RTVSPost2010PropOp42
 70
     1
102
RTVSPost2010Prop43
 90
        3
102
RTVSPost2010PropOp43
 70
     1
102
RTVSPost2010Prop44ColorIndex
 90
        5
102
RTVSPost2010Prop44ColorRGB
 90
      255
102
RTVSPost2010PropOp44
 70
     1
102
RTVSPost2010Prop45
280
     0
102
RTVSPost2010PropOp45
 70
     1
102
RTVSPost2010Prop46
 90
       50
102
RTVSPost2010PropOp46
 70
     1
102
RTVSPost2010Prop47
 90
       50
102
RTVSPost2010PropOp47
 70
     1
102
RTVSPost2010Prop48
 90
       50
102
RTVSPost2010PropOp48
 70
     1
102
RTVSPost2010Prop49
280
     0
102
RTVSPost2010PropOp49
 70
     1
102
RTVSPost2010Prop50
 90
       50
102
RTVSPost2010PropOp50
 70
     1
102
RTVSPost2010Prop51ColorIndex
 90
      256
102
RTVSPost2010Prop51ColorRGB
 90
-16777216
102
RTVSPost2010PropOp51
 70
     0
102
RTVSPost2010Prop52
140
1.0
102
RTVSPost2010PropOp52
 70
     0
102
RTVSPost2010Prop53
 90
        2
102
RTVSPost2010PropOp53
 70
     1
102
RTVSPost2010Prop54
  1
strokes_ogs.tif
102
RTVSPost2010PropOp54
 70
     1
102
RTVSPost2010Prop55
280
     0
102
RTVSPost2010PropOp55
 70
     1
102
RTVSPost2010Prop56
140
1.0
102
RTVSPost2010PropOp56
 70
     1
102
RTVSPost2010Prop57
140
1.0
102
RTVSPost2010PropOp57
 70
     1
  0
XRECORD
  5
4EB
102
{ACAD_REACTORS
330
4EA
102
}
330
4EA
100
AcDbXrecord
280
     1
102
RTVSPropertyOp0
 70
     1
102
RTVSPropertyOp1
 70
     1
102
RTVSPropertyOp2
 70
     1
102
RTVSPropertyOp3
 70
     1
102
RTVSPropertyOp4
 70
     1
102
RTVSPropertyOp5
 70
     1
102
RTVSPropertyOp6
 70
     1
102
RTVSPropertyOp7
 70
     1
102
RTVSPropertyOp8
 70
     1
102
RTVSPropertyOp9
 70
     1
102
RTVSPropertyOp10
 70
     1
102
RTVSPropertyOp11
 70
     1
102
RTVSPropertyOp12
 70
     1
102
RTVSPropertyOp13
 70
     1
102
RTVSPropertyOp14
 70
     1
102
RTVSPropertyOp15
 70
     1
102
RTVSPropertyOp16
 70
     1
102
RTVSPropertyOp17
 70
     1
102
RTVSPropertyOp18
 70
     1
102
RTVSPropertyOp19
 70
     1
102
RTVSPropertyOp20
 70
     1
102
RTVSPropertyOp21
 70
     1
102
RTVSPropertyOp22
 70
     1
102
RTVSPropertyOp23
 70
     1
102
RTVSPropertyOp24
 70
     1
102
RTVSPropertyOp25
 70
     1
102
RTVSPropertyOp26
 70
     1
102
RTVSPropertyOp27
 70
     1
102
RTVSPropertyOp28
 70
     1
102
RTVSPropertyOp29
 70
     1
102
RTVSPropertyOp30
 70
     1
102
RTVSPropertyOp31
 70
     1
102
RTVSPropertyOp32
 70
     1
102
RTVSPropertyOp33
 70
     1
102
RTVSPropertyOp34
 70
     1
102
RTVSPropertyOp35
 70
     1
102
RTVSPropertyOp36
 70
     1
102
RTVSPropertyOp37
 70
     1
102
RTVSPropertyOp38
 70
     1
102
RTVSPropertyOp39
 70
     1
102
RTVSPropertyOp40
 70
     1
102
RTVSPropertyOp41
 70
     1
102
RTVSPropertyOp42
 70
     1
102
RTVSPropertyOp43
 70
     1
102
RTVSPropertyOp44
 70
     1
102
RTVSPropertyOp45
 70
     1
102
RTVSPropertyOp46
 70
     1
102
RTVSPropertyOp47
 70
     1
102
RTVSPropertyOp48
 70
     1
102
RTVSPropertyOp49
 70
     1
102
RTVSPropertyOp50
 70
     1
102
RTVSPropertyOp51
 70
     0
102
RTVSPropertyOp52
 70
     0
102
RTVSPropertyOp53
 70
     1
102
RTVSPropertyOp54
 70
     1
102
RTVSPropertyOp55
 70
     1
102
RTVSPropertyOp56
 70
     1
102
RTVSPropertyOp57
 70
     1
102
RTVSPost2010Prop28
280
     0
102
RTVSPost2010PropOp28
 70
     1
102
RTVSPost2010Prop29
280
     1
102
RTVSPost2010PropOp29
 70
     1
102
RTVSPost2010Prop30
280
     1
102
RTVSPost2010PropOp30
 70
     1
102
RTVSPost2010Prop31
280
     0
102
RTVSPost2010PropOp31
 70
     1
102
RTVSPost2010Prop32
280
     0
102
RTVSPost2010PropOp32
 70
     1
102
RTVSPost2010Prop33
280
     0
102
RTVSPost2010PropOp33
 70
     1
102
RTVSPost2010Prop34
280
     0
102
RTVSPost2010PropOp34
 70
     1
102
RTVSPost2010Prop35
280
     0
102
RTVSPost2010PropOp35
 70
     1
102
RTVSPost2010Prop36
280
     0
102
RTVSPost2010PropOp36
 70
     1
102
RTVSPost2010Prop37
 90
       50
102
RTVSPost2010PropOp37
 70
     1
102
RTVSPost2010Prop38
140
0.0
102
RTVSPost2010PropOp38
 70
     1
102
RTVSPost2010Prop39
140
1.0
102
RTVSPost2010PropOp39
 70
     1
102
RTVSPost2010Prop40
 90
        0
102
RTVSPost2010PropOp40
 70
     1
102
RTVSPost2010Prop41ColorIndex
 90
       18
102
RTVSPost2010Prop41ColorRGB
 90
        0
102
RTVSPost2010PropOp41
 70
     1
102
RTVSPost2010Prop42
 90
       50
102
RTVSPost2010PropOp42
 70
     1
102
RTVSPost2010Prop43
 90
        3
102
RTVSPost2010PropOp43
 70
     1
102
RTVSPost2010Prop44ColorIndex
 90
        5
102
RTVSPost2010Prop44ColorRGB
 90
      255
102
RTVSPost2010PropOp44
 70
     1
102
RTVSPost2010Prop45
280
     0
102
RTVSPost2010PropOp45
 70
     1
102
RTVSPost2010Prop46
 90
       50
102
RTVSPost2010PropOp46
 70
     1
102
RTVSPost2010Prop47
 90
       50
102
RTVSPost2010PropOp47
 70
     1
102
RTVSPost2010Prop48
 90
       50
102
RTVSPost2010PropOp48
 70
     1
102
RTVSPost2010Prop49
280
     0
102
RTVSPost2010PropOp49
 70
     1
102
RTVSPost2010Prop50
 90
       50
102
RTVSPost2010PropOp50
 70
     1
102
RTVSPost2010Prop51ColorIndex
 90
      256
102
RTVSPost2010Prop51ColorRGB
 90
-16777216
102
RTVSPost2010PropOp51
 70
     0
102
RTVSPost2010Prop52
140
1.0
102
RTVSPost2010PropOp52
 70
     0
102
RTVSPost2010Prop53
 90
        2
102
RTVSPost2010PropOp53
 70
     1
102
RTVSPost2010Prop54
  1
strokes_ogs.tif
102
RTVSPost2010PropOp54
 70
     1
102
RTVSPost2010Prop55
280
     0
102
RTVSPost2010PropOp55
 70
     1
102
RTVSPost2010Prop56
140
1.0
102
RTVSPost2010PropOp56
 70
     1
102
RTVSPost2010Prop57
140
1.0
102
RTVSPost2010PropOp57
 70
     1
  0
XRECORD
  5
4DF
102
{ACAD_REACTORS
330
4DE
102
}
330
4DE
100
AcDbXrecord
280
     1
102
RTVSPropertyOp0
 70
     1
102
RTVSPropertyOp1
 70
     1
102
RTVSPropertyOp2
 70
     1
102
RTVSPropertyOp3
 70
     1
102
RTVSPropertyOp4
 70
     1
102
RTVSPropertyOp5
 70
     1
102
RTVSPropertyOp6
 70
     1
102
RTVSPropertyOp7
 70
     1
102
RTVSPropertyOp8
 70
     1
102
RTVSPropertyOp9
 70
     1
102
RTVSPropertyOp10
 70
     1
102
RTVSPropertyOp11
 70
     1
102
RTVSPropertyOp12
 70
     1
102
RTVSPropertyOp13
 70
     1
102
RTVSPropertyOp14
 70
     1
102
RTVSPropertyOp15
 70
     1
102
RTVSPropertyOp16
 70
     1
102
RTVSPropertyOp17
 70
     1
102
RTVSPropertyOp18
 70
     1
102
RTVSPropertyOp19
 70
     1
102
RTVSPropertyOp20
 70
     1
102
RTVSPropertyOp21
 70
     1
102
RTVSPropertyOp22
 70
     1
102
RTVSPropertyOp23
 70
     1
102
RTVSPropertyOp24
 70
     1
102
RTVSPropertyOp25
 70
     1
102
RTVSPropertyOp26
 70
     1
102
RTVSPropertyOp27
 70
     1
102
RTVSPropertyOp28
 70
     1
102
RTVSPropertyOp29
 70
     1
102
RTVSPropertyOp30
 70
     1
102
RTVSPropertyOp31
 70
     1
102
RTVSPropertyOp32
 70
     1
102
RTVSPropertyOp33
 70
     1
102
RTVSPropertyOp34
 70
     1
102
RTVSPropertyOp35
 70
     1
102
RTVSPropertyOp36
 70
     1
102
RTVSPropertyOp37
 70
     1
102
RTVSPropertyOp38
 70
     1
102
RTVSPropertyOp39
 70
     1
102
RTVSPropertyOp40
 70
     1
102
RTVSPropertyOp41
 70
     1
102
RTVSPropertyOp42
 70
     1
102
RTVSPropertyOp43
 70
     1
102
RTVSPropertyOp44
 70
     1
102
RTVSPropertyOp45
 70
     1
102
RTVSPropertyOp46
 70
     1
102
RTVSPropertyOp47
 70
     1
102
RTVSPropertyOp48
 70
     1
102
RTVSPropertyOp49
 70
     1
102
RTVSPropertyOp50
 70
     1
102
RTVSPropertyOp51
 70
     0
102
RTVSPropertyOp52
 70
     0
102
RTVSPropertyOp53
 70
     1
102
RTVSPropertyOp54
 70
     1
102
RTVSPropertyOp55
 70
     1
102
RTVSPropertyOp56
 70
     1
102
RTVSPropertyOp57
 70
     1
102
RTVSPost2010Prop28
280
     0
102
RTVSPost2010PropOp28
 70
     1
102
RTVSPost2010Prop29
280
     1
102
RTVSPost2010PropOp29
 70
     1
102
RTVSPost2010Prop30
280
     1
102
RTVSPost2010PropOp30
 70
     1
102
RTVSPost2010Prop31
280
     0
102
RTVSPost2010PropOp31
 70
     1
102
RTVSPost2010Prop32
280
     0
102
RTVSPost2010PropOp32
 70
     1
102
RTVSPost2010Prop33
280
     0
102
RTVSPost2010PropOp33
 70
     1
102
RTVSPost2010Prop34
280
     0
102
RTVSPost2010PropOp34
 70
     1
102
RTVSPost2010Prop35
280
     0
102
RTVSPost2010PropOp35
 70
     1
102
RTVSPost2010Prop36
280
     0
102
RTVSPost2010PropOp36
 70
     1
102
RTVSPost2010Prop37
 90
       50
102
RTVSPost2010PropOp37
 70
     1
102
RTVSPost2010Prop38
140
0.0
102
RTVSPost2010PropOp38
 70
     1
102
RTVSPost2010Prop39
140
1.0
102
RTVSPost2010PropOp39
 70
     1
102
RTVSPost2010Prop40
 90
        0
102
RTVSPost2010PropOp40
 70
     1
102
RTVSPost2010Prop41ColorIndex
 90
       18
102
RTVSPost2010Prop41ColorRGB
 90
        0
102
RTVSPost2010PropOp41
 70
     1
102
RTVSPost2010Prop42
 90
       50
102
RTVSPost2010PropOp42
 70
     1
102
RTVSPost2010Prop43
 90
        3
102
RTVSPost2010PropOp43
 70
     1
102
RTVSPost2010Prop44ColorIndex
 90
        5
102
RTVSPost2010Prop44ColorRGB
 90
      255
102
RTVSPost2010PropOp44
 70
     1
102
RTVSPost2010Prop45
280
     0
102
RTVSPost2010PropOp45
 70
     1
102
RTVSPost2010Prop46
 90
       50
102
RTVSPost2010PropOp46
 70
     1
102
RTVSPost2010Prop47
 90
       50
102
RTVSPost2010PropOp47
 70
     1
102
RTVSPost2010Prop48
 90
       50
102
RTVSPost2010PropOp48
 70
     1
102
RTVSPost2010Prop49
280
     0
102
RTVSPost2010PropOp49
 70
     1
102
RTVSPost2010Prop50
 90
       50
102
RTVSPost2010PropOp50
 70
     1
102
RTVSPost2010Prop51ColorIndex
 90
      256
102
RTVSPost2010Prop51ColorRGB
 90
-16777216
102
RTVSPost2010PropOp51
 70
     0
102
RTVSPost2010Prop52
140
1.0
102
RTVSPost2010PropOp52
 70
     0
102
RTVSPost2010Prop53
 90
        2
102
RTVSPost2010PropOp53
 70
     1
102
RTVSPost2010Prop54
  1
strokes_ogs.tif
102
RTVSPost2010PropOp54
 70
     1
102
RTVSPost2010Prop55
280
     0
102
RTVSPost2010PropOp55
 70
     1
102
RTVSPost2010Prop56
140
1.0
102
RTVSPost2010PropOp56
 70
     1
102
RTVSPost2010Prop57
140
1.0
102
RTVSPost2010PropOp57
 70
     1
  0
XRECORD
  5
4E1
102
{ACAD_REACTORS
330
4E0
102
}
330
4E0
100
AcDbXrecord
280
     1
102
RTVSPropertyOp0
 70
     1
102
RTVSPropertyOp1
 70
     1
102
RTVSPropertyOp2
 70
     1
102
RTVSPropertyOp3
 70
     1
102
RTVSPropertyOp4
 70
     1
102
RTVSPropertyOp5
 70
     1
102
RTVSPropertyOp6
 70
     1
102
RTVSPropertyOp7
 70
     1
102
RTVSPropertyOp8
 70
     1
102
RTVSPropertyOp9
 70
     1
102
RTVSPropertyOp10
 70
     1
102
RTVSPropertyOp11
 70
     1
102
RTVSPropertyOp12
 70
     1
102
RTVSPropertyOp13
 70
     1
102
RTVSPropertyOp14
 70
     1
102
RTVSPropertyOp15
 70
     1
102
RTVSPropertyOp16
 70
     1
102
RTVSPropertyOp17
 70
     1
102
RTVSPropertyOp18
 70
     1
102
RTVSPropertyOp19
 70
     1
102
RTVSPropertyOp20
 70
     1
102
RTVSPropertyOp21
 70
     1
102
RTVSPropertyOp22
 70
     1
102
RTVSPropertyOp23
 70
     1
102
RTVSPropertyOp24
 70
     1
102
RTVSPropertyOp25
 70
     1
102
RTVSPropertyOp26
 70
     1
102
RTVSPropertyOp27
 70
     1
102
RTVSPropertyOp28
 70
     1
102
RTVSPropertyOp29
 70
     1
102
RTVSPropertyOp30
 70
     1
102
RTVSPropertyOp31
 70
     1
102
RTVSPropertyOp32
 70
     1
102
RTVSPropertyOp33
 70
     1
102
RTVSPropertyOp34
 70
     1
102
RTVSPropertyOp35
 70
     1
102
RTVSPropertyOp36
 70
     1
102
RTVSPropertyOp37
 70
     1
102
RTVSPropertyOp38
 70
     1
102
RTVSPropertyOp39
 70
     1
102
RTVSPropertyOp40
 70
     1
102
RTVSPropertyOp41
 70
     1
102
RTVSPropertyOp42
 70
     1
102
RTVSPropertyOp43
 70
     1
102
RTVSPropertyOp44
 70
     1
102
RTVSPropertyOp45
 70
     1
102
RTVSPropertyOp46
 70
     1
102
RTVSPropertyOp47
 70
     1
102
RTVSPropertyOp48
 70
     1
102
RTVSPropertyOp49
 70
     1
102
RTVSPropertyOp50
 70
     1
102
RTVSPropertyOp51
 70
     0
102
RTVSPropertyOp52
 70
     0
102
RTVSPropertyOp53
 70
     1
102
RTVSPropertyOp54
 70
     1
102
RTVSPropertyOp55
 70
     1
102
RTVSPropertyOp56
 70
     1
102
RTVSPropertyOp57
 70
     1
102
RTVSPost2010Prop28
280
     0
102
RTVSPost2010PropOp28
 70
     1
102
RTVSPost2010Prop29
280
     1
102
RTVSPost2010PropOp29
 70
     1
102
RTVSPost2010Prop30
280
     1
102
RTVSPost2010PropOp30
 70
     1
102
RTVSPost2010Prop31
280
     0
102
RTVSPost2010PropOp31
 70
     1
102
RTVSPost2010Prop32
280
     0
102
RTVSPost2010PropOp32
 70
     1
102
RTVSPost2010Prop33
280
     0
102
RTVSPost2010PropOp33
 70
     1
102
RTVSPost2010Prop34
280
     0
102
RTVSPost2010PropOp34
 70
     1
102
RTVSPost2010Prop35
280
     0
102
RTVSPost2010PropOp35
 70
     1
102
RTVSPost2010Prop36
280
     0
102
RTVSPost2010PropOp36
 70
     1
102
RTVSPost2010Prop37
 90
       50
102
RTVSPost2010PropOp37
 70
     1
102
RTVSPost2010Prop38
140
0.0
102
RTVSPost2010PropOp38
 70
     1
102
RTVSPost2010Prop39
140
1.0
102
RTVSPost2010PropOp39
 70
     1
102
RTVSPost2010Prop40
 90
        0
102
RTVSPost2010PropOp40
 70
     1
102
RTVSPost2010Prop41ColorIndex
 90
       18
102
RTVSPost2010Prop41ColorRGB
 90
        0
102
RTVSPost2010PropOp41
 70
     1
102
RTVSPost2010Prop42
 90
       50
102
RTVSPost2010PropOp42
 70
     1
102
RTVSPost2010Prop43
 90
        3
102
RTVSPost2010PropOp43
 70
     1
102
RTVSPost2010Prop44ColorIndex
 90
        5
102
RTVSPost2010Prop44ColorRGB
 90
      255
102
RTVSPost2010PropOp44
 70
     1
102
RTVSPost2010Prop45
280
     0
102
RTVSPost2010PropOp45
 70
     1
102
RTVSPost2010Prop46
 90
       50
102
RTVSPost2010PropOp46
 70
     1
102
RTVSPost2010Prop47
 90
       50
102
RTVSPost2010PropOp47
 70
     1
102
RTVSPost2010Prop48
 90
       50
102
RTVSPost2010PropOp48
 70
     1
102
RTVSPost2010Prop49
280
     0
102
RTVSPost2010PropOp49
 70
     1
102
RTVSPost2010Prop50
 90
       50
102
RTVSPost2010PropOp50
 70
     1
102
RTVSPost2010Prop51ColorIndex
 90
      256
102
RTVSPost2010Prop51ColorRGB
 90
-16777216
102
RTVSPost2010PropOp51
 70
     0
102
RTVSPost2010Prop52
140
1.0
102
RTVSPost2010PropOp52
 70
     0
102
RTVSPost2010Prop53
 90
        2
102
RTVSPost2010PropOp53
 70
     1
102
RTVSPost2010Prop54
  1
strokes_ogs.tif
102
RTVSPost2010PropOp54
 70
     1
102
RTVSPost2010Prop55
280
     0
102
RTVSPost2010PropOp55
 70
     1
102
RTVSPost2010Prop56
140
1.0
102
RTVSPost2010PropOp56
 70
     1
102
RTVSPost2010Prop57
140
1.0
102
RTVSPost2010PropOp57
 70
     1
  0
XRECORD
  5
4F1
102
{ACAD_REACTORS
330
4F0
102
}
330
4F0
100
AcDbXrecord
280
     1
102
RTVSPropertyOp0
 70
     0
102
RTVSPropertyOp1
 70
     0
102
RTVSPropertyOp2
 70
     0
102
RTVSPropertyOp3
 70
     0
102
RTVSPropertyOp4
 70
     0
102
RTVSPropertyOp5
 70
     0
102
RTVSPropertyOp6
 70
     0
102
RTVSPropertyOp7
 70
     0
102
RTVSPropertyOp8
 70
     0
102
RTVSPropertyOp9
 70
     0
102
RTVSPropertyOp10
 70
     0
102
RTVSPropertyOp11
 70
     0
102
RTVSPropertyOp12
 70
     0
102
RTVSPropertyOp13
 70
     0
102
RTVSPropertyOp14
 70
     2
102
RTVSPropertyOp15
 70
     0
102
RTVSPropertyOp16
 70
     0
102
RTVSPropertyOp17
 70
     0
102
RTVSPropertyOp18
 70
     0
102
RTVSPropertyOp19
 70
     0
102
RTVSPropertyOp20
 70
     0
102
RTVSPropertyOp21
 70
     0
102
RTVSPropertyOp22
 70
     0
102
RTVSPropertyOp23
 70
     0
102
RTVSPropertyOp24
 70
     0
102
RTVSPropertyOp25
 70
     0
102
RTVSPropertyOp26
 70
     0
102
RTVSPropertyOp27
 70
     0
102
RTVSPropertyOp28
 70
     0
102
RTVSPropertyOp29
 70
     0
102
RTVSPropertyOp30
 70
     0
102
RTVSPropertyOp31
 70
     0
102
RTVSPropertyOp32
 70
     0
102
RTVSPropertyOp33
 70
     0
102
RTVSPropertyOp34
 70
     0
102
RTVSPropertyOp35
 70
     0
102
RTVSPropertyOp36
 70
     0
102
RTVSPropertyOp37
 70
     0
102
RTVSPropertyOp38
 70
     0
102
RTVSPropertyOp39
 70
     0
102
RTVSPropertyOp40
 70
     0
102
RTVSPropertyOp41
 70
     0
102
RTVSPropertyOp42
 70
     0
102
RTVSPropertyOp43
 70
     0
102
RTVSPropertyOp44
 70
     0
102
RTVSPropertyOp45
 70
     0
102
RTVSPropertyOp46
 70
     0
102
RTVSPropertyOp47
 70
     0
102
RTVSPropertyOp48
 70
     0
102
RTVSPropertyOp49
 70
     0
102
RTVSPropertyOp50
 70
     0
102
RTVSPropertyOp51
 70
     0
102
RTVSPropertyOp52
 70
     0
102
RTVSPropertyOp53
 70
     0
102
RTVSPropertyOp54
 70
     0
102
RTVSPropertyOp55
 70
     0
102
RTVSPropertyOp56
 70
     0
102
RTVSPropertyOp57
 70
     0
102
RTVSPost2010Prop28
280
     0
102
RTVSPost2010PropOp28
 70
     0
102
RTVSPost2010Prop29
280
     1
102
RTVSPost2010PropOp29
 70
     0
102
RTVSPost2010Prop30
280
     1
102
RTVSPost2010PropOp30
 70
     0
102
RTVSPost2010Prop31
280
     0
102
RTVSPost2010PropOp31
 70
     0
102
RTVSPost2010Prop32
280
     0
102
RTVSPost2010PropOp32
 70
     0
102
RTVSPost2010Prop33
280
     0
102
RTVSPost2010PropOp33
 70
     0
102
RTVSPost2010Prop34
280
     0
102
RTVSPost2010PropOp34
 70
     0
102
RTVSPost2010Prop35
280
     0
102
RTVSPost2010PropOp35
 70
     0
102
RTVSPost2010Prop36
280
     0
102
RTVSPost2010PropOp36
 70
     0
102
RTVSPost2010Prop37
 90
       50
102
RTVSPost2010PropOp37
 70
     0
102
RTVSPost2010Prop38
140
0.0
102
RTVSPost2010PropOp38
 70
     0
102
RTVSPost2010Prop39
140
1.0
102
RTVSPost2010PropOp39
 70
     0
102
RTVSPost2010Prop40
 90
        0
102
RTVSPost2010PropOp40
 70
     0
102
RTVSPost2010Prop41ColorIndex
 90
       18
102
RTVSPost2010Prop41ColorRGB
 90
        0
102
RTVSPost2010PropOp41
 70
     0
102
RTVSPost2010Prop42
 90
       50
102
RTVSPost2010PropOp42
 70
     0
102
RTVSPost2010Prop43
 90
        3
102
RTVSPost2010PropOp43
 70
     0
102
RTVSPost2010Prop44ColorIndex
 90
        5
102
RTVSPost2010Prop44ColorRGB
 90
      255
102
RTVSPost2010PropOp44
 70
     0
102
RTVSPost2010Prop45
280
     0
102
RTVSPost2010PropOp45
 70
     0
102
RTVSPost2010Prop46
 90
       50
102
RTVSPost2010PropOp46
 70
     0
102
RTVSPost2010Prop47
 90
       50
102
RTVSPost2010PropOp47
 70
     0
102
RTVSPost2010Prop48
 90
       50
102
RTVSPost2010PropOp48
 70
     0
102
RTVSPost2010Prop49
280
     0
102
RTVSPost2010PropOp49
 70
     0
102
RTVSPost2010Prop50
 90
       50
102
RTVSPost2010PropOp50
 70
     0
102
RTVSPost2010Prop51ColorIndex
 90
      256
102
RTVSPost2010Prop51ColorRGB
 90
-16777216
102
RTVSPost2010PropOp51
 70
     0
102
RTVSPost2010Prop52
140
1.0
102
RTVSPost2010PropOp52
 70
     0
102
RTVSPost2010Prop53
 90
        2
102
RTVSPost2010PropOp53
 70
     0
102
RTVSPost2010Prop54
  1
strokes_ogs.tif
102
RTVSPost2010PropOp54
 70
     0
102
RTVSPost2010Prop55
280
     0
102
RTVSPost2010PropOp55
 70
     0
102
RTVSPost2010Prop56
140
1.0
102
RTVSPost2010PropOp56
 70
     0
102
RTVSPost2010Prop57
140
1.0
102
RTVSPost2010PropOp57
 70
     0
  0
XRECORD
  5
4E9
102
{ACAD_REACTORS
330
4E8
102
}
330
4E8
100
AcDbXrecord
280
     1
102
RTVSPropertyOp0
 70
     1
102
RTVSPropertyOp1
 70
     1
102
RTVSPropertyOp2
 70
     1
102
RTVSPropertyOp3
 70
     1
102
RTVSPropertyOp4
 70
     1
102
RTVSPropertyOp5
 70
     1
102
RTVSPropertyOp6
 70
     1
102
RTVSPropertyOp7
 70
     1
102
RTVSPropertyOp8
 70
     1
102
RTVSPropertyOp9
 70
     1
102
RTVSPropertyOp10
 70
     1
102
RTVSPropertyOp11
 70
     1
102
RTVSPropertyOp12
 70
     1
102
RTVSPropertyOp13
 70
     1
102
RTVSPropertyOp14
 70
     1
102
RTVSPropertyOp15
 70
     1
102
RTVSPropertyOp16
 70
     1
102
RTVSPropertyOp17
 70
     1
102
RTVSPropertyOp18
 70
     1
102
RTVSPropertyOp19
 70
     1
102
RTVSPropertyOp20
 70
     1
102
RTVSPropertyOp21
 70
     1
102
RTVSPropertyOp22
 70
     1
102
RTVSPropertyOp23
 70
     1
102
RTVSPropertyOp24
 70
     1
102
RTVSPropertyOp25
 70
     1
102
RTVSPropertyOp26
 70
     1
102
RTVSPropertyOp27
 70
     1
102
RTVSPropertyOp28
 70
     1
102
RTVSPropertyOp29
 70
     1
102
RTVSPropertyOp30
 70
     1
102
RTVSPropertyOp31
 70
     1
102
RTVSPropertyOp32
 70
     1
102
RTVSPropertyOp33
 70
     1
102
RTVSPropertyOp34
 70
     1
102
RTVSPropertyOp35
 70
     1
102
RTVSPropertyOp36
 70
     1
102
RTVSPropertyOp37
 70
     1
102
RTVSPropertyOp38
 70
     1
102
RTVSPropertyOp39
 70
     1
102
RTVSPropertyOp40
 70
     1
102
RTVSPropertyOp41
 70
     1
102
RTVSPropertyOp42
 70
     1
102
RTVSPropertyOp43
 70
     1
102
RTVSPropertyOp44
 70
     1
102
RTVSPropertyOp45
 70
     1
102
RTVSPropertyOp46
 70
     1
102
RTVSPropertyOp47
 70
     1
102
RTVSPropertyOp48
 70
     1
102
RTVSPropertyOp49
 70
     1
102
RTVSPropertyOp50
 70
     1
102
RTVSPropertyOp51
 70
     0
102
RTVSPropertyOp52
 70
     0
102
RTVSPropertyOp53
 70
     1
102
RTVSPropertyOp54
 70
     1
102
RTVSPropertyOp55
 70
     1
102
RTVSPropertyOp56
 70
     1
102
RTVSPropertyOp57
 70
     1
102
RTVSPost2010Prop28
280
     0
102
RTVSPost2010PropOp28
 70
     1
102
RTVSPost2010Prop29
280
     1
102
RTVSPost2010PropOp29
 70
     1
102
RTVSPost2010Prop30
280
     1
102
RTVSPost2010PropOp30
 70
     1
102
RTVSPost2010Prop31
280
     0
102
RTVSPost2010PropOp31
 70
     1
102
RTVSPost2010Prop32
280
     0
102
RTVSPost2010PropOp32
 70
     1
102
RTVSPost2010Prop33
280
     0
102
RTVSPost2010PropOp33
 70
     1
102
RTVSPost2010Prop34
280
     0
102
RTVSPost2010PropOp34
 70
     1
102
RTVSPost2010Prop35
280
     0
102
RTVSPost2010PropOp35
 70
     1
102
RTVSPost2010Prop36
280
     0
102
RTVSPost2010PropOp36
 70
     1
102
RTVSPost2010Prop37
 90
       50
102
RTVSPost2010PropOp37
 70
     1
102
RTVSPost2010Prop38
140
0.0
102
RTVSPost2010PropOp38
 70
     1
102
RTVSPost2010Prop39
140
1.0
102
RTVSPost2010PropOp39
 70
     1
102
RTVSPost2010Prop40
 90
        0
102
RTVSPost2010PropOp40
 70
     1
102
RTVSPost2010Prop41ColorIndex
 90
       18
102
RTVSPost2010Prop41ColorRGB
 90
        0
102
RTVSPost2010PropOp41
 70
     1
102
RTVSPost2010Prop42
 90
       50
102
RTVSPost2010PropOp42
 70
     1
102
RTVSPost2010Prop43
 90
        3
102
RTVSPost2010PropOp43
 70
     1
102
RTVSPost2010Prop44ColorIndex
 90
        5
102
RTVSPost2010Prop44ColorRGB
 90
      255
102
RTVSPost2010PropOp44
 70
     1
102
RTVSPost2010Prop45
280
     0
102
RTVSPost2010PropOp45
 70
     1
102
RTVSPost2010Prop46
 90
       50
102
RTVSPost2010PropOp46
 70
     1
102
RTVSPost2010Prop47
 90
       50
102
RTVSPost2010PropOp47
 70
     1
102
RTVSPost2010Prop48
 90
       50
102
RTVSPost2010PropOp48
 70
     1
102
RTVSPost2010Prop49
280
     0
102
RTVSPost2010PropOp49
 70
     1
102
RTVSPost2010Prop50
 90
       50
102
RTVSPost2010PropOp50
 70
     1
102
RTVSPost2010Prop51ColorIndex
 90
      256
102
RTVSPost2010Prop51ColorRGB
 90
-16777216
102
RTVSPost2010PropOp51
 70
     0
102
RTVSPost2010Prop52
140
1.0
102
RTVSPost2010PropOp52
 70
     0
102
RTVSPost2010Prop53
 90
        2
102
RTVSPost2010PropOp53
 70
     1
102
RTVSPost2010Prop54
  1
strokes_ogs.tif
102
RTVSPost2010PropOp54
 70
     1
102
RTVSPost2010Prop55
280
     0
102
RTVSPost2010PropOp55
 70
     1
102
RTVSPost2010Prop56
140
1.0
102
RTVSPost2010PropOp56
 70
     1
102
RTVSPost2010Prop57
140
1.0
102
RTVSPost2010PropOp57
 70
     1
  0
XRECORD
  5
4CD
102
{ACAD_REACTORS
330
4CC
102
}
330
4CC
100
AcDbXrecord
280
     1
102
RTVSPropertyOp0
 70
     1
102
RTVSPropertyOp1
 70
     1
102
RTVSPropertyOp2
 70
     1
102
RTVSPropertyOp3
 70
     1
102
RTVSPropertyOp4
 70
     1
102
RTVSPropertyOp5
 70
     1
102
RTVSPropertyOp6
 70
     1
102
RTVSPropertyOp7
 70
     1
102
RTVSPropertyOp8
 70
     1
102
RTVSPropertyOp9
 70
     1
102
RTVSPropertyOp10
 70
     1
102
RTVSPropertyOp11
 70
     1
102
RTVSPropertyOp12
 70
     1
102
RTVSPropertyOp13
 70
     1
102
RTVSPropertyOp14
 70
     1
102
RTVSPropertyOp15
 70
     1
102
RTVSPropertyOp16
 70
     1
102
RTVSPropertyOp17
 70
     1
102
RTVSPropertyOp18
 70
     1
102
RTVSPropertyOp19
 70
     1
102
RTVSPropertyOp20
 70
     1
102
RTVSPropertyOp21
 70
     1
102
RTVSPropertyOp22
 70
     1
102
RTVSPropertyOp23
 70
     1
102
RTVSPropertyOp24
 70
     1
102
RTVSPropertyOp25
 70
     1
102
RTVSPropertyOp26
 70
     1
102
RTVSPropertyOp27
 70
     1
102
RTVSPropertyOp28
 70
     1
102
RTVSPropertyOp29
 70
     1
102
RTVSPropertyOp30
 70
     1
102
RTVSPropertyOp31
 70
     1
102
RTVSPropertyOp32
 70
     1
102
RTVSPropertyOp33
 70
     1
102
RTVSPropertyOp34
 70
     1
102
RTVSPropertyOp35
 70
     1
102
RTVSPropertyOp36
 70
     1
102
RTVSPropertyOp37
 70
     1
102
RTVSPropertyOp38
 70
     1
102
RTVSPropertyOp39
 70
     1
102
RTVSPropertyOp40
 70
     1
102
RTVSPropertyOp41
 70
     1
102
RTVSPropertyOp42
 70
     1
102
RTVSPropertyOp43
 70
     1
102
RTVSPropertyOp44
 70
     1
102
RTVSPropertyOp45
 70
     1
102
RTVSPropertyOp46
 70
     1
102
RTVSPropertyOp47
 70
     1
102
RTVSPropertyOp48
 70
     1
102
RTVSPropertyOp49
 70
     1
102
RTVSPropertyOp50
 70
     1
102
RTVSPropertyOp51
 70
     0
102
RTVSPropertyOp52
 70
     0
102
RTVSPropertyOp53
 70
     1
102
RTVSPropertyOp54
 70
     1
102
RTVSPropertyOp55
 70
     1
102
RTVSPropertyOp56
 70
     1
102
RTVSPropertyOp57
 70
     1
102
RTVSPost2010Prop28
280
     0
102
RTVSPost2010PropOp28
 70
     1
102
RTVSPost2010Prop29
280
     1
102
RTVSPost2010PropOp29
 70
     1
102
RTVSPost2010Prop30
280
     1
102
RTVSPost2010PropOp30
 70
     1
102
RTVSPost2010Prop31
280
     0
102
RTVSPost2010PropOp31
 70
     1
102
RTVSPost2010Prop32
280
     0
102
RTVSPost2010PropOp32
 70
     1
102
RTVSPost2010Prop33
280
     0
102
RTVSPost2010PropOp33
 70
     1
102
RTVSPost2010Prop34
280
     0
102
RTVSPost2010PropOp34
 70
     1
102
RTVSPost2010Prop35
280
     0
102
RTVSPost2010PropOp35
 70
     1
102
RTVSPost2010Prop36
280
     0
102
RTVSPost2010PropOp36
 70
     1
102
RTVSPost2010Prop37
 90
       50
102
RTVSPost2010PropOp37
 70
     1
102
RTVSPost2010Prop38
140
0.0
102
RTVSPost2010PropOp38
 70
     1
102
RTVSPost2010Prop39
140
1.0
102
RTVSPost2010PropOp39
 70
     1
102
RTVSPost2010Prop40
 90
        0
102
RTVSPost2010PropOp40
 70
     1
102
RTVSPost2010Prop41ColorIndex
 90
       18
102
RTVSPost2010Prop41ColorRGB
 90
        0
102
RTVSPost2010PropOp41
 70
     1
102
RTVSPost2010Prop42
 90
       50
102
RTVSPost2010PropOp42
 70
     1
102
RTVSPost2010Prop43
 90
        3
102
RTVSPost2010PropOp43
 70
     1
102
RTVSPost2010Prop44ColorIndex
 90
        5
102
RTVSPost2010Prop44ColorRGB
 90
      255
102
RTVSPost2010PropOp44
 70
     1
102
RTVSPost2010Prop45
280
     0
102
RTVSPost2010PropOp45
 70
     1
102
RTVSPost2010Prop46
 90
       50
102
RTVSPost2010PropOp46
 70
     1
102
RTVSPost2010Prop47
 90
       50
102
RTVSPost2010PropOp47
 70
     1
102
RTVSPost2010Prop48
 90
       50
102
RTVSPost2010PropOp48
 70
     1
102
RTVSPost2010Prop49
280
     0
102
RTVSPost2010PropOp49
 70
     1
102
RTVSPost2010Prop50
 90
       50
102
RTVSPost2010PropOp50
 70
     1
102
RTVSPost2010Prop51ColorIndex
 90
      256
102
RTVSPost2010Prop51ColorRGB
 90
-16777216
102
RTVSPost2010PropOp51
 70
     0
102
RTVSPost2010Prop52
140
1.0
102
RTVSPost2010PropOp52
 70
     0
102
RTVSPost2010Prop53
 90
        2
102
RTVSPost2010PropOp53
 70
     1
102
RTVSPost2010Prop54
  1
strokes_ogs.tif
102
RTVSPost2010PropOp54
 70
     1
102
RTVSPost2010Prop55
280
     0
102
RTVSPost2010PropOp55
 70
     1
102
RTVSPost2010Prop56
140
1.0
102
RTVSPost2010PropOp56
 70
     1
102
RTVSPost2010Prop57
140
1.0
102
RTVSPost2010PropOp57
 70
     1
  0
XRECORD
  5
4CF
102
{ACAD_REACTORS
330
4CE
102
}
330
4CE
100
AcDbXrecord
280
     1
102
RTVSPropertyOp0
 70
     1
102
RTVSPropertyOp1
 70
     1
102
RTVSPropertyOp2
 70
     1
102
RTVSPropertyOp3
 70
     1
102
RTVSPropertyOp4
 70
     1
102
RTVSPropertyOp5
 70
     1
102
RTVSPropertyOp6
 70
     1
102
RTVSPropertyOp7
 70
     1
102
RTVSPropertyOp8
 70
     1
102
RTVSPropertyOp9
 70
     1
102
RTVSPropertyOp10
 70
     1
102
RTVSPropertyOp11
 70
     1
102
RTVSPropertyOp12
 70
     1
102
RTVSPropertyOp13
 70
     1
102
RTVSPropertyOp14
 70
     1
102
RTVSPropertyOp15
 70
     1
102
RTVSPropertyOp16
 70
     1
102
RTVSPropertyOp17
 70
     1
102
RTVSPropertyOp18
 70
     1
102
RTVSPropertyOp19
 70
     1
102
RTVSPropertyOp20
 70
     1
102
RTVSPropertyOp21
 70
     1
102
RTVSPropertyOp22
 70
     1
102
RTVSPropertyOp23
 70
     1
102
RTVSPropertyOp24
 70
     1
102
RTVSPropertyOp25
 70
     1
102
RTVSPropertyOp26
 70
     1
102
RTVSPropertyOp27
 70
     1
102
RTVSPropertyOp28
 70
     1
102
RTVSPropertyOp29
 70
     1
102
RTVSPropertyOp30
 70
     1
102
RTVSPropertyOp31
 70
     1
102
RTVSPropertyOp32
 70
     1
102
RTVSPropertyOp33
 70
     1
102
RTVSPropertyOp34
 70
     1
102
RTVSPropertyOp35
 70
     1
102
RTVSPropertyOp36
 70
     1
102
RTVSPropertyOp37
 70
     1
102
RTVSPropertyOp38
 70
     1
102
RTVSPropertyOp39
 70
     1
102
RTVSPropertyOp40
 70
     1
102
RTVSPropertyOp41
 70
     1
102
RTVSPropertyOp42
 70
     1
102
RTVSPropertyOp43
 70
     1
102
RTVSPropertyOp44
 70
     1
102
RTVSPropertyOp45
 70
     1
102
RTVSPropertyOp46
 70
     1
102
RTVSPropertyOp47
 70
     1
102
RTVSPropertyOp48
 70
     1
102
RTVSPropertyOp49
 70
     1
102
RTVSPropertyOp50
 70
     1
102
RTVSPropertyOp51
 70
     0
102
RTVSPropertyOp52
 70
     0
102
RTVSPropertyOp53
 70
     1
102
RTVSPropertyOp54
 70
     1
102
RTVSPropertyOp55
 70
     1
102
RTVSPropertyOp56
 70
     1
102
RTVSPropertyOp57
 70
     1
102
RTVSPost2010Prop28
280
     0
102
RTVSPost2010PropOp28
 70
     1
102
RTVSPost2010Prop29
280
     1
102
RTVSPost2010PropOp29
 70
     1
102
RTVSPost2010Prop30
280
     1
102
RTVSPost2010PropOp30
 70
     1
102
RTVSPost2010Prop31
280
     0
102
RTVSPost2010PropOp31
 70
     1
102
RTVSPost2010Prop32
280
     0
102
RTVSPost2010PropOp32
 70
     1
102
RTVSPost2010Prop33
280
     0
102
RTVSPost2010PropOp33
 70
     1
102
RTVSPost2010Prop34
280
     0
102
RTVSPost2010PropOp34
 70
     1
102
RTVSPost2010Prop35
280
     0
102
RTVSPost2010PropOp35
 70
     1
102
RTVSPost2010Prop36
280
     0
102
RTVSPost2010PropOp36
 70
     1
102
RTVSPost2010Prop37
 90
       50
102
RTVSPost2010PropOp37
 70
     1
102
RTVSPost2010Prop38
140
0.0
102
RTVSPost2010PropOp38
 70
     1
102
RTVSPost2010Prop39
140
1.0
102
RTVSPost2010PropOp39
 70
     1
102
RTVSPost2010Prop40
 90
        0
102
RTVSPost2010PropOp40
 70
     1
102
RTVSPost2010Prop41ColorIndex
 90
       18
102
RTVSPost2010Prop41ColorRGB
 90
        0
102
RTVSPost2010PropOp41
 70
     1
102
RTVSPost2010Prop42
 90
       50
102
RTVSPost2010PropOp42
 70
     1
102
RTVSPost2010Prop43
 90
        3
102
RTVSPost2010PropOp43
 70
     1
102
RTVSPost2010Prop44ColorIndex
 90
        5
102
RTVSPost2010Prop44ColorRGB
 90
      255
102
RTVSPost2010PropOp44
 70
     1
102
RTVSPost2010Prop45
280
     0
102
RTVSPost2010PropOp45
 70
     1
102
RTVSPost2010Prop46
 90
       50
102
RTVSPost2010PropOp46
 70
     1
102
RTVSPost2010Prop47
 90
       50
102
RTVSPost2010PropOp47
 70
     1
102
RTVSPost2010Prop48
 90
       50
102
RTVSPost2010PropOp48
 70
     1
102
RTVSPost2010Prop49
280
     0
102
RTVSPost2010PropOp49
 70
     1
102
RTVSPost2010Prop50
 90
       50
102
RTVSPost2010PropOp50
 70
     1
102
RTVSPost2010Prop51ColorIndex
 90
      256
102
RTVSPost2010Prop51ColorRGB
 90
-16777216
102
RTVSPost2010PropOp51
 70
     0
102
RTVSPost2010Prop52
140
1.0
102
RTVSPost2010PropOp52
 70
     0
102
RTVSPost2010Prop53
 90
        2
102
RTVSPost2010PropOp53
 70
     1
102
RTVSPost2010Prop54
  1
strokes_ogs.tif
102
RTVSPost2010PropOp54
 70
     1
102
RTVSPost2010Prop55
280
     0
102
RTVSPost2010PropOp55
 70
     1
102
RTVSPost2010Prop56
140
1.0
102
RTVSPost2010PropOp56
 70
     1
102
RTVSPost2010Prop57
140
1.0
102
RTVSPost2010PropOp57
 70
     1
  0
XRECORD
  5
4D1
102
{ACAD_REACTORS
330
4D0
102
}
330
4D0
100
AcDbXrecord
280
     1
102
RTVSPropertyOp0
 70
     1
102
RTVSPropertyOp1
 70
     1
102
RTVSPropertyOp2
 70
     1
102
RTVSPropertyOp3
 70
     1
102
RTVSPropertyOp4
 70
     1
102
RTVSPropertyOp5
 70
     1
102
RTVSPropertyOp6
 70
     1
102
RTVSPropertyOp7
 70
     1
102
RTVSPropertyOp8
 70
     1
102
RTVSPropertyOp9
 70
     1
102
RTVSPropertyOp10
 70
     1
102
RTVSPropertyOp11
 70
     1
102
RTVSPropertyOp12
 70
     1
102
RTVSPropertyOp13
 70
     1
102
RTVSPropertyOp14
 70
     1
102
RTVSPropertyOp15
 70
     1
102
RTVSPropertyOp16
 70
     1
102
RTVSPropertyOp17
 70
     1
102
RTVSPropertyOp18
 70
     1
102
RTVSPropertyOp19
 70
     1
102
RTVSPropertyOp20
 70
     1
102
RTVSPropertyOp21
 70
     1
102
RTVSPropertyOp22
 70
     1
102
RTVSPropertyOp23
 70
     1
102
RTVSPropertyOp24
 70
     1
102
RTVSPropertyOp25
 70
     1
102
RTVSPropertyOp26
 70
     1
102
RTVSPropertyOp27
 70
     1
102
RTVSPropertyOp28
 70
     1
102
RTVSPropertyOp29
 70
     1
102
RTVSPropertyOp30
 70
     1
102
RTVSPropertyOp31
 70
     1
102
RTVSPropertyOp32
 70
     1
102
RTVSPropertyOp33
 70
     1
102
RTVSPropertyOp34
 70
     1
102
RTVSPropertyOp35
 70
     1
102
RTVSPropertyOp36
 70
     1
102
RTVSPropertyOp37
 70
     1
102
RTVSPropertyOp38
 70
     1
102
RTVSPropertyOp39
 70
     1
102
RTVSPropertyOp40
 70
     1
102
RTVSPropertyOp41
 70
     1
102
RTVSPropertyOp42
 70
     1
102
RTVSPropertyOp43
 70
     1
102
RTVSPropertyOp44
 70
     1
102
RTVSPropertyOp45
 70
     1
102
RTVSPropertyOp46
 70
     1
102
RTVSPropertyOp47
 70
     1
102
RTVSPropertyOp48
 70
     1
102
RTVSPropertyOp49
 70
     1
102
RTVSPropertyOp50
 70
     1
102
RTVSPropertyOp51
 70
     0
102
RTVSPropertyOp52
 70
     0
102
RTVSPropertyOp53
 70
     1
102
RTVSPropertyOp54
 70
     1
102
RTVSPropertyOp55
 70
     1
102
RTVSPropertyOp56
 70
     1
102
RTVSPropertyOp57
 70
     1
102
RTVSPost2010Prop28
280
     0
102
RTVSPost2010PropOp28
 70
     1
102
RTVSPost2010Prop29
280
     1
102
RTVSPost2010PropOp29
 70
     1
102
RTVSPost2010Prop30
280
     1
102
RTVSPost2010PropOp30
 70
     1
102
RTVSPost2010Prop31
280
     0
102
RTVSPost2010PropOp31
 70
     1
102
RTVSPost2010Prop32
280
     0
102
RTVSPost2010PropOp32
 70
     1
102
RTVSPost2010Prop33
280
     0
102
RTVSPost2010PropOp33
 70
     1
102
RTVSPost2010Prop34
280
     0
102
RTVSPost2010PropOp34
 70
     1
102
RTVSPost2010Prop35
280
     0
102
RTVSPost2010PropOp35
 70
     1
102
RTVSPost2010Prop36
280
     0
102
RTVSPost2010PropOp36
 70
     1
102
RTVSPost2010Prop37
 90
       50
102
RTVSPost2010PropOp37
 70
     1
102
RTVSPost2010Prop38
140
0.0
102
RTVSPost2010PropOp38
 70
     1
102
RTVSPost2010Prop39
140
1.0
102
RTVSPost2010PropOp39
 70
     1
102
RTVSPost2010Prop40
 90
        0
102
RTVSPost2010PropOp40
 70
     1
102
RTVSPost2010Prop41ColorIndex
 90
       18
102
RTVSPost2010Prop41ColorRGB
 90
        0
102
RTVSPost2010PropOp41
 70
     1
102
RTVSPost2010Prop42
 90
       50
102
RTVSPost2010PropOp42
 70
     1
102
RTVSPost2010Prop43
 90
        3
102
RTVSPost2010PropOp43
 70
     1
102
RTVSPost2010Prop44ColorIndex
 90
        5
102
RTVSPost2010Prop44ColorRGB
 90
      255
102
RTVSPost2010PropOp44
 70
     1
102
RTVSPost2010Prop45
280
     0
102
RTVSPost2010PropOp45
 70
     1
102
RTVSPost2010Prop46
 90
       50
102
RTVSPost2010PropOp46
 70
     1
102
RTVSPost2010Prop47
 90
       50
102
RTVSPost2010PropOp47
 70
     1
102
RTVSPost2010Prop48
 90
       50
102
RTVSPost2010PropOp48
 70
     1
102
RTVSPost2010Prop49
280
     0
102
RTVSPost2010PropOp49
 70
     1
102
RTVSPost2010Prop50
 90
       50
102
RTVSPost2010PropOp50
 70
     1
102
RTVSPost2010Prop51ColorIndex
 90
      256
102
RTVSPost2010Prop51ColorRGB
 90
-16777216
102
RTVSPost2010PropOp51
 70
     0
102
RTVSPost2010Prop52
140
1.0
102
RTVSPost2010PropOp52
 70
     0
102
RTVSPost2010Prop53
 90
        2
102
RTVSPost2010PropOp53
 70
     1
102
RTVSPost2010Prop54
  1
strokes_ogs.tif
102
RTVSPost2010PropOp54
 70
     1
102
RTVSPost2010Prop55
280
     0
102
RTVSPost2010PropOp55
 70
     1
102
RTVSPost2010Prop56
140
1.0
102
RTVSPost2010PropOp56
 70
     1
102
RTVSPost2010Prop57
140
1.0
102
RTVSPost2010PropOp57
 70
     1
  0
XRECORD
  5
4D3
102
{ACAD_REACTORS
330
4D2
102
}
330
4D2
100
AcDbXrecord
280
     1
102
RTVSPropertyOp0
 70
     1
102
RTVSPropertyOp1
 70
     1
102
RTVSPropertyOp2
 70
     1
102
RTVSPropertyOp3
 70
     1
102
RTVSPropertyOp4
 70
     1
102
RTVSPropertyOp5
 70
     1
102
RTVSPropertyOp6
 70
     1
102
RTVSPropertyOp7
 70
     1
102
RTVSPropertyOp8
 70
     1
102
RTVSPropertyOp9
 70
     1
102
RTVSPropertyOp10
 70
     1
102
RTVSPropertyOp11
 70
     1
102
RTVSPropertyOp12
 70
     1
102
RTVSPropertyOp13
 70
     1
102
RTVSPropertyOp14
 70
     1
102
RTVSPropertyOp15
 70
     1
102
RTVSPropertyOp16
 70
     1
102
RTVSPropertyOp17
 70
     1
102
RTVSPropertyOp18
 70
     1
102
RTVSPropertyOp19
 70
     1
102
RTVSPropertyOp20
 70
     1
102
RTVSPropertyOp21
 70
     1
102
RTVSPropertyOp22
 70
     1
102
RTVSPropertyOp23
 70
     1
102
RTVSPropertyOp24
 70
     1
102
RTVSPropertyOp25
 70
     1
102
RTVSPropertyOp26
 70
     1
102
RTVSPropertyOp27
 70
     1
102
RTVSPropertyOp28
 70
     1
102
RTVSPropertyOp29
 70
     1
102
RTVSPropertyOp30
 70
     1
102
RTVSPropertyOp31
 70
     1
102
RTVSPropertyOp32
 70
     1
102
RTVSPropertyOp33
 70
     1
102
RTVSPropertyOp34
 70
     1
102
RTVSPropertyOp35
 70
     1
102
RTVSPropertyOp36
 70
     1
102
RTVSPropertyOp37
 70
     1
102
RTVSPropertyOp38
 70
     1
102
RTVSPropertyOp39
 70
     1
102
RTVSPropertyOp40
 70
     1
102
RTVSPropertyOp41
 70
     1
102
RTVSPropertyOp42
 70
     1
102
RTVSPropertyOp43
 70
     1
102
RTVSPropertyOp44
 70
     1
102
RTVSPropertyOp45
 70
     1
102
RTVSPropertyOp46
 70
     1
102
RTVSPropertyOp47
 70
     1
102
RTVSPropertyOp48
 70
     1
102
RTVSPropertyOp49
 70
     1
102
RTVSPropertyOp50
 70
     1
102
RTVSPropertyOp51
 70
     0
102
RTVSPropertyOp52
 70
     0
102
RTVSPropertyOp53
 70
     1
102
RTVSPropertyOp54
 70
     1
102
RTVSPropertyOp55
 70
     1
102
RTVSPropertyOp56
 70
     1
102
RTVSPropertyOp57
 70
     1
102
RTVSPost2010Prop28
280
     0
102
RTVSPost2010PropOp28
 70
     1
102
RTVSPost2010Prop29
280
     1
102
RTVSPost2010PropOp29
 70
     1
102
RTVSPost2010Prop30
280
     1
102
RTVSPost2010PropOp30
 70
     1
102
RTVSPost2010Prop31
280
     0
102
RTVSPost2010PropOp31
 70
     1
102
RTVSPost2010Prop32
280
     0
102
RTVSPost2010PropOp32
 70
     1
102
RTVSPost2010Prop33
280
     0
102
RTVSPost2010PropOp33
 70
     1
102
RTVSPost2010Prop34
280
     0
102
RTVSPost2010PropOp34
 70
     1
102
RTVSPost2010Prop35
280
     0
102
RTVSPost2010PropOp35
 70
     1
102
RTVSPost2010Prop36
280
     0
102
RTVSPost2010PropOp36
 70
     1
102
RTVSPost2010Prop37
 90
       50
102
RTVSPost2010PropOp37
 70
     1
102
RTVSPost2010Prop38
140
0.0
102
RTVSPost2010PropOp38
 70
     1
102
RTVSPost2010Prop39
140
1.0
102
RTVSPost2010PropOp39
 70
     1
102
RTVSPost2010Prop40
 90
        0
102
RTVSPost2010PropOp40
 70
     1
102
RTVSPost2010Prop41ColorIndex
 90
       18
102
RTVSPost2010Prop41ColorRGB
 90
        0
102
RTVSPost2010PropOp41
 70
     1
102
RTVSPost2010Prop42
 90
       50
102
RTVSPost2010PropOp42
 70
     1
102
RTVSPost2010Prop43
 90
        3
102
RTVSPost2010PropOp43
 70
     1
102
RTVSPost2010Prop44ColorIndex
 90
        5
102
RTVSPost2010Prop44ColorRGB
 90
      255
102
RTVSPost2010PropOp44
 70
     1
102
RTVSPost2010Prop45
280
     0
102
RTVSPost2010PropOp45
 70
     1
102
RTVSPost2010Prop46
 90
       50
102
RTVSPost2010PropOp46
 70
     1
102
RTVSPost2010Prop47
 90
       50
102
RTVSPost2010PropOp47
 70
     1
102
RTVSPost2010Prop48
 90
       50
102
RTVSPost2010PropOp48
 70
     1
102
RTVSPost2010Prop49
280
     0
102
RTVSPost2010PropOp49
 70
     1
102
RTVSPost2010Prop50
 90
       50
102
RTVSPost2010PropOp50
 70
     1
102
RTVSPost2010Prop51ColorIndex
 90
      256
102
RTVSPost2010Prop51ColorRGB
 90
-16777216
102
RTVSPost2010PropOp51
 70
     0
102
RTVSPost2010Prop52
140
1.0
102
RTVSPost2010PropOp52
 70
     0
102
RTVSPost2010Prop53
 90
        2
102
RTVSPost2010PropOp53
 70
     1
102
RTVSPost2010Prop54
  1
strokes_ogs.tif
102
RTVSPost2010PropOp54
 70
     1
102
RTVSPost2010Prop55
280
     0
102
RTVSPost2010PropOp55
 70
     1
102
RTVSPost2010Prop56
140
1.0
102
RTVSPost2010PropOp56
 70
     1
102
RTVSPost2010Prop57
140
1.0
102
RTVSPost2010PropOp57
 70
     1
  0
XRECORD
  5
4D9
102
{ACAD_REACTORS
330
4D8
102
}
330
4D8
100
AcDbXrecord
280
     1
102
RTVSPropertyOp0
 70
     1
102
RTVSPropertyOp1
 70
     1
102
RTVSPropertyOp2
 70
     1
102
RTVSPropertyOp3
 70
     1
102
RTVSPropertyOp4
 70
     1
102
RTVSPropertyOp5
 70
     1
102
RTVSPropertyOp6
 70
     1
102
RTVSPropertyOp7
 70
     1
102
RTVSPropertyOp8
 70
     1
102
RTVSPropertyOp9
 70
     1
102
RTVSPropertyOp10
 70
     1
102
RTVSPropertyOp11
 70
     1
102
RTVSPropertyOp12
 70
     1
102
RTVSPropertyOp13
 70
     1
102
RTVSPropertyOp14
 70
     1
102
RTVSPropertyOp15
 70
     1
102
RTVSPropertyOp16
 70
     1
102
RTVSPropertyOp17
 70
     1
102
RTVSPropertyOp18
 70
     1
102
RTVSPropertyOp19
 70
     1
102
RTVSPropertyOp20
 70
     1
102
RTVSPropertyOp21
 70
     1
102
RTVSPropertyOp22
 70
     1
102
RTVSPropertyOp23
 70
     1
102
RTVSPropertyOp24
 70
     1
102
RTVSPropertyOp25
 70
     1
102
RTVSPropertyOp26
 70
     1
102
RTVSPropertyOp27
 70
     1
102
RTVSPropertyOp28
 70
     1
102
RTVSPropertyOp29
 70
     1
102
RTVSPropertyOp30
 70
     1
102
RTVSPropertyOp31
 70
     1
102
RTVSPropertyOp32
 70
     1
102
RTVSPropertyOp33
 70
     1
102
RTVSPropertyOp34
 70
     1
102
RTVSPropertyOp35
 70
     1
102
RTVSPropertyOp36
 70
     1
102
RTVSPropertyOp37
 70
     1
102
RTVSPropertyOp38
 70
     1
102
RTVSPropertyOp39
 70
     1
102
RTVSPropertyOp40
 70
     1
102
RTVSPropertyOp41
 70
     1
102
RTVSPropertyOp42
 70
     1
102
RTVSPropertyOp43
 70
     1
102
RTVSPropertyOp44
 70
     1
102
RTVSPropertyOp45
 70
     1
102
RTVSPropertyOp46
 70
     1
102
RTVSPropertyOp47
 70
     1
102
RTVSPropertyOp48
 70
     1
102
RTVSPropertyOp49
 70
     1
102
RTVSPropertyOp50
 70
     1
102
RTVSPropertyOp51
 70
     0
102
RTVSPropertyOp52
 70
     0
102
RTVSPropertyOp53
 70
     1
102
RTVSPropertyOp54
 70
     1
102
RTVSPropertyOp55
 70
     1
102
RTVSPropertyOp56
 70
     1
102
RTVSPropertyOp57
 70
     1
102
RTVSPost2010Prop28
280
     0
102
RTVSPost2010PropOp28
 70
     1
102
RTVSPost2010Prop29
280
     1
102
RTVSPost2010PropOp29
 70
     1
102
RTVSPost2010Prop30
280
     1
102
RTVSPost2010PropOp30
 70
     1
102
RTVSPost2010Prop31
280
     0
102
RTVSPost2010PropOp31
 70
     1
102
RTVSPost2010Prop32
280
     0
102
RTVSPost2010PropOp32
 70
     1
102
RTVSPost2010Prop33
280
     0
102
RTVSPost2010PropOp33
 70
     1
102
RTVSPost2010Prop34
280
     0
102
RTVSPost2010PropOp34
 70
     1
102
RTVSPost2010Prop35
280
     0
102
RTVSPost2010PropOp35
 70
     1
102
RTVSPost2010Prop36
280
     0
102
RTVSPost2010PropOp36
 70
     1
102
RTVSPost2010Prop37
 90
       50
102
RTVSPost2010PropOp37
 70
     1
102
RTVSPost2010Prop38
140
0.0
102
RTVSPost2010PropOp38
 70
     1
102
RTVSPost2010Prop39
140
1.0
102
RTVSPost2010PropOp39
 70
     1
102
RTVSPost2010Prop40
 90
        0
102
RTVSPost2010PropOp40
 70
     1
102
RTVSPost2010Prop41ColorIndex
 90
       18
102
RTVSPost2010Prop41ColorRGB
 90
        0
102
RTVSPost2010PropOp41
 70
     1
102
RTVSPost2010Prop42
 90
       50
102
RTVSPost2010PropOp42
 70
     1
102
RTVSPost2010Prop43
 90
        3
102
RTVSPost2010PropOp43
 70
     1
102
RTVSPost2010Prop44ColorIndex
 90
        5
102
RTVSPost2010Prop44ColorRGB
 90
      255
102
RTVSPost2010PropOp44
 70
     1
102
RTVSPost2010Prop45
280
     0
102
RTVSPost2010PropOp45
 70
     1
102
RTVSPost2010Prop46
 90
       50
102
RTVSPost2010PropOp46
 70
     1
102
RTVSPost2010Prop47
 90
       50
102
RTVSPost2010PropOp47
 70
     1
102
RTVSPost2010Prop48
 90
       50
102
RTVSPost2010PropOp48
 70
     1
102
RTVSPost2010Prop49
280
     0
102
RTVSPost2010PropOp49
 70
     1
102
RTVSPost2010Prop50
 90
       50
102
RTVSPost2010PropOp50
 70
     1
102
RTVSPost2010Prop51ColorIndex
 90
      256
102
RTVSPost2010Prop51ColorRGB
 90
-16777216
102
RTVSPost2010PropOp51
 70
     0
102
RTVSPost2010Prop52
140
1.0
102
RTVSPost2010PropOp52
 70
     0
102
RTVSPost2010Prop53
 90
        2
102
RTVSPost2010PropOp53
 70
     1
102
RTVSPost2010Prop54
  1
strokes_ogs.tif
102
RTVSPost2010PropOp54
 70
     1
102
RTVSPost2010Prop55
280
     0
102
RTVSPost2010PropOp55
 70
     1
102
RTVSPost2010Prop56
140
1.0
102
RTVSPost2010PropOp56
 70
     1
102
RTVSPost2010Prop57
140
1.0
102
RTVSPost2010PropOp57
 70
     1
  0
XRECORD
  5
4ED
102
{ACAD_REACTORS
330
4EC
102
}
330
4EC
100
AcDbXrecord
280
     1
102
RTVSPropertyOp0
 70
     0
102
RTVSPropertyOp1
 70
     0
102
RTVSPropertyOp2
 70
     0
102
RTVSPropertyOp3
 70
     0
102
RTVSPropertyOp4
 70
     0
102
RTVSPropertyOp5
 70
     0
102
RTVSPropertyOp6
 70
     0
102
RTVSPropertyOp7
 70
     0
102
RTVSPropertyOp8
 70
     0
102
RTVSPropertyOp9
 70
     0
102
RTVSPropertyOp10
 70
     0
102
RTVSPropertyOp11
 70
     0
102
RTVSPropertyOp12
 70
     0
102
RTVSPropertyOp13
 70
     0
102
RTVSPropertyOp14
 70
     2
102
RTVSPropertyOp15
 70
     0
102
RTVSPropertyOp16
 70
     0
102
RTVSPropertyOp17
 70
     0
102
RTVSPropertyOp18
 70
     0
102
RTVSPropertyOp19
 70
     0
102
RTVSPropertyOp20
 70
     0
102
RTVSPropertyOp21
 70
     0
102
RTVSPropertyOp22
 70
     0
102
RTVSPropertyOp23
 70
     0
102
RTVSPropertyOp24
 70
     0
102
RTVSPropertyOp25
 70
     0
102
RTVSPropertyOp26
 70
     0
102
RTVSPropertyOp27
 70
     0
102
RTVSPropertyOp28
 70
     0
102
RTVSPropertyOp29
 70
     0
102
RTVSPropertyOp30
 70
     0
102
RTVSPropertyOp31
 70
     0
102
RTVSPropertyOp32
 70
     0
102
RTVSPropertyOp33
 70
     0
102
RTVSPropertyOp34
 70
     0
102
RTVSPropertyOp35
 70
     0
102
RTVSPropertyOp36
 70
     0
102
RTVSPropertyOp37
 70
     0
102
RTVSPropertyOp38
 70
     0
102
RTVSPropertyOp39
 70
     0
102
RTVSPropertyOp40
 70
     0
102
RTVSPropertyOp41
 70
     0
102
RTVSPropertyOp42
 70
     0
102
RTVSPropertyOp43
 70
     0
102
RTVSPropertyOp44
 70
     0
102
RTVSPropertyOp45
 70
     0
102
RTVSPropertyOp46
 70
     0
102
RTVSPropertyOp47
 70
     0
102
RTVSPropertyOp48
 70
     0
102
RTVSPropertyOp49
 70
     0
102
RTVSPropertyOp50
 70
     0
102
RTVSPropertyOp51
 70
     0
102
RTVSPropertyOp52
 70
     0
102
RTVSPropertyOp53
 70
     0
102
RTVSPropertyOp54
 70
     0
102
RTVSPropertyOp55
 70
     0
102
RTVSPropertyOp56
 70
     0
102
RTVSPropertyOp57
 70
     0
102
RTVSPost2010Prop28
280
     0
102
RTVSPost2010PropOp28
 70
     0
102
RTVSPost2010Prop29
280
     1
102
RTVSPost2010PropOp29
 70
     0
102
RTVSPost2010Prop30
280
     1
102
RTVSPost2010PropOp30
 70
     0
102
RTVSPost2010Prop31
280
     0
102
RTVSPost2010PropOp31
 70
     0
102
RTVSPost2010Prop32
280
     0
102
RTVSPost2010PropOp32
 70
     0
102
RTVSPost2010Prop33
280
     0
102
RTVSPost2010PropOp33
 70
     0
102
RTVSPost2010Prop34
280
     0
102
RTVSPost2010PropOp34
 70
     0
102
RTVSPost2010Prop35
280
     0
102
RTVSPost2010PropOp35
 70
     0
102
RTVSPost2010Prop36
280
     0
102
RTVSPost2010PropOp36
 70
     0
102
RTVSPost2010Prop37
 90
       50
102
RTVSPost2010PropOp37
 70
     0
102
RTVSPost2010Prop38
140
0.0
102
RTVSPost2010PropOp38
 70
     0
102
RTVSPost2010Prop39
140
1.0
102
RTVSPost2010PropOp39
 70
     0
102
RTVSPost2010Prop40
 90
        0
102
RTVSPost2010PropOp40
 70
     0
102
RTVSPost2010Prop41ColorIndex
 90
       18
102
RTVSPost2010Prop41ColorRGB
 90
        0
102
RTVSPost2010PropOp41
 70
     0
102
RTVSPost2010Prop42
 90
       50
102
RTVSPost2010PropOp42
 70
     0
102
RTVSPost2010Prop43
 90
        3
102
RTVSPost2010PropOp43
 70
     0
102
RTVSPost2010Prop44ColorIndex
 90
        5
102
RTVSPost2010Prop44ColorRGB
 90
      255
102
RTVSPost2010PropOp44
 70
     0
102
RTVSPost2010Prop45
280
     0
102
RTVSPost2010PropOp45
 70
     0
102
RTVSPost2010Prop46
 90
       50
102
RTVSPost2010PropOp46
 70
     0
102
RTVSPost2010Prop47
 90
       50
102
RTVSPost2010PropOp47
 70
     0
102
RTVSPost2010Prop48
 90
       50
102
RTVSPost2010PropOp48
 70
     0
102
RTVSPost2010Prop49
280
     0
102
RTVSPost2010PropOp49
 70
     0
102
RTVSPost2010Prop50
 90
       50
102
RTVSPost2010PropOp50
 70
     0
102
RTVSPost2010Prop51ColorIndex
 90
      256
102
RTVSPost2010Prop51ColorRGB
 90
-16777216
102
RTVSPost2010PropOp51
 70
     0
102
RTVSPost2010Prop52
140
1.0
102
RTVSPost2010PropOp52
 70
     0
102
RTVSPost2010Prop53
 90
        2
102
RTVSPost2010PropOp53
 70
     0
102
RTVSPost2010Prop54
  1
strokes_ogs.tif
102
RTVSPost2010PropOp54
 70
     0
102
RTVSPost2010Prop55
280
     0
102
RTVSPost2010PropOp55
 70
     0
102
RTVSPost2010Prop56
140
1.0
102
RTVSPost2010PropOp56
 70
     0
102
RTVSPost2010Prop57
140
1.0
102
RTVSPost2010PropOp57
 70
     0
  0
XRECORD
  5
4E7
102
{ACAD_REACTORS
330
4E6
102
}
330
4E6
100
AcDbXrecord
280
     1
102
RTVSPropertyOp0
 70
     1
102
RTVSPropertyOp1
 70
     1
102
RTVSPropertyOp2
 70
     1
102
RTVSPropertyOp3
 70
     1
102
RTVSPropertyOp4
 70
     1
102
RTVSPropertyOp5
 70
     1
102
RTVSPropertyOp6
 70
     1
102
RTVSPropertyOp7
 70
     1
102
RTVSPropertyOp8
 70
     1
102
RTVSPropertyOp9
 70
     1
102
RTVSPropertyOp10
 70
     1
102
RTVSPropertyOp11
 70
     1
102
RTVSPropertyOp12
 70
     1
102
RTVSPropertyOp13
 70
     1
102
RTVSPropertyOp14
 70
     1
102
RTVSPropertyOp15
 70
     1
102
RTVSPropertyOp16
 70
     1
102
RTVSPropertyOp17
 70
     1
102
RTVSPropertyOp18
 70
     1
102
RTVSPropertyOp19
 70
     1
102
RTVSPropertyOp20
 70
     1
102
RTVSPropertyOp21
 70
     1
102
RTVSPropertyOp22
 70
     1
102
RTVSPropertyOp23
 70
     1
102
RTVSPropertyOp24
 70
     1
102
RTVSPropertyOp25
 70
     1
102
RTVSPropertyOp26
 70
     1
102
RTVSPropertyOp27
 70
     1
102
RTVSPropertyOp28
 70
     1
102
RTVSPropertyOp29
 70
     1
102
RTVSPropertyOp30
 70
     1
102
RTVSPropertyOp31
 70
     1
102
RTVSPropertyOp32
 70
     1
102
RTVSPropertyOp33
 70
     1
102
RTVSPropertyOp34
 70
     1
102
RTVSPropertyOp35
 70
     1
102
RTVSPropertyOp36
 70
     1
102
RTVSPropertyOp37
 70
     1
102
RTVSPropertyOp38
 70
     1
102
RTVSPropertyOp39
 70
     1
102
RTVSPropertyOp40
 70
     1
102
RTVSPropertyOp41
 70
     1
102
RTVSPropertyOp42
 70
     1
102
RTVSPropertyOp43
 70
     1
102
RTVSPropertyOp44
 70
     1
102
RTVSPropertyOp45
 70
     1
102
RTVSPropertyOp46
 70
     1
102
RTVSPropertyOp47
 70
     1
102
RTVSPropertyOp48
 70
     1
102
RTVSPropertyOp49
 70
     1
102
RTVSPropertyOp50
 70
     1
102
RTVSPropertyOp51
 70
     0
102
RTVSPropertyOp52
 70
     0
102
RTVSPropertyOp53
 70
     1
102
RTVSPropertyOp54
 70
     1
102
RTVSPropertyOp55
 70
     1
102
RTVSPropertyOp56
 70
     1
102
RTVSPropertyOp57
 70
     1
102
RTVSPost2010Prop28
280
     0
102
RTVSPost2010PropOp28
 70
     1
102
RTVSPost2010Prop29
280
     1
102
RTVSPost2010PropOp29
 70
     1
102
RTVSPost2010Prop30
280
     1
102
RTVSPost2010PropOp30
 70
     1
102
RTVSPost2010Prop31
280
     0
102
RTVSPost2010PropOp31
 70
     1
102
RTVSPost2010Prop32
280
     0
102
RTVSPost2010PropOp32
 70
     1
102
RTVSPost2010Prop33
280
     0
102
RTVSPost2010PropOp33
 70
     1
102
RTVSPost2010Prop34
280
     0
102
RTVSPost2010PropOp34
 70
     1
102
RTVSPost2010Prop35
280
     0
102
RTVSPost2010PropOp35
 70
     1
102
RTVSPost2010Prop36
280
     0
102
RTVSPost2010PropOp36
 70
     1
102
RTVSPost2010Prop37
 90
       50
102
RTVSPost2010PropOp37
 70
     1
102
RTVSPost2010Prop38
140
0.0
102
RTVSPost2010PropOp38
 70
     1
102
RTVSPost2010Prop39
140
1.0
102
RTVSPost2010PropOp39
 70
     1
102
RTVSPost2010Prop40
 90
        0
102
RTVSPost2010PropOp40
 70
     1
102
RTVSPost2010Prop41ColorIndex
 90
       18
102
RTVSPost2010Prop41ColorRGB
 90
        0
102
RTVSPost2010PropOp41
 70
     1
102
RTVSPost2010Prop42
 90
       50
102
RTVSPost2010PropOp42
 70
     1
102
RTVSPost2010Prop43
 90
        3
102
RTVSPost2010PropOp43
 70
     1
102
RTVSPost2010Prop44ColorIndex
 90
        5
102
RTVSPost2010Prop44ColorRGB
 90
      255
102
RTVSPost2010PropOp44
 70
     1
102
RTVSPost2010Prop45
280
     0
102
RTVSPost2010PropOp45
 70
     1
102
RTVSPost2010Prop46
 90
       50
102
RTVSPost2010PropOp46
 70
     1
102
RTVSPost2010Prop47
 90
       50
102
RTVSPost2010PropOp47
 70
     1
102
RTVSPost2010Prop48
 90
       50
102
RTVSPost2010PropOp48
 70
     1
102
RTVSPost2010Prop49
280
     0
102
RTVSPost2010PropOp49
 70
     1
102
RTVSPost2010Prop50
 90
       50
102
RTVSPost2010PropOp50
 70
     1
102
RTVSPost2010Prop51ColorIndex
 90
      256
102
RTVSPost2010Prop51ColorRGB
 90
-16777216
102
RTVSPost2010PropOp51
 70
     0
102
RTVSPost2010Prop52
140
1.0
102
RTVSPost2010PropOp52
 70
     0
102
RTVSPost2010Prop53
 90
        2
102
RTVSPost2010PropOp53
 70
     1
102
RTVSPost2010Prop54
  1
strokes_ogs.tif
102
RTVSPost2010PropOp54
 70
     1
102
RTVSPost2010Prop55
280
     0
102
RTVSPost2010PropOp55
 70
     1
102
RTVSPost2010Prop56
140
1.0
102
RTVSPost2010PropOp56
 70
     1
102
RTVSPost2010Prop57
140
1.0
102
RTVSPost2010PropOp57
 70
     1
  0
XRECORD
  5
4EF
102
{ACAD_REACTORS
330
4EE
102
}
330
4EE
100
AcDbXrecord
280
     1
102
RTVSPropertyOp0
 70
     0
102
RTVSPropertyOp1
 70
     0
102
RTVSPropertyOp2
 70
     0
102
RTVSPropertyOp3
 70
     0
102
RTVSPropertyOp4
 70
     0
102
RTVSPropertyOp5
 70
     0
102
RTVSPropertyOp6
 70
     0
102
RTVSPropertyOp7
 70
     0
102
RTVSPropertyOp8
 70
     0
102
RTVSPropertyOp9
 70
     0
102
RTVSPropertyOp10
 70
     0
102
RTVSPropertyOp11
 70
     0
102
RTVSPropertyOp12
 70
     0
102
RTVSPropertyOp13
 70
     0
102
RTVSPropertyOp14
 70
     2
102
RTVSPropertyOp15
 70
     0
102
RTVSPropertyOp16
 70
     0
102
RTVSPropertyOp17
 70
     0
102
RTVSPropertyOp18
 70
     0
102
RTVSPropertyOp19
 70
     0
102
RTVSPropertyOp20
 70
     0
102
RTVSPropertyOp21
 70
     0
102
RTVSPropertyOp22
 70
     0
102
RTVSPropertyOp23
 70
     0
102
RTVSPropertyOp24
 70
     0
102
RTVSPropertyOp25
 70
     0
102
RTVSPropertyOp26
 70
     0
102
RTVSPropertyOp27
 70
     0
102
RTVSPropertyOp28
 70
     0
102
RTVSPropertyOp29
 70
     0
102
RTVSPropertyOp30
 70
     0
102
RTVSPropertyOp31
 70
     0
102
RTVSPropertyOp32
 70
     0
102
RTVSPropertyOp33
 70
     0
102
RTVSPropertyOp34
 70
     0
102
RTVSPropertyOp35
 70
     0
102
RTVSPropertyOp36
 70
     0
102
RTVSPropertyOp37
 70
     0
102
RTVSPropertyOp38
 70
     0
102
RTVSPropertyOp39
 70
     0
102
RTVSPropertyOp40
 70
     0
102
RTVSPropertyOp41
 70
     0
102
RTVSPropertyOp42
 70
     0
102
RTVSPropertyOp43
 70
     0
102
RTVSPropertyOp44
 70
     0
102
RTVSPropertyOp45
 70
     0
102
RTVSPropertyOp46
 70
     0
102
RTVSPropertyOp47
 70
     0
102
RTVSPropertyOp48
 70
     0
102
RTVSPropertyOp49
 70
     0
102
RTVSPropertyOp50
 70
     0
102
RTVSPropertyOp51
 70
     0
102
RTVSPropertyOp52
 70
     0
102
RTVSPropertyOp53
 70
     0
102
RTVSPropertyOp54
 70
     0
102
RTVSPropertyOp55
 70
     0
102
RTVSPropertyOp56
 70
     0
102
RTVSPropertyOp57
 70
     0
102
RTVSPost2010Prop28
280
     0
102
RTVSPost2010PropOp28
 70
     0
102
RTVSPost2010Prop29
280
     1
102
RTVSPost2010PropOp29
 70
     0
102
RTVSPost2010Prop30
280
     1
102
RTVSPost2010PropOp30
 70
     0
102
RTVSPost2010Prop31
280
     0
102
RTVSPost2010PropOp31
 70
     0
102
RTVSPost2010Prop32
280
     0
102
RTVSPost2010PropOp32
 70
     0
102
RTVSPost2010Prop33
280
     0
102
RTVSPost2010PropOp33
 70
     0
102
RTVSPost2010Prop34
280
     0
102
RTVSPost2010PropOp34
 70
     0
102
RTVSPost2010Prop35
280
     0
102
RTVSPost2010PropOp35
 70
     0
102
RTVSPost2010Prop36
280
     0
102
RTVSPost2010PropOp36
 70
     0
102
RTVSPost2010Prop37
 90
       50
102
RTVSPost2010PropOp37
 70
     0
102
RTVSPost2010Prop38
140
0.0
102
RTVSPost2010PropOp38
 70
     0
102
RTVSPost2010Prop39
140
1.0
102
RTVSPost2010PropOp39
 70
     0
102
RTVSPost2010Prop40
 90
        0
102
RTVSPost2010PropOp40
 70
     0
102
RTVSPost2010Prop41ColorIndex
 90
       18
102
RTVSPost2010Prop41ColorRGB
 90
        0
102
RTVSPost2010PropOp41
 70
     0
102
RTVSPost2010Prop42
 90
       50
102
RTVSPost2010PropOp42
 70
     0
102
RTVSPost2010Prop43
 90
        3
102
RTVSPost2010PropOp43
 70
     0
102
RTVSPost2010Prop44ColorIndex
 90
        5
102
RTVSPost2010Prop44ColorRGB
 90
      255
102
RTVSPost2010PropOp44
 70
     0
102
RTVSPost2010Prop45
280
     0
102
RTVSPost2010PropOp45
 70
     0
102
RTVSPost2010Prop46
 90
       50
102
RTVSPost2010PropOp46
 70
     0
102
RTVSPost2010Prop47
 90
       50
102
RTVSPost2010PropOp47
 70
     0
102
RTVSPost2010Prop48
 90
       50
102
RTVSPost2010PropOp48
 70
     0
102
RTVSPost2010Prop49
280
     0
102
RTVSPost2010PropOp49
 70
     0
102
RTVSPost2010Prop50
 90
       50
102
RTVSPost2010PropOp50
 70
     0
102
RTVSPost2010Prop51ColorIndex
 90
      256
102
RTVSPost2010Prop51ColorRGB
 90
-16777216
102
RTVSPost2010PropOp51
 70
     0
102
RTVSPost2010Prop52
140
1.0
102
RTVSPost2010PropOp52
 70
     0
102
RTVSPost2010Prop53
 90
        2
102
RTVSPost2010PropOp53
 70
     0
102
RTVSPost2010Prop54
  1
strokes_ogs.tif
102
RTVSPost2010PropOp54
 70
     0
102
RTVSPost2010Prop55
280
     0
102
RTVSPost2010PropOp55
 70
     0
102
RTVSPost2010Prop56
140
1.0
102
RTVSPost2010PropOp56
 70
     0
102
RTVSPost2010Prop57
140
1.0
102
RTVSPost2010PropOp57
 70
     0
  0
XRECORD
  5
4DD
102
{ACAD_REACTORS
330
4DC
102
}
330
4DC
100
AcDbXrecord
280
     1
102
RTVSPropertyOp0
 70
     1
102
RTVSPropertyOp1
 70
     1
102
RTVSPropertyOp2
 70
     1
102
RTVSPropertyOp3
 70
     1
102
RTVSPropertyOp4
 70
     1
102
RTVSPropertyOp5
 70
     1
102
RTVSPropertyOp6
 70
     1
102
RTVSPropertyOp7
 70
     1
102
RTVSPropertyOp8
 70
     1
102
RTVSPropertyOp9
 70
     1
102
RTVSPropertyOp10
 70
     1
102
RTVSPropertyOp11
 70
     1
102
RTVSPropertyOp12
 70
     1
102
RTVSPropertyOp13
 70
     1
102
RTVSPropertyOp14
 70
     1
102
RTVSPropertyOp15
 70
     1
102
RTVSPropertyOp16
 70
     1
102
RTVSPropertyOp17
 70
     1
102
RTVSPropertyOp18
 70
     1
102
RTVSPropertyOp19
 70
     1
102
RTVSPropertyOp20
 70
     1
102
RTVSPropertyOp21
 70
     1
102
RTVSPropertyOp22
 70
     1
102
RTVSPropertyOp23
 70
     1
102
RTVSPropertyOp24
 70
     1
102
RTVSPropertyOp25
 70
     1
102
RTVSPropertyOp26
 70
     1
102
RTVSPropertyOp27
 70
     1
102
RTVSPropertyOp28
 70
     1
102
RTVSPropertyOp29
 70
     1
102
RTVSPropertyOp30
 70
     1
102
RTVSPropertyOp31
 70
     1
102
RTVSPropertyOp32
 70
     1
102
RTVSPropertyOp33
 70
     1
102
RTVSPropertyOp34
 70
     1
102
RTVSPropertyOp35
 70
     1
102
RTVSPropertyOp36
 70
     1
102
RTVSPropertyOp37
 70
     1
102
RTVSPropertyOp38
 70
     1
102
RTVSPropertyOp39
 70
     1
102
RTVSPropertyOp40
 70
     1
102
RTVSPropertyOp41
 70
     1
102
RTVSPropertyOp42
 70
     1
102
RTVSPropertyOp43
 70
     1
102
RTVSPropertyOp44
 70
     1
102
RTVSPropertyOp45
 70
     1
102
RTVSPropertyOp46
 70
     1
102
RTVSPropertyOp47
 70
     1
102
RTVSPropertyOp48
 70
     1
102
RTVSPropertyOp49
 70
     1
102
RTVSPropertyOp50
 70
     1
102
RTVSPropertyOp51
 70
     0
102
RTVSPropertyOp52
 70
     0
102
RTVSPropertyOp53
 70
     1
102
RTVSPropertyOp54
 70
     1
102
RTVSPropertyOp55
 70
     1
102
RTVSPropertyOp56
 70
     1
102
RTVSPropertyOp57
 70
     1
102
RTVSPost2010Prop28
280
     0
102
RTVSPost2010PropOp28
 70
     1
102
RTVSPost2010Prop29
280
     1
102
RTVSPost2010PropOp29
 70
     1
102
RTVSPost2010Prop30
280
     1
102
RTVSPost2010PropOp30
 70
     1
102
RTVSPost2010Prop31
280
     0
102
RTVSPost2010PropOp31
 70
     1
102
RTVSPost2010Prop32
280
     0
102
RTVSPost2010PropOp32
 70
     1
102
RTVSPost2010Prop33
280
     0
102
RTVSPost2010PropOp33
 70
     1
102
RTVSPost2010Prop34
280
     0
102
RTVSPost2010PropOp34
 70
     1
102
RTVSPost2010Prop35
280
     0
102
RTVSPost2010PropOp35
 70
     1
102
RTVSPost2010Prop36
280
     0
102
RTVSPost2010PropOp36
 70
     1
102
RTVSPost2010Prop37
 90
       50
102
RTVSPost2010PropOp37
 70
     1
102
RTVSPost2010Prop38
140
0.0
102
RTVSPost2010PropOp38
 70
     1
102
RTVSPost2010Prop39
140
1.0
102
RTVSPost2010PropOp39
 70
     1
102
RTVSPost2010Prop40
 90
        0
102
RTVSPost2010PropOp40
 70
     1
102
RTVSPost2010Prop41ColorIndex
 90
       18
102
RTVSPost2010Prop41ColorRGB
 90
        0
102
RTVSPost2010PropOp41
 70
     1
102
RTVSPost2010Prop42
 90
       50
102
RTVSPost2010PropOp42
 70
     1
102
RTVSPost2010Prop43
 90
        3
102
RTVSPost2010PropOp43
 70
     1
102
RTVSPost2010Prop44ColorIndex
 90
        5
102
RTVSPost2010Prop44ColorRGB
 90
      255
102
RTVSPost2010PropOp44
 70
     1
102
RTVSPost2010Prop45
280
     0
102
RTVSPost2010PropOp45
 70
     1
102
RTVSPost2010Prop46
 90
       50
102
RTVSPost2010PropOp46
 70
     1
102
RTVSPost2010Prop47
 90
       50
102
RTVSPost2010PropOp47
 70
     1
102
RTVSPost2010Prop48
 90
       50
102
RTVSPost2010PropOp48
 70
     1
102
RTVSPost2010Prop49
280
     0
102
RTVSPost2010PropOp49
 70
     1
102
RTVSPost2010Prop50
 90
       50
102
RTVSPost2010PropOp50
 70
     1
102
RTVSPost2010Prop51ColorIndex
 90
      256
102
RTVSPost2010Prop51ColorRGB
 90
-16777216
102
RTVSPost2010PropOp51
 70
     0
102
RTVSPost2010Prop52
140
1.0
102
RTVSPost2010PropOp52
 70
     0
102
RTVSPost2010Prop53
 90
        2
102
RTVSPost2010PropOp53
 70
     1
102
RTVSPost2010Prop54
  1
strokes_ogs.tif
102
RTVSPost2010PropOp54
 70
     1
102
RTVSPost2010Prop55
280
     0
102
RTVSPost2010PropOp55
 70
     1
102
RTVSPost2010Prop56
140
1.0
102
RTVSPost2010PropOp56
 70
     1
102
RTVSPost2010Prop57
140
1.0
102
RTVSPost2010PropOp57
 70
     1
  0
XRECORD
  5
4FB
102
{ACAD_REACTORS
330
4FA
102
}
330
4FA
100
AcDbXrecord
280
     1
102
RTVSPropertyOp0
 70
     1
102
RTVSPropertyOp1
 70
     1
102
RTVSPropertyOp2
 70
     1
102
RTVSPropertyOp3
 70
     1
102
RTVSPropertyOp4
 70
     1
102
RTVSPropertyOp5
 70
     1
102
RTVSPropertyOp6
 70
     1
102
RTVSPropertyOp7
 70
     1
102
RTVSPropertyOp8
 70
     1
102
RTVSPropertyOp9
 70
     1
102
RTVSPropertyOp10
 70
     1
102
RTVSPropertyOp11
 70
     1
102
RTVSPropertyOp12
 70
     1
102
RTVSPropertyOp13
 70
     1
102
RTVSPropertyOp14
 70
     1
102
RTVSPropertyOp15
 70
     1
102
RTVSPropertyOp16
 70
     1
102
RTVSPropertyOp17
 70
     1
102
RTVSPropertyOp18
 70
     1
102
RTVSPropertyOp19
 70
     1
102
RTVSPropertyOp20
 70
     1
102
RTVSPropertyOp21
 70
     1
102
RTVSPropertyOp22
 70
     1
102
RTVSPropertyOp23
 70
     1
102
RTVSPropertyOp24
 70
     1
102
RTVSPropertyOp25
 70
     1
102
RTVSPropertyOp26
 70
     1
102
RTVSPropertyOp27
 70
     1
102
RTVSPropertyOp28
 70
     1
102
RTVSPropertyOp29
 70
     1
102
RTVSPropertyOp30
 70
     1
102
RTVSPropertyOp31
 70
     1
102
RTVSPropertyOp32
 70
     1
102
RTVSPropertyOp33
 70
     1
102
RTVSPropertyOp34
 70
     1
102
RTVSPropertyOp35
 70
     1
102
RTVSPropertyOp36
 70
     1
102
RTVSPropertyOp37
 70
     1
102
RTVSPropertyOp38
 70
     1
102
RTVSPropertyOp39
 70
     1
102
RTVSPropertyOp40
 70
     1
102
RTVSPropertyOp41
 70
     1
102
RTVSPropertyOp42
 70
     1
102
RTVSPropertyOp43
 70
     1
102
RTVSPropertyOp44
 70
     1
102
RTVSPropertyOp45
 70
     1
102
RTVSPropertyOp46
 70
     1
102
RTVSPropertyOp47
 70
     1
102
RTVSPropertyOp48
 70
     1
102
RTVSPropertyOp49
 70
     1
102
RTVSPropertyOp50
 70
     1
102
RTVSPropertyOp51
 70
     0
102
RTVSPropertyOp52
 70
     0
102
RTVSPropertyOp53
 70
     1
102
RTVSPropertyOp54
 70
     1
102
RTVSPropertyOp55
 70
     1
102
RTVSPropertyOp56
 70
     1
102
RTVSPropertyOp57
 70
     1
102
RTVSPost2010Prop28
280
     0
102
RTVSPost2010PropOp28
 70
     1
102
RTVSPost2010Prop29
280
     1
102
RTVSPost2010PropOp29
 70
     1
102
RTVSPost2010Prop30
280
     1
102
RTVSPost2010PropOp30
 70
     1
102
RTVSPost2010Prop31
280
     0
102
RTVSPost2010PropOp31
 70
     1
102
RTVSPost2010Prop32
280
     0
102
RTVSPost2010PropOp32
 70
     1
102
RTVSPost2010Prop33
280
     0
102
RTVSPost2010PropOp33
 70
     1
102
RTVSPost2010Prop34
280
     0
102
RTVSPost2010PropOp34
 70
     1
102
RTVSPost2010Prop35
280
     0
102
RTVSPost2010PropOp35
 70
     1
102
RTVSPost2010Prop36
280
     0
102
RTVSPost2010PropOp36
 70
     1
102
RTVSPost2010Prop37
 90
       50
102
RTVSPost2010PropOp37
 70
     1
102
RTVSPost2010Prop38
140
0.0
102
RTVSPost2010PropOp38
 70
     1
102
RTVSPost2010Prop39
140
1.0
102
RTVSPost2010PropOp39
 70
     1
102
RTVSPost2010Prop40
 90
        0
102
RTVSPost2010PropOp40
 70
     1
102
RTVSPost2010Prop41ColorIndex
 90
       18
102
RTVSPost2010Prop41ColorRGB
 90
        0
102
RTVSPost2010PropOp41
 70
     1
102
RTVSPost2010Prop42
 90
       50
102
RTVSPost2010PropOp42
 70
     1
102
RTVSPost2010Prop43
 90
        3
102
RTVSPost2010PropOp43
 70
     1
102
RTVSPost2010Prop44ColorIndex
 90
        5
102
RTVSPost2010Prop44ColorRGB
 90
      255
102
RTVSPost2010PropOp44
 70
     1
102
RTVSPost2010Prop45
280
     0
102
RTVSPost2010PropOp45
 70
     1
102
RTVSPost2010Prop46
 90
       50
102
RTVSPost2010PropOp46
 70
     1
102
RTVSPost2010Prop47
 90
       50
102
RTVSPost2010PropOp47
 70
     1
102
RTVSPost2010Prop48
 90
       50
102
RTVSPost2010PropOp48
 70
     1
102
RTVSPost2010Prop49
280
     0
102
RTVSPost2010PropOp49
 70
     1
102
RTVSPost2010Prop50
 90
       50
102
RTVSPost2010PropOp50
 70
     1
102
RTVSPost2010Prop51ColorIndex
 90
      256
102
RTVSPost2010Prop51ColorRGB
 90
-16777216
102
RTVSPost2010PropOp51
 70
     0
102
RTVSPost2010Prop52
140
1.0
102
RTVSPost2010PropOp52
 70
     0
102
RTVSPost2010Prop53
 90
        2
102
RTVSPost2010PropOp53
 70
     1
102
RTVSPost2010Prop54
  1
strokes_ogs.tif
102
RTVSPost2010PropOp54
 70
     1
102
RTVSPost2010Prop55
280
     0
102
RTVSPost2010PropOp55
 70
     1
102
RTVSPost2010Prop56
140
1.0
102
RTVSPost2010PropOp56
 70
     1
102
RTVSPost2010Prop57
140
1.0
102
RTVSPost2010PropOp57
 70
     1
  0
XRECORD
  5
4F9
102
{ACAD_REACTORS
330
4F8
102
}
330
4F8
100
AcDbXrecord
280
     1
102
RTVSPropertyOp0
 70
     1
102
RTVSPropertyOp1
 70
     1
102
RTVSPropertyOp2
 70
     1
102
RTVSPropertyOp3
 70
     1
102
RTVSPropertyOp4
 70
     1
102
RTVSPropertyOp5
 70
     1
102
RTVSPropertyOp6
 70
     1
102
RTVSPropertyOp7
 70
     1
102
RTVSPropertyOp8
 70
     1
102
RTVSPropertyOp9
 70
     1
102
RTVSPropertyOp10
 70
     1
102
RTVSPropertyOp11
 70
     1
102
RTVSPropertyOp12
 70
     1
102
RTVSPropertyOp13
 70
     1
102
RTVSPropertyOp14
 70
     1
102
RTVSPropertyOp15
 70
     1
102
RTVSPropertyOp16
 70
     1
102
RTVSPropertyOp17
 70
     1
102
RTVSPropertyOp18
 70
     1
102
RTVSPropertyOp19
 70
     1
102
RTVSPropertyOp20
 70
     1
102
RTVSPropertyOp21
 70
     1
102
RTVSPropertyOp22
 70
     1
102
RTVSPropertyOp23
 70
     1
102
RTVSPropertyOp24
 70
     1
102
RTVSPropertyOp25
 70
     1
102
RTVSPropertyOp26
 70
     1
102
RTVSPropertyOp27
 70
     1
102
RTVSPropertyOp28
 70
     1
102
RTVSPropertyOp29
 70
     1
102
RTVSPropertyOp30
 70
     1
102
RTVSPropertyOp31
 70
     1
102
RTVSPropertyOp32
 70
     1
102
RTVSPropertyOp33
 70
     1
102
RTVSPropertyOp34
 70
     1
102
RTVSPropertyOp35
 70
     1
102
RTVSPropertyOp36
 70
     1
102
RTVSPropertyOp37
 70
     1
102
RTVSPropertyOp38
 70
     1
102
RTVSPropertyOp39
 70
     1
102
RTVSPropertyOp40
 70
     1
102
RTVSPropertyOp41
 70
     1
102
RTVSPropertyOp42
 70
     1
102
RTVSPropertyOp43
 70
     1
102
RTVSPropertyOp44
 70
     1
102
RTVSPropertyOp45
 70
     1
102
RTVSPropertyOp46
 70
     1
102
RTVSPropertyOp47
 70
     1
102
RTVSPropertyOp48
 70
     1
102
RTVSPropertyOp49
 70
     1
102
RTVSPropertyOp50
 70
     1
102
RTVSPropertyOp51
 70
     0
102
RTVSPropertyOp52
 70
     0
102
RTVSPropertyOp53
 70
     1
102
RTVSPropertyOp54
 70
     1
102
RTVSPropertyOp55
 70
     1
102
RTVSPropertyOp56
 70
     1
102
RTVSPropertyOp57
 70
     1
102
RTVSPost2010Prop28
280
     0
102
RTVSPost2010PropOp28
 70
     1
102
RTVSPost2010Prop29
280
     1
102
RTVSPost2010PropOp29
 70
     1
102
RTVSPost2010Prop30
280
     1
102
RTVSPost2010PropOp30
 70
     1
102
RTVSPost2010Prop31
280
     0
102
RTVSPost2010PropOp31
 70
     1
102
RTVSPost2010Prop32
280
     0
102
RTVSPost2010PropOp32
 70
     1
102
RTVSPost2010Prop33
280
     0
102
RTVSPost2010PropOp33
 70
     1
102
RTVSPost2010Prop34
280
     0
102
RTVSPost2010PropOp34
 70
     1
102
RTVSPost2010Prop35
280
     0
102
RTVSPost2010PropOp35
 70
     1
102
RTVSPost2010Prop36
280
     0
102
RTVSPost2010PropOp36
 70
     1
102
RTVSPost2010Prop37
 90
       50
102
RTVSPost2010PropOp37
 70
     1
102
RTVSPost2010Prop38
140
0.0
102
RTVSPost2010PropOp38
 70
     1
102
RTVSPost2010Prop39
140
1.0
102
RTVSPost2010PropOp39
 70
     1
102
RTVSPost2010Prop40
 90
        0
102
RTVSPost2010PropOp40
 70
     1
102
RTVSPost2010Prop41ColorIndex
 90
       18
102
RTVSPost2010Prop41ColorRGB
 90
        0
102
RTVSPost2010PropOp41
 70
     1
102
RTVSPost2010Prop42
 90
       50
102
RTVSPost2010PropOp42
 70
     1
102
RTVSPost2010Prop43
 90
        3
102
RTVSPost2010PropOp43
 70
     1
102
RTVSPost2010Prop44ColorIndex
 90
        5
102
RTVSPost2010Prop44ColorRGB
 90
      255
102
RTVSPost2010PropOp44
 70
     1
102
RTVSPost2010Prop45
280
     0
102
RTVSPost2010PropOp45
 70
     1
102
RTVSPost2010Prop46
 90
       50
102
RTVSPost2010PropOp46
 70
     1
102
RTVSPost2010Prop47
 90
       50
102
RTVSPost2010PropOp47
 70
     1
102
RTVSPost2010Prop48
 90
       50
102
RTVSPost2010PropOp48
 70
     1
102
RTVSPost2010Prop49
280
     0
102
RTVSPost2010PropOp49
 70
     1
102
RTVSPost2010Prop50
 90
       50
102
RTVSPost2010PropOp50
 70
     1
102
RTVSPost2010Prop51ColorIndex
 90
      256
102
RTVSPost2010Prop51ColorRGB
 90
-16777216
102
RTVSPost2010PropOp51
 70
     0
102
RTVSPost2010Prop52
140
1.0
102
RTVSPost2010PropOp52
 70
     0
102
RTVSPost2010Prop53
 90
        2
102
RTVSPost2010PropOp53
 70
     1
102
RTVSPost2010Prop54
  1
strokes_ogs.tif
102
RTVSPost2010PropOp54
 70
     1
102
RTVSPost2010Prop55
280
     0
102
RTVSPost2010PropOp55
 70
     1
102
RTVSPost2010Prop56
140
1.0
102
RTVSPost2010PropOp56
 70
     1
102
RTVSPost2010Prop57
140
1.0
102
RTVSPost2010PropOp57
 70
     1
  0
XRECORD
  5
4F3
102
{ACAD_REACTORS
330
4F2
102
}
330
4F2
100
AcDbXrecord
280
     1
102
RTVSPropertyOp0
 70
     1
102
RTVSPropertyOp1
 70
     1
102
RTVSPropertyOp2
 70
     1
102
RTVSPropertyOp3
 70
     1
102
RTVSPropertyOp4
 70
     1
102
RTVSPropertyOp5
 70
     1
102
RTVSPropertyOp6
 70
     1
102
RTVSPropertyOp7
 70
     1
102
RTVSPropertyOp8
 70
     1
102
RTVSPropertyOp9
 70
     1
102
RTVSPropertyOp10
 70
     1
102
RTVSPropertyOp11
 70
     1
102
RTVSPropertyOp12
 70
     1
102
RTVSPropertyOp13
 70
     1
102
RTVSPropertyOp14
 70
     1
102
RTVSPropertyOp15
 70
     1
102
RTVSPropertyOp16
 70
     1
102
RTVSPropertyOp17
 70
     1
102
RTVSPropertyOp18
 70
     1
102
RTVSPropertyOp19
 70
     1
102
RTVSPropertyOp20
 70
     1
102
RTVSPropertyOp21
 70
     1
102
RTVSPropertyOp22
 70
     1
102
RTVSPropertyOp23
 70
     1
102
RTVSPropertyOp24
 70
     1
102
RTVSPropertyOp25
 70
     1
102
RTVSPropertyOp26
 70
     1
102
RTVSPropertyOp27
 70
     1
102
RTVSPropertyOp28
 70
     1
102
RTVSPropertyOp29
 70
     1
102
RTVSPropertyOp30
 70
     1
102
RTVSPropertyOp31
 70
     1
102
RTVSPropertyOp32
 70
     1
102
RTVSPropertyOp33
 70
     1
102
RTVSPropertyOp34
 70
     1
102
RTVSPropertyOp35
 70
     1
102
RTVSPropertyOp36
 70
     1
102
RTVSPropertyOp37
 70
     1
102
RTVSPropertyOp38
 70
     1
102
RTVSPropertyOp39
 70
     1
102
RTVSPropertyOp40
 70
     1
102
RTVSPropertyOp41
 70
     1
102
RTVSPropertyOp42
 70
     1
102
RTVSPropertyOp43
 70
     1
102
RTVSPropertyOp44
 70
     1
102
RTVSPropertyOp45
 70
     1
102
RTVSPropertyOp46
 70
     1
102
RTVSPropertyOp47
 70
     1
102
RTVSPropertyOp48
 70
     1
102
RTVSPropertyOp49
 70
     1
102
RTVSPropertyOp50
 70
     1
102
RTVSPropertyOp51
 70
     0
102
RTVSPropertyOp52
 70
     0
102
RTVSPropertyOp53
 70
     1
102
RTVSPropertyOp54
 70
     1
102
RTVSPropertyOp55
 70
     1
102
RTVSPropertyOp56
 70
     1
102
RTVSPropertyOp57
 70
     1
102
RTVSPost2010Prop28
280
     0
102
RTVSPost2010PropOp28
 70
     1
102
RTVSPost2010Prop29
280
     1
102
RTVSPost2010PropOp29
 70
     1
102
RTVSPost2010Prop30
280
     1
102
RTVSPost2010PropOp30
 70
     1
102
RTVSPost2010Prop31
280
     0
102
RTVSPost2010PropOp31
 70
     1
102
RTVSPost2010Prop32
280
     0
102
RTVSPost2010PropOp32
 70
     1
102
RTVSPost2010Prop33
280
     0
102
RTVSPost2010PropOp33
 70
     1
102
RTVSPost2010Prop34
280
     0
102
RTVSPost2010PropOp34
 70
     1
102
RTVSPost2010Prop35
280
     0
102
RTVSPost2010PropOp35
 70
     1
102
RTVSPost2010Prop36
280
     0
102
RTVSPost2010PropOp36
 70
     1
102
RTVSPost2010Prop37
 90
       50
102
RTVSPost2010PropOp37
 70
     1
102
RTVSPost2010Prop38
140
0.0
102
RTVSPost2010PropOp38
 70
     1
102
RTVSPost2010Prop39
140
1.0
102
RTVSPost2010PropOp39
 70
     1
102
RTVSPost2010Prop40
 90
        0
102
RTVSPost2010PropOp40
 70
     1
102
RTVSPost2010Prop41ColorIndex
 90
       18
102
RTVSPost2010Prop41ColorRGB
 90
        0
102
RTVSPost2010PropOp41
 70
     1
102
RTVSPost2010Prop42
 90
       50
102
RTVSPost2010PropOp42
 70
     1
102
RTVSPost2010Prop43
 90
        3
102
RTVSPost2010PropOp43
 70
     1
102
RTVSPost2010Prop44ColorIndex
 90
        5
102
RTVSPost2010Prop44ColorRGB
 90
      255
102
RTVSPost2010PropOp44
 70
     1
102
RTVSPost2010Prop45
280
     0
102
RTVSPost2010PropOp45
 70
     1
102
RTVSPost2010Prop46
 90
       50
102
RTVSPost2010PropOp46
 70
     1
102
RTVSPost2010Prop47
 90
       50
102
RTVSPost2010PropOp47
 70
     1
102
RTVSPost2010Prop48
 90
       50
102
RTVSPost2010PropOp48
 70
     1
102
RTVSPost2010Prop49
280
     0
102
RTVSPost2010PropOp49
 70
     1
102
RTVSPost2010Prop50
 90
       50
102
RTVSPost2010PropOp50
 70
     1
102
RTVSPost2010Prop51ColorIndex
 90
      256
102
RTVSPost2010Prop51ColorRGB
 90
-16777216
102
RTVSPost2010PropOp51
 70
     0
102
RTVSPost2010Prop52
140
1.0
102
RTVSPost2010PropOp52
 70
     0
102
RTVSPost2010Prop53
 90
        2
102
RTVSPost2010PropOp53
 70
     1
102
RTVSPost2010Prop54
  1
strokes_ogs.tif
102
RTVSPost2010PropOp54
 70
     1
102
RTVSPost2010Prop55
280
     0
102
RTVSPost2010PropOp55
 70
     1
102
RTVSPost2010Prop56
140
1.0
102
RTVSPost2010PropOp56
 70
     1
102
RTVSPost2010Prop57
140
1.0
102
RTVSPost2010PropOp57
 70
     1
  0
XRECORD
  5
4F5
102
{ACAD_REACTORS
330
4F4
102
}
330
4F4
100
AcDbXrecord
280
     1
102
RTVSPropertyOp0
 70
     1
102
RTVSPropertyOp1
 70
     1
102
RTVSPropertyOp2
 70
     1
102
RTVSPropertyOp3
 70
     1
102
RTVSPropertyOp4
 70
     1
102
RTVSPropertyOp5
 70
     1
102
RTVSPropertyOp6
 70
     1
102
RTVSPropertyOp7
 70
     1
102
RTVSPropertyOp8
 70
     1
102
RTVSPropertyOp9
 70
     1
102
RTVSPropertyOp10
 70
     1
102
RTVSPropertyOp11
 70
     1
102
RTVSPropertyOp12
 70
     1
102
RTVSPropertyOp13
 70
     1
102
RTVSPropertyOp14
 70
     1
102
RTVSPropertyOp15
 70
     1
102
RTVSPropertyOp16
 70
     1
102
RTVSPropertyOp17
 70
     1
102
RTVSPropertyOp18
 70
     1
102
RTVSPropertyOp19
 70
     1
102
RTVSPropertyOp20
 70
     1
102
RTVSPropertyOp21
 70
     1
102
RTVSPropertyOp22
 70
     1
102
RTVSPropertyOp23
 70
     1
102
RTVSPropertyOp24
 70
     1
102
RTVSPropertyOp25
 70
     1
102
RTVSPropertyOp26
 70
     1
102
RTVSPropertyOp27
 70
     1
102
RTVSPropertyOp28
 70
     1
102
RTVSPropertyOp29
 70
     1
102
RTVSPropertyOp30
 70
     1
102
RTVSPropertyOp31
 70
     1
102
RTVSPropertyOp32
 70
     1
102
RTVSPropertyOp33
 70
     1
102
RTVSPropertyOp34
 70
     1
102
RTVSPropertyOp35
 70
     1
102
RTVSPropertyOp36
 70
     1
102
RTVSPropertyOp37
 70
     1
102
RTVSPropertyOp38
 70
     1
102
RTVSPropertyOp39
 70
     1
102
RTVSPropertyOp40
 70
     1
102
RTVSPropertyOp41
 70
     1
102
RTVSPropertyOp42
 70
     1
102
RTVSPropertyOp43
 70
     1
102
RTVSPropertyOp44
 70
     1
102
RTVSPropertyOp45
 70
     1
102
RTVSPropertyOp46
 70
     1
102
RTVSPropertyOp47
 70
     1
102
RTVSPropertyOp48
 70
     1
102
RTVSPropertyOp49
 70
     1
102
RTVSPropertyOp50
 70
     1
102
RTVSPropertyOp51
 70
     0
102
RTVSPropertyOp52
 70
     0
102
RTVSPropertyOp53
 70
     1
102
RTVSPropertyOp54
 70
     1
102
RTVSPropertyOp55
 70
     1
102
RTVSPropertyOp56
 70
     1
102
RTVSPropertyOp57
 70
     1
102
RTVSPost2010Prop28
280
     0
102
RTVSPost2010PropOp28
 70
     1
102
RTVSPost2010Prop29
280
     1
102
RTVSPost2010PropOp29
 70
     1
102
RTVSPost2010Prop30
280
     1
102
RTVSPost2010PropOp30
 70
     1
102
RTVSPost2010Prop31
280
     0
102
RTVSPost2010PropOp31
 70
     1
102
RTVSPost2010Prop32
280
     0
102
RTVSPost2010PropOp32
 70
     1
102
RTVSPost2010Prop33
280
     0
102
RTVSPost2010PropOp33
 70
     1
102
RTVSPost2010Prop34
280
     0
102
RTVSPost2010PropOp34
 70
     1
102
RTVSPost2010Prop35
280
     0
102
RTVSPost2010PropOp35
 70
     1
102
RTVSPost2010Prop36
280
     0
102
RTVSPost2010PropOp36
 70
     1
102
RTVSPost2010Prop37
 90
       50
102
RTVSPost2010PropOp37
 70
     1
102
RTVSPost2010Prop38
140
0.0
102
RTVSPost2010PropOp38
 70
     1
102
RTVSPost2010Prop39
140
1.0
102
RTVSPost2010PropOp39
 70
     1
102
RTVSPost2010Prop40
 90
        0
102
RTVSPost2010PropOp40
 70
     1
102
RTVSPost2010Prop41ColorIndex
 90
       18
102
RTVSPost2010Prop41ColorRGB
 90
        0
102
RTVSPost2010PropOp41
 70
     1
102
RTVSPost2010Prop42
 90
       50
102
RTVSPost2010PropOp42
 70
     1
102
RTVSPost2010Prop43
 90
        3
102
RTVSPost2010PropOp43
 70
     1
102
RTVSPost2010Prop44ColorIndex
 90
        5
102
RTVSPost2010Prop44ColorRGB
 90
      255
102
RTVSPost2010PropOp44
 70
     1
102
RTVSPost2010Prop45
280
     0
102
RTVSPost2010PropOp45
 70
     1
102
RTVSPost2010Prop46
 90
       50
102
RTVSPost2010PropOp46
 70
     1
102
RTVSPost2010Prop47
 90
       50
102
RTVSPost2010PropOp47
 70
     1
102
RTVSPost2010Prop48
 90
       50
102
RTVSPost2010PropOp48
 70
     1
102
RTVSPost2010Prop49
280
     0
102
RTVSPost2010PropOp49
 70
     1
102
RTVSPost2010Prop50
 90
       50
102
RTVSPost2010PropOp50
 70
     1
102
RTVSPost2010Prop51ColorIndex
 90
      256
102
RTVSPost2010Prop51ColorRGB
 90
-16777216
102
RTVSPost2010PropOp51
 70
     0
102
RTVSPost2010Prop52
140
1.0
102
RTVSPost2010PropOp52
 70
     0
102
RTVSPost2010Prop53
 90
        2
102
RTVSPost2010PropOp53
 70
     1
102
RTVSPost2010Prop54
  1
strokes_ogs.tif
102
RTVSPost2010PropOp54
 70
     1
102
RTVSPost2010Prop55
280
     0
102
RTVSPost2010PropOp55
 70
     1
102
RTVSPost2010Prop56
140
1.0
102
RTVSPost2010PropOp56
 70
     1
102
RTVSPost2010Prop57
140
1.0
102
RTVSPost2010PropOp57
 70
     1
  0
XRECORD
  5
4E5
102
{ACAD_REACTORS
330
4E4
102
}
330
4E4
100
AcDbXrecord
280
     1
102
RTVSPropertyOp0
 70
     1
102
RTVSPropertyOp1
 70
     1
102
RTVSPropertyOp2
 70
     1
102
RTVSPropertyOp3
 70
     1
102
RTVSPropertyOp4
 70
     1
102
RTVSPropertyOp5
 70
     1
102
RTVSPropertyOp6
 70
     1
102
RTVSPropertyOp7
 70
     1
102
RTVSPropertyOp8
 70
     1
102
RTVSPropertyOp9
 70
     1
102
RTVSPropertyOp10
 70
     1
102
RTVSPropertyOp11
 70
     1
102
RTVSPropertyOp12
 70
     1
102
RTVSPropertyOp13
 70
     1
102
RTVSPropertyOp14
 70
     1
102
RTVSPropertyOp15
 70
     1
102
RTVSPropertyOp16
 70
     1
102
RTVSPropertyOp17
 70
     1
102
RTVSPropertyOp18
 70
     1
102
RTVSPropertyOp19
 70
     1
102
RTVSPropertyOp20
 70
     1
102
RTVSPropertyOp21
 70
     1
102
RTVSPropertyOp22
 70
     1
102
RTVSPropertyOp23
 70
     1
102
RTVSPropertyOp24
 70
     1
102
RTVSPropertyOp25
 70
     1
102
RTVSPropertyOp26
 70
     1
102
RTVSPropertyOp27
 70
     1
102
RTVSPropertyOp28
 70
     1
102
RTVSPropertyOp29
 70
     1
102
RTVSPropertyOp30
 70
     1
102
RTVSPropertyOp31
 70
     1
102
RTVSPropertyOp32
 70
     1
102
RTVSPropertyOp33
 70
     1
102
RTVSPropertyOp34
 70
     1
102
RTVSPropertyOp35
 70
     1
102
RTVSPropertyOp36
 70
     1
102
RTVSPropertyOp37
 70
     1
102
RTVSPropertyOp38
 70
     1
102
RTVSPropertyOp39
 70
     1
102
RTVSPropertyOp40
 70
     1
102
RTVSPropertyOp41
 70
     1
102
RTVSPropertyOp42
 70
     1
102
RTVSPropertyOp43
 70
     1
102
RTVSPropertyOp44
 70
     1
102
RTVSPropertyOp45
 70
     1
102
RTVSPropertyOp46
 70
     1
102
RTVSPropertyOp47
 70
     1
102
RTVSPropertyOp48
 70
     1
102
RTVSPropertyOp49
 70
     1
102
RTVSPropertyOp50
 70
     1
102
RTVSPropertyOp51
 70
     0
102
RTVSPropertyOp52
 70
     0
102
RTVSPropertyOp53
 70
     1
102
RTVSPropertyOp54
 70
     1
102
RTVSPropertyOp55
 70
     1
102
RTVSPropertyOp56
 70
     1
102
RTVSPropertyOp57
 70
     1
102
RTVSPost2010Prop28
280
     0
102
RTVSPost2010PropOp28
 70
     1
102
RTVSPost2010Prop29
280
     1
102
RTVSPost2010PropOp29
 70
     1
102
RTVSPost2010Prop30
280
     1
102
RTVSPost2010PropOp30
 70
     1
102
RTVSPost2010Prop31
280
     0
102
RTVSPost2010PropOp31
 70
     1
102
RTVSPost2010Prop32
280
     0
102
RTVSPost2010PropOp32
 70
     1
102
RTVSPost2010Prop33
280
     0
102
RTVSPost2010PropOp33
 70
     1
102
RTVSPost2010Prop34
280
     0
102
RTVSPost2010PropOp34
 70
     1
102
RTVSPost2010Prop35
280
     0
102
RTVSPost2010PropOp35
 70
     1
102
RTVSPost2010Prop36
280
     0
102
RTVSPost2010PropOp36
 70
     1
102
RTVSPost2010Prop37
 90
       50
102
RTVSPost2010PropOp37
 70
     1
102
RTVSPost2010Prop38
140
0.0
102
RTVSPost2010PropOp38
 70
     1
102
RTVSPost2010Prop39
140
1.0
102
RTVSPost2010PropOp39
 70
     1
102
RTVSPost2010Prop40
 90
        0
102
RTVSPost2010PropOp40
 70
     1
102
RTVSPost2010Prop41ColorIndex
 90
       18
102
RTVSPost2010Prop41ColorRGB
 90
        0
102
RTVSPost2010PropOp41
 70
     1
102
RTVSPost2010Prop42
 90
       50
102
RTVSPost2010PropOp42
 70
     1
102
RTVSPost2010Prop43
 90
        3
102
RTVSPost2010PropOp43
 70
     1
102
RTVSPost2010Prop44ColorIndex
 90
        5
102
RTVSPost2010Prop44ColorRGB
 90
      255
102
RTVSPost2010PropOp44
 70
     1
102
RTVSPost2010Prop45
280
     0
102
RTVSPost2010PropOp45
 70
     1
102
RTVSPost2010Prop46
 90
       50
102
RTVSPost2010PropOp46
 70
     1
102
RTVSPost2010Prop47
 90
       50
102
RTVSPost2010PropOp47
 70
     1
102
RTVSPost2010Prop48
 90
       50
102
RTVSPost2010PropOp48
 70
     1
102
RTVSPost2010Prop49
280
     0
102
RTVSPost2010PropOp49
 70
     1
102
RTVSPost2010Prop50
 90
       50
102
RTVSPost2010PropOp50
 70
     1
102
RTVSPost2010Prop51ColorIndex
 90
      256
102
RTVSPost2010Prop51ColorRGB
 90
-16777216
102
RTVSPost2010PropOp51
 70
     0
102
RTVSPost2010Prop52
140
1.0
102
RTVSPost2010PropOp52
 70
     0
102
RTVSPost2010Prop53
 90
        2
102
RTVSPost2010PropOp53
 70
     1
102
RTVSPost2010Prop54
  1
strokes_ogs.tif
102
RTVSPost2010PropOp54
 70
     1
102
RTVSPost2010Prop55
280
     0
102
RTVSPost2010PropOp55
 70
     1
102
RTVSPost2010Prop56
140
1.0
102
RTVSPost2010PropOp56
 70
     1
102
RTVSPost2010Prop57
140
1.0
102
RTVSPost2010PropOp57
 70
     1
  0
XRECORD
  5
4D7
102
{ACAD_REACTORS
330
4D6
102
}
330
4D6
100
AcDbXrecord
280
     1
102
RTVSPropertyOp0
 70
     1
102
RTVSPropertyOp1
 70
     1
102
RTVSPropertyOp2
 70
     1
102
RTVSPropertyOp3
 70
     1
102
RTVSPropertyOp4
 70
     1
102
RTVSPropertyOp5
 70
     1
102
RTVSPropertyOp6
 70
     1
102
RTVSPropertyOp7
 70
     1
102
RTVSPropertyOp8
 70
     1
102
RTVSPropertyOp9
 70
     1
102
RTVSPropertyOp10
 70
     1
102
RTVSPropertyOp11
 70
     1
102
RTVSPropertyOp12
 70
     1
102
RTVSPropertyOp13
 70
     1
102
RTVSPropertyOp14
 70
     1
102
RTVSPropertyOp15
 70
     1
102
RTVSPropertyOp16
 70
     1
102
RTVSPropertyOp17
 70
     1
102
RTVSPropertyOp18
 70
     1
102
RTVSPropertyOp19
 70
     1
102
RTVSPropertyOp20
 70
     1
102
RTVSPropertyOp21
 70
     1
102
RTVSPropertyOp22
 70
     1
102
RTVSPropertyOp23
 70
     1
102
RTVSPropertyOp24
 70
     1
102
RTVSPropertyOp25
 70
     1
102
RTVSPropertyOp26
 70
     1
102
RTVSPropertyOp27
 70
     1
102
RTVSPropertyOp28
 70
     1
102
RTVSPropertyOp29
 70
     1
102
RTVSPropertyOp30
 70
     1
102
RTVSPropertyOp31
 70
     1
102
RTVSPropertyOp32
 70
     1
102
RTVSPropertyOp33
 70
     1
102
RTVSPropertyOp34
 70
     1
102
RTVSPropertyOp35
 70
     1
102
RTVSPropertyOp36
 70
     1
102
RTVSPropertyOp37
 70
     1
102
RTVSPropertyOp38
 70
     1
102
RTVSPropertyOp39
 70
     1
102
RTVSPropertyOp40
 70
     1
102
RTVSPropertyOp41
 70
     1
102
RTVSPropertyOp42
 70
     1
102
RTVSPropertyOp43
 70
     1
102
RTVSPropertyOp44
 70
     1
102
RTVSPropertyOp45
 70
     1
102
RTVSPropertyOp46
 70
     1
102
RTVSPropertyOp47
 70
     1
102
RTVSPropertyOp48
 70
     1
102
RTVSPropertyOp49
 70
     1
102
RTVSPropertyOp50
 70
     1
102
RTVSPropertyOp51
 70
     0
102
RTVSPropertyOp52
 70
     0
102
RTVSPropertyOp53
 70
     1
102
RTVSPropertyOp54
 70
     1
102
RTVSPropertyOp55
 70
     1
102
RTVSPropertyOp56
 70
     1
102
RTVSPropertyOp57
 70
     1
102
RTVSPost2010Prop28
280
     0
102
RTVSPost2010PropOp28
 70
     1
102
RTVSPost2010Prop29
280
     1
102
RTVSPost2010PropOp29
 70
     1
102
RTVSPost2010Prop30
280
     1
102
RTVSPost2010PropOp30
 70
     1
102
RTVSPost2010Prop31
280
     0
102
RTVSPost2010PropOp31
 70
     1
102
RTVSPost2010Prop32
280
     0
102
RTVSPost2010PropOp32
 70
     1
102
RTVSPost2010Prop33
280
     0
102
RTVSPost2010PropOp33
 70
     1
102
RTVSPost2010Prop34
280
     0
102
RTVSPost2010PropOp34
 70
     1
102
RTVSPost2010Prop35
280
     0
102
RTVSPost2010PropOp35
 70
     1
102
RTVSPost2010Prop36
280
     0
102
RTVSPost2010PropOp36
 70
     1
102
RTVSPost2010Prop37
 90
       50
102
RTVSPost2010PropOp37
 70
     1
102
RTVSPost2010Prop38
140
0.0
102
RTVSPost2010PropOp38
 70
     1
102
RTVSPost2010Prop39
140
1.0
102
RTVSPost2010PropOp39
 70
     1
102
RTVSPost2010Prop40
 90
        0
102
RTVSPost2010PropOp40
 70
     1
102
RTVSPost2010Prop41ColorIndex
 90
       18
102
RTVSPost2010Prop41ColorRGB
 90
        0
102
RTVSPost2010PropOp41
 70
     1
102
RTVSPost2010Prop42
 90
       50
102
RTVSPost2010PropOp42
 70
     1
102
RTVSPost2010Prop43
 90
        3
102
RTVSPost2010PropOp43
 70
     1
102
RTVSPost2010Prop44ColorIndex
 90
        5
102
RTVSPost2010Prop44ColorRGB
 90
      255
102
RTVSPost2010PropOp44
 70
     1
102
RTVSPost2010Prop45
280
     0
102
RTVSPost2010PropOp45
 70
     1
102
RTVSPost2010Prop46
 90
       50
102
RTVSPost2010PropOp46
 70
     1
102
RTVSPost2010Prop47
 90
       50
102
RTVSPost2010PropOp47
 70
     1
102
RTVSPost2010Prop48
 90
       50
102
RTVSPost2010PropOp48
 70
     1
102
RTVSPost2010Prop49
280
     0
102
RTVSPost2010PropOp49
 70
     1
102
RTVSPost2010Prop50
 90
       50
102
RTVSPost2010PropOp50
 70
     1
102
RTVSPost2010Prop51ColorIndex
 90
      256
102
RTVSPost2010Prop51ColorRGB
 90
-16777216
102
RTVSPost2010PropOp51
 70
     0
102
RTVSPost2010Prop52
140
1.0
102
RTVSPost2010PropOp52
 70
     0
102
RTVSPost2010Prop53
 90
        2
102
RTVSPost2010PropOp53
 70
     1
102
RTVSPost2010Prop54
  1
strokes_ogs.tif
102
RTVSPost2010PropOp54
 70
     1
102
RTVSPost2010Prop55
280
     0
102
RTVSPost2010PropOp55
 70
     1
102
RTVSPost2010Prop56
140
1.0
102
RTVSPost2010PropOp56
 70
     1
102
RTVSPost2010Prop57
140
1.0
102
RTVSPost2010PropOp57
 70
     1
  0
XRECORD
  5
4F7
102
{ACAD_REACTORS
330
4F6
102
}
330
4F6
100
AcDbXrecord
280
     1
102
RTVSPropertyOp0
 70
     1
102
RTVSPropertyOp1
 70
     1
102
RTVSPropertyOp2
 70
     1
102
RTVSPropertyOp3
 70
     1
102
RTVSPropertyOp4
 70
     1
102
RTVSPropertyOp5
 70
     1
102
RTVSPropertyOp6
 70
     1
102
RTVSPropertyOp7
 70
     1
102
RTVSPropertyOp8
 70
     1
102
RTVSPropertyOp9
 70
     1
102
RTVSPropertyOp10
 70
     1
102
RTVSPropertyOp11
 70
     1
102
RTVSPropertyOp12
 70
     1
102
RTVSPropertyOp13
 70
     1
102
RTVSPropertyOp14
 70
     1
102
RTVSPropertyOp15
 70
     1
102
RTVSPropertyOp16
 70
     1
102
RTVSPropertyOp17
 70
     1
102
RTVSPropertyOp18
 70
     1
102
RTVSPropertyOp19
 70
     1
102
RTVSPropertyOp20
 70
     1
102
RTVSPropertyOp21
 70
     1
102
RTVSPropertyOp22
 70
     1
102
RTVSPropertyOp23
 70
     1
102
RTVSPropertyOp24
 70
     1
102
RTVSPropertyOp25
 70
     1
102
RTVSPropertyOp26
 70
     1
102
RTVSPropertyOp27
 70
     1
102
RTVSPropertyOp28
 70
     1
102
RTVSPropertyOp29
 70
     1
102
RTVSPropertyOp30
 70
     1
102
RTVSPropertyOp31
 70
     1
102
RTVSPropertyOp32
 70
     1
102
RTVSPropertyOp33
 70
     1
102
RTVSPropertyOp34
 70
     1
102
RTVSPropertyOp35
 70
     1
102
RTVSPropertyOp36
 70
     1
102
RTVSPropertyOp37
 70
     1
102
RTVSPropertyOp38
 70
     1
102
RTVSPropertyOp39
 70
     1
102
RTVSPropertyOp40
 70
     1
102
RTVSPropertyOp41
 70
     1
102
RTVSPropertyOp42
 70
     1
102
RTVSPropertyOp43
 70
     1
102
RTVSPropertyOp44
 70
     1
102
RTVSPropertyOp45
 70
     1
102
RTVSPropertyOp46
 70
     1
102
RTVSPropertyOp47
 70
     1
102
RTVSPropertyOp48
 70
     1
102
RTVSPropertyOp49
 70
     1
102
RTVSPropertyOp50
 70
     1
102
RTVSPropertyOp51
 70
     0
102
RTVSPropertyOp52
 70
     0
102
RTVSPropertyOp53
 70
     1
102
RTVSPropertyOp54
 70
     1
102
RTVSPropertyOp55
 70
     1
102
RTVSPropertyOp56
 70
     1
102
RTVSPropertyOp57
 70
     1
102
RTVSPost2010Prop28
280
     0
102
RTVSPost2010PropOp28
 70
     1
102
RTVSPost2010Prop29
280
     1
102
RTVSPost2010PropOp29
 70
     1
102
RTVSPost2010Prop30
280
     1
102
RTVSPost2010PropOp30
 70
     1
102
RTVSPost2010Prop31
280
     0
102
RTVSPost2010PropOp31
 70
     1
102
RTVSPost2010Prop32
280
     0
102
RTVSPost2010PropOp32
 70
     1
102
RTVSPost2010Prop33
280
     0
102
RTVSPost2010PropOp33
 70
     1
102
RTVSPost2010Prop34
280
     0
102
RTVSPost2010PropOp34
 70
     1
102
RTVSPost2010Prop35
280
     0
102
RTVSPost2010PropOp35
 70
     1
102
RTVSPost2010Prop36
280
     0
102
RTVSPost2010PropOp36
 70
     1
102
RTVSPost2010Prop37
 90
       50
102
RTVSPost2010PropOp37
 70
     1
102
RTVSPost2010Prop38
140
0.0
102
RTVSPost2010PropOp38
 70
     1
102
RTVSPost2010Prop39
140
1.0
102
RTVSPost2010PropOp39
 70
     1
102
RTVSPost2010Prop40
 90
        0
102
RTVSPost2010PropOp40
 70
     1
102
RTVSPost2010Prop41ColorIndex
 90
       18
102
RTVSPost2010Prop41ColorRGB
 90
        0
102
RTVSPost2010PropOp41
 70
     1
102
RTVSPost2010Prop42
 90
       50
102
RTVSPost2010PropOp42
 70
     1
102
RTVSPost2010Prop43
 90
        3
102
RTVSPost2010PropOp43
 70
     1
102
RTVSPost2010Prop44ColorIndex
 90
        5
102
RTVSPost2010Prop44ColorRGB
 90
      255
102
RTVSPost2010PropOp44
 70
     1
102
RTVSPost2010Prop45
280
     0
102
RTVSPost2010PropOp45
 70
     1
102
RTVSPost2010Prop46
 90
       50
102
RTVSPost2010PropOp46
 70
     1
102
RTVSPost2010Prop47
 90
       50
102
RTVSPost2010PropOp47
 70
     1
102
RTVSPost2010Prop48
 90
       50
102
RTVSPost2010PropOp48
 70
     1
102
RTVSPost2010Prop49
280
     0
102
RTVSPost2010PropOp49
 70
     1
102
RTVSPost2010Prop50
 90
       50
102
RTVSPost2010PropOp50
 70
     1
102
RTVSPost2010Prop51ColorIndex
 90
      256
102
RTVSPost2010Prop51ColorRGB
 90
-16777216
102
RTVSPost2010PropOp51
 70
     0
102
RTVSPost2010Prop52
140
1.0
102
RTVSPost2010PropOp52
 70
     0
102
RTVSPost2010Prop53
 90
        2
102
RTVSPost2010PropOp53
 70
     1
102
RTVSPost2010Prop54
  1
strokes_ogs.tif
102
RTVSPost2010PropOp54
 70
     1
102
RTVSPost2010Prop55
280
     0
102
RTVSPost2010PropOp55
 70
     1
102
RTVSPost2010Prop56
140
1.0
102
RTVSPost2010PropOp56
 70
     1
102
RTVSPost2010Prop57
140
1.0
102
RTVSPost2010PropOp57
 70
     1
  0
ENDSEC
  0
EOF
