  0
SECTION
  2
HEADER
  9
$ACADVER
  1
AC1014
  9
$HANDSEED
  5
FFFF
  9
$INSUNITS
 70
     4
  9
$MEASUREMENT
 70
     1
  0
ENDSEC
  0
SECTION
  2
TABLES
  0
TABLE
  2
VPORT
  5
8
330
0
100
AcDbSymbolTable
 70
     4
  0
VPORT
  5
2E
330
8
100
AcDbSymbolTableRecord
100
AcDbViewportTableRecord
  2
*ACTIVE
 70
     0
 10
0.0
 20
0.0
 11
1.0
 21
1.0
 12
210.0
 22
148.5
 13
0.0
 23
0.0
 14
10.0
 24
10.0
 15
10.0
 25
10.0
 16
0.0
 26
0.0
 36
1.0
 17
0.0
 27
0.0
 37
0.0
 40
341.0
 41
1.24
 42
50.0
 43
0.0
 44
0.0
 50
0.0
 51
0.0
 71
     0
 72
   100
 73
     1
 74
     3
 75
     0
 76
     0
 77
     0
 78
     0
  0
ENDTAB
  0
TABLE
  2
LTYPE
  5
5
330
0
100
AcDbSymbolTable
 70
     1
  0
LTYPE
  5
14
330
5
100
AcDbSymbolTableRecord
100
AcDbLinetypeTableRecord
  2
BYBLOCK
 70
     0
  3

 72
    65
 73
     0
 40
0.0
  0
LTYPE
  5
15
330
5
100
AcDbSymbolTableRecord
100
AcDbLinetypeTableRecord
  2
BYLAYER
 70
     0
  3

 72
    65
 73
     0
 40
0.0
  0
LTYPE
  5
16
330
5
100
AcDbSymbolTableRecord
100
AcDbLinetypeTableRecord
  2
CONTINUOUS
 70
     0
  3
Solid line
 72
    65
 73
     0
 40
0.0
  0
ENDTAB
  0
TABLE
  2
LAYER
  5
2
100
AcDbSymbolTable
 70
2
  0
LAYER
  5
50
100
AcDbSymbolTableRecord
100
AcDbLayerTableRecord
  2
0
 70
0
  6
CONTINUOUS
  0
LAYER
  5
51
100
AcDbSymbolTableRecord
100
AcDbLayerTableRecord
  2
Layer_1
 70
0
  6
CONTINUOUS
  0
ENDTAB
  0
TABLE
  2
STYLE
  5
3
330
0
100
AcDbSymbolTable
 70
     1
  0
STYLE
  5
11
330
3
100
AcDbSymbolTableRecord
100
AcDbTextStyleTableRecord
  2
STANDARD
 70
     0
 40
0.0
 41
1.0
 50
0.0
 71
     0
 42
2.5
  3
txt
  4

  0
ENDTAB
  0
TABLE
  2
VIEW
  5
6
330
0
100
AcDbSymbolTable
 70
     0
  0
ENDTAB
  0
TABLE
  2
UCS
  5
7
330
0
100
AcDbSymbolTable
 70
     0
  0
ENDTAB
  0
TABLE
  2
APPID
  5
9
330
0
100
AcDbSymbolTable
 70
     2
  0
APPID
  5
12
330
9
100
AcDbSymbolTableRecord
100
AcDbRegAppTableRecord
  2
ACAD
 70
     0
  0
ENDTAB
  0
TABLE
  2
DIMSTYLE
  5
A
330
0
100
AcDbSymbolTable
 70
     1
  0
DIMSTYLE
105
27
330
A
100
AcDbSymbolTableRecord
100
AcDbDimStyleTableRecord
  2
ISO-25
 70
     0
  3

  4

  5

  6

  7

 40
1.0
 41
2.5
 42
0.625
 43
3.75
 44
1.25
 45
0.0
 46
0.0
 47
0.0
 48
0.0
140
2.5
141
2.5
142
0.0
143
0.03937007874016
144
1.0
145
0.0
146
1.0
147
0.625
 71
     0
 72
     0
 73
     0
 74
     0
 75
     0
 76
     0
 77
     1
 78
     8
170
     0
171
     3
172
     1
173
     0
174
     0
175
     0
176
     0
177
     0
178
     0
270
     2
271
     2
272
     2
273
     2
274
     3
340
11
275
     0
280
     0
281
     0
282
     0
283
     0
284
     8
285
     0
286
     0
287
     3
288
     0
  0
ENDTAB
  0
TABLE
  2
BLOCK_RECORD
  5
1
330
0
100
AcDbSymbolTable
 70
     1
  0
BLOCK_RECORD
  5
1F
330
1
100
AcDbSymbolTableRecord
100
AcDbBlockTableRecord
  2
*MODEL_SPACE
  0
BLOCK_RECORD
  5
1B
330
1
100
AcDbSymbolTableRecord
100
AcDbBlockTableRecord
  2
*PAPER_SPACE
  0
ENDTAB
  0
ENDSEC
  0
SECTION
  2
BLOCKS
  0
BLOCK
  5
20
330
1F
100
AcDbEntity
  8
0
100
AcDbBlockBegin
  2
*MODEL_SPACE
 70
     0
 10
0.0
 20
0.0
 30
0.0
  3
*MODEL_SPACE
  1

  0
ENDBLK
  5
21
330
1F
100
AcDbEntity
  8
0
100
AcDbBlockEnd
  0
BLOCK
  5
1C
330
1B
100
AcDbEntity
 67
     1
  8
0
100
AcDbBlockBegin
  2
*PAPER_SPACE
  1

  0
ENDBLK
  5
1D
330
1B
100
AcDbEntity
 67
     1
  8
0
100
AcDbBlockEnd
  0
ENDSEC
  0
SECTION
  2
ENTITIES
  0
SPLINE
  5
100
100
AcDbEntity
  8
Layer_1
 62
7
100
AcDbSpline
 70
8
 71
3
 72
8
 73
4
 74
0
 40
0
 40
0
 40
0
 40
0
 40
1
 40
1
 40
1
 40
1
 10
45.505230
 20
53.780590
 30
0.0
 10
44.820172
 20
53.798629
 30
0.0
 10
44.260372
 20
53.682030
 30
0.0
 10
43.451092
 20
53.592488
 30
0.0
  0
SPLINE
  5
101
100
AcDbEntity
  8
Layer_1
 62
7
100
AcDbSpline
 70
8
 71
3
 72
8
 73
4
 74
0
 40
0
 40
0
 40
0
 40
0
 40
1
 40
1
 40
1
 40
1
 10
43.451092
 20
53.592488
 30
0.0
 10
42.013629
 20
53.436594
 30
0.0
 10
40.789073
 20
52.650530
 30
0.0
 10
39.597580
 20
52.237015
 30
0.0
  0
LINE
  5
102
100
AcDbEntity
  8
Layer_1
 62
7
100
AcDbLine
 10
39.597580
 20
52.237015
 30
0.0
 11
39.595513
 21
52.237015
 31
0.0
  0
SPLINE
  5
103
100
AcDbEntity
  8
Layer_1
 62
7
100
AcDbSpline
 70
8
 71
3
 72
8
 73
4
 74
0
 40
0
 40
0
 40
0
 40
0
 40
1
 40
1
 40
1
 40
1
 10
39.595513
 20
52.237015
 30
0.0
 10
38.741708
 20
51.938786
 30
0.0
 10
38.018445
 20
51.379308
 30
0.0
 10
37.400298
 20
50.842785
 30
0.0
  0
SPLINE
  5
104
100
AcDbEntity
  8
Layer_1
 62
7
100
AcDbSpline
 70
8
 71
3
 72
8
 73
4
 74
0
 40
0
 40
0
 40
0
 40
0
 40
1
 40
1
 40
1
 40
1
 10
37.400298
 20
50.842785
 30
0.0
 10
36.782151
 20
50.306261
 30
0.0
 10
36.260403
 20
49.763660
 30
0.0
 10
36.031389
 20
49.557592
 30
0.0
  0
SPLINE
  5
105
100
AcDbEntity
  8
Layer_1
 62
7
100
AcDbSpline
 70
8
 71
3
 72
8
 73
4
 74
0
 40
0
 40
0
 40
0
 40
0
 40
1
 40
1
 40
1
 40
1
 10
36.031389
 20
49.557592
 30
0.0
 10
35.165984
 20
48.784310
 30
0.0
 10
34.638457
 20
47.555141
 30
0.0
 10
34.363274
 20
47.004776
 30
0.0
  0
SPLINE
  5
106
100
AcDbEntity
  8
Layer_1
 62
7
100
AcDbSpline
 70
8
 71
3
 72
8
 73
4
 74
0
 40
0
 40
0
 40
0
 40
0
 40
1
 40
1
 40
1
 40
1
 10
34.363274
 20
47.004776
 30
0.0
 10
34.153825
 20
46.584069
 30
0.0
 10
33.967406
 20
46.001930
 30
0.0
 10
33.747808
 20
45.335111
 30
0.0
  0
SPLINE
  5
107
100
AcDbEntity
  8
Layer_1
 62
7
100
AcDbSpline
 70
8
 71
3
 72
8
 73
4
 74
0
 40
0
 40
0
 40
0
 40
0
 40
1
 40
1
 40
1
 40
1
 10
33.747808
 20
45.335111
 30
0.0
 10
33.528210
 20
44.668292
 30
0.0
 10
33.305004
 20
43.963750
 30
0.0
 10
33.160247
 20
43.546073
 30
0.0
  0
LINE
  5
108
100
AcDbEntity
  8
Layer_1
 62
7
100
AcDbLine
 10
33.160247
 20
43.546073
 30
0.0
 11
33.160247
 21
43.544006
 31
0.0
  0
SPLINE
  5
109
100
AcDbEntity
  8
Layer_1
 62
7
100
AcDbSpline
 70
8
 71
3
 72
8
 73
4
 74
0
 40
0
 40
0
 40
0
 40
0
 40
1
 40
1
 40
1
 40
1
 10
33.160247
 20
43.544006
 30
0.0
 10
32.936445
 20
42.895704
 30
0.0
 10
31.676184
 20
40.510106
 30
0.0
 10
31.173805
 20
39.807283
 30
0.0
  0
LINE
  5
10a
100
AcDbEntity
  8
Layer_1
 62
7
100
AcDbLine
 10
31.173805
 20
39.807283
 30
0.0
 11
31.173805
 21
39.805732
 31
0.0
  0
SPLINE
  5
10b
100
AcDbEntity
  8
Layer_1
 62
7
100
AcDbSpline
 70
8
 71
3
 72
8
 73
4
 74
0
 40
0
 40
0
 40
0
 40
0
 40
1
 40
1
 40
1
 40
1
 10
31.173805
 20
39.805732
 30
0.0
 10
30.940959
 20
39.479194
 30
0.0
 10
30.069065
 20
38.441018
 30
0.0
 10
29.302601
 20
37.553674
 30
0.0
  0
SPLINE
  5
10c
100
AcDbEntity
  8
Layer_1
 62
7
100
AcDbSpline
 70
8
 71
3
 72
8
 73
4
 74
0
 40
0
 40
0
 40
0
 40
0
 40
1
 40
1
 40
1
 40
1
 10
29.302601
 20
37.553674
 30
0.0
 10
28.567274
 20
36.702377
 30
0.0
 10
27.957162
 20
36.012106
 30
0.0
 10
27.904237
 20
35.952221
 30
0.0
  0
SPLINE
  5
10d
100
AcDbEntity
  8
Layer_1
 62
7
100
AcDbSpline
 70
8
 71
3
 72
8
 73
4
 74
0
 40
0
 40
0
 40
0
 40
0
 40
1
 40
1
 40
1
 40
1
 10
27.904237
 20
35.952221
 30
0.0
 10
26.548127
 20
34.759918
 30
0.0
 10
25.125852
 20
34.844057
 30
0.0
 10
24.509612
 20
34.924377
 30
0.0
  0
LINE
  5
10e
100
AcDbEntity
  8
Layer_1
 62
7
100
AcDbLine
 10
24.509612
 20
34.924377
 30
0.0
 11
24.505995
 21
34.924377
 31
0.0
  0
SPLINE
  5
10f
100
AcDbEntity
  8
Layer_1
 62
7
100
AcDbSpline
 70
8
 71
3
 72
8
 73
4
 74
0
 40
0
 40
0
 40
0
 40
0
 40
1
 40
1
 40
1
 40
1
 10
24.505995
 20
34.924377
 30
0.0
 10
23.196349
 20
35.089110
 30
0.0
 10
22.237238
 20
35.617637
 30
0.0
 10
20.988380
 20
36.313439
 30
0.0
  0
LINE
  5
110
100
AcDbEntity
  8
Layer_1
 62
7
100
AcDbLine
 10
20.988380
 20
36.313439
 30
0.0
 11
20.986313
 21
36.315506
 31
0.0
  0
SPLINE
  5
111
100
AcDbEntity
  8
Layer_1
 62
7
100
AcDbSpline
 70
8
 71
3
 72
8
 73
4
 74
0
 40
0
 40
0
 40
0
 40
0
 40
1
 40
1
 40
1
 40
1
 10
20.986313
 20
36.315506
 30
0.0
 10
19.893070
 20
36.929176
 30
0.0
 10
19.368051
 20
37.724104
 30
0.0
 10
17.834051
 20
38.471447
 30
0.0
  0
SPLINE
  5
112
100
AcDbEntity
  8
Layer_1
 62
7
100
AcDbSpline
 70
8
 71
3
 72
8
 73
4
 74
0
 40
0
 40
0
 40
0
 40
0
 40
1
 40
1
 40
1
 40
1
 10
17.834051
 20
38.471447
 30
0.0
 10
16.142084
 20
39.303369
 30
0.0
 10
14.279512
 20
39.054766
 30
0.0
 10
13.246217
 20
38.854369
 30
0.0
  0
SPLINE
  5
113
100
AcDbEntity
  8
Layer_1
 62
7
100
AcDbSpline
 70
8
 71
3
 72
8
 73
4
 74
0
 40
0
 40
0
 40
0
 40
0
 40
1
 40
1
 40
1
 40
1
 10
13.246217
 20
38.854369
 30
0.0
 10
11.970601
 20
38.606977
 30
0.0
 10
10.707905
 20
37.722841
 30
0.0
 10
9.636618
 20
36.618330
 30
0.0
  0
SPLINE
  5
114
100
AcDbEntity
  8
Layer_1
 62
7
100
AcDbSpline
 70
8
 71
3
 72
8
 73
4
 74
0
 40
0
 40
0
 40
0
 40
0
 40
1
 40
1
 40
1
 40
1
 10
9.636618
 20
36.618330
 30
0.0
 10
8.884401
 20
35.842404
 30
0.0
 10
8.792082
 20
34.802832
 30
0.0
 10
8.853720
 20
33.926505
 30
0.0
  0
SPLINE
  5
115
100
AcDbEntity
  8
Layer_1
 62
7
100
AcDbSpline
 70
8
 71
3
 72
8
 73
4
 74
0
 40
0
 40
0
 40
0
 40
0
 40
1
 40
1
 40
1
 40
1
 10
8.853720
 20
33.926505
 30
0.0
 10
8.893577
 20
33.359871
 30
0.0
 10
9.001112
 20
32.827331
 30
0.0
 10
9.103317
 20
32.375695
 30
0.0
  0
SPLINE
  5
116
100
AcDbEntity
  8
Layer_1
 62
7
100
AcDbSpline
 70
8
 71
3
 72
8
 73
4
 74
0
 40
0
 40
0
 40
0
 40
0
 40
1
 40
1
 40
1
 40
1
 10
9.103317
 20
32.375695
 30
0.0
 10
9.083278
 20
32.372093
 30
0.0
 10
9.064173
 20
32.369454
 30
0.0
 10
9.042856
 20
32.364843
 30
0.0
  0
LINE
  5
117
100
AcDbEntity
  8
Layer_1
 62
7
100
AcDbLine
 10
9.042856
 20
32.364843
 30
0.0
 11
9.042856
 21
32.364326
 31
0.0
  0
SPLINE
  5
118
100
AcDbEntity
  8
Layer_1
 62
7
100
AcDbSpline
 70
8
 71
3
 72
8
 73
4
 74
0
 40
0
 40
0
 40
0
 40
0
 40
1
 40
1
 40
1
 40
1
 10
9.042856
 20
32.364326
 30
0.0
 10
9.036295
 20
32.363022
 30
0.0
 10
9.029749
 20
32.361644
 30
0.0
 10
9.023219
 20
32.360192
 30
0.0
  0
SPLINE
  5
119
100
AcDbEntity
  8
Layer_1
 62
7
100
AcDbSpline
 70
8
 71
3
 72
8
 73
4
 74
0
 40
0
 40
0
 40
0
 40
0
 40
1
 40
1
 40
1
 40
1
 10
9.023219
 20
32.360192
 30
0.0
 10
9.087669
 20
32.375662
 30
0.0
 10
8.735021
 20
32.347147
 30
0.0
 10
8.324037
 20
32.260457
 30
0.0
  0
SPLINE
  5
11a
100
AcDbEntity
  8
Layer_1
 62
7
100
AcDbSpline
 70
8
 71
3
 72
8
 73
4
 74
0
 40
0
 40
0
 40
0
 40
0
 40
1
 40
1
 40
1
 40
1
 10
8.324037
 20
32.260457
 30
0.0
 10
7.914175
 20
32.174007
 30
0.0
 10
7.391736
 20
31.987116
 30
0.0
 10
6.872962
 20
31.600549
 30
0.0
  0
SPLINE
  5
11b
100
AcDbEntity
  8
Layer_1
 62
7
100
AcDbSpline
 70
8
 71
3
 72
8
 73
4
 74
0
 40
0
 40
0
 40
0
 40
0
 40
1
 40
1
 40
1
 40
1
 10
6.872962
 20
31.600549
 30
0.0
 10
6.211019
 20
31.115410
 30
0.0
 10
5.569127
 20
30.412455
 30
0.0
 10
5.218800
 20
29.557779
 30
0.0
  0
SPLINE
  5
11c
100
AcDbEntity
  8
Layer_1
 62
7
100
AcDbSpline
 70
8
 71
3
 72
8
 73
4
 74
0
 40
0
 40
0
 40
0
 40
0
 40
1
 40
1
 40
1
 40
1
 10
5.218800
 20
29.557779
 30
0.0
 10
4.915298
 20
28.822856
 30
0.0
 10
4.740121
 20
27.969856
 30
0.0
 10
4.876702
 20
27.096434
 30
0.0
  0
LINE
  5
11d
100
AcDbEntity
  8
Layer_1
 62
7
100
AcDbLine
 10
4.876702
 20
27.096434
 30
0.0
 11
4.876702
 21
27.094364
 31
0.0
  0
SPLINE
  5
11e
100
AcDbEntity
  8
Layer_1
 62
7
100
AcDbSpline
 70
8
 71
3
 72
8
 73
4
 74
0
 40
0
 40
0
 40
0
 40
0
 40
1
 40
1
 40
1
 40
1
 10
4.876702
 20
27.094364
 30
0.0
 10
4.950647
 20
26.625684
 30
0.0
 10
5.066861
 20
26.200344
 30
0.0
 10
5.217766
 20
25.824154
 30
0.0
  0
SPLINE
  5
11f
100
AcDbEntity
  8
Layer_1
 62
7
100
AcDbSpline
 70
8
 71
3
 72
8
 73
4
 74
0
 40
0
 40
0
 40
0
 40
0
 40
1
 40
1
 40
1
 40
1
 10
5.217766
 20
25.824154
 30
0.0
 10
5.014390
 20
25.812454
 30
0.0
 10
4.832778
 20
25.801004
 30
0.0
 10
4.712888
 20
25.790054
 30
0.0
  0
SPLINE
  5
120
100
AcDbEntity
  8
Layer_1
 62
7
100
AcDbSpline
 70
8
 71
3
 72
8
 73
4
 74
0
 40
0
 40
0
 40
0
 40
0
 40
1
 40
1
 40
1
 40
1
 10
4.712888
 20
25.790054
 30
0.0
 10
4.686714
 20
25.787247
 30
0.0
 10
4.660678
 20
25.783280
 30
0.0
 10
4.634856
 20
25.778164
 30
0.0
  0
SPLINE
  5
121
100
AcDbEntity
  8
Layer_1
 62
7
100
AcDbSpline
 70
8
 71
3
 72
8
 73
4
 74
0
 40
0
 40
0
 40
0
 40
0
 40
1
 40
1
 40
1
 40
1
 10
4.634856
 20
25.778164
 30
0.0
 10
4.062892
 20
25.673774
 30
0.0
 10
3.666763
 20
25.549684
 30
0.0
 10
3.244243
 20
25.131694
 30
0.0
  0
SPLINE
  5
122
100
AcDbEntity
  8
Layer_1
 62
7
100
AcDbSpline
 70
8
 71
3
 72
8
 73
4
 74
0
 40
0
 40
0
 40
0
 40
0
 40
1
 40
1
 40
1
 40
1
 10
3.244243
 20
25.131694
 30
0.0
 10
3.017975
 20
24.907084
 30
0.0
 10
2.901811
 20
24.727024
 30
0.0
 10
2.703191
 20
24.428894
 30
0.0
  0
SPLINE
  5
123
100
AcDbEntity
  8
Layer_1
 62
7
100
AcDbSpline
 70
8
 71
3
 72
8
 73
4
 74
0
 40
0
 40
0
 40
0
 40
0
 40
1
 40
1
 40
1
 40
1
 10
2.703191
 20
24.428894
 30
0.0
 10
2.504570
 20
24.130774
 30
0.0
 10
2.301068
 20
23.853064
 30
0.0
 10
2.185393
 20
23.393294
 30
0.0
  0
LINE
  5
124
100
AcDbEntity
  8
Layer_1
 62
7
100
AcDbLine
 10
2.185393
 20
23.393294
 30
0.0
 11
2.183326
 21
23.389684
 31
0.0
  0
SPLINE
  5
125
100
AcDbEntity
  8
Layer_1
 62
7
100
AcDbSpline
 70
8
 71
3
 72
8
 73
4
 74
0
 40
0
 40
0
 40
0
 40
0
 40
1
 40
1
 40
1
 40
1
 10
2.183326
 20
23.389684
 30
0.0
 10
2.074219
 20
22.948654
 30
0.0
 10
1.880356
 20
22.350614
 30
0.0
 10
2.037082
 20
21.608394
 30
0.0
  0
SPLINE
  5
126
100
AcDbEntity
  8
Layer_1
 62
7
100
AcDbSpline
 70
8
 71
3
 72
8
 73
4
 74
0
 40
0
 40
0
 40
0
 40
0
 40
1
 40
1
 40
1
 40
1
 10
2.037082
 20
21.608394
 30
0.0
 10
2.135178
 20
21.142004
 30
0.0
 10
2.303017
 20
20.594364
 30
0.0
 10
2.596738
 20
20.084974
 30
0.0
  0
SPLINE
  5
127
100
AcDbEntity
  8
Layer_1
 62
7
100
AcDbSpline
 70
8
 71
3
 72
8
 73
4
 74
0
 40
0
 40
0
 40
0
 40
0
 40
1
 40
1
 40
1
 40
1
 10
2.596738
 20
20.084974
 30
0.0
 10
2.569622
 20
20.077864
 30
0.0
 10
2.544112
 20
20.070984
 30
0.0
 10
2.515606
 20
20.063264
 30
0.0
  0
SPLINE
  5
128
100
AcDbEntity
  8
Layer_1
 62
7
100
AcDbSpline
 70
8
 71
3
 72
8
 73
4
 74
0
 40
0
 40
0
 40
0
 40
0
 40
1
 40
1
 40
1
 40
1
 10
2.515606
 20
20.063264
 30
0.0
 10
2.293518
 20
20.003164
 30
0.0
 10
2.093597
 20
19.968514
 30
0.0
 10
1.786968
 20
19.805404
 30
0.0
  0
SPLINE
  5
129
100
AcDbEntity
  8
Layer_1
 62
7
100
AcDbSpline
 70
8
 71
3
 72
8
 73
4
 74
0
 40
0
 40
0
 40
0
 40
0
 40
1
 40
1
 40
1
 40
1
 10
1.786968
 20
19.805404
 30
0.0
 10
1.780382
 20
19.802212
 30
0.0
 10
1.773836
 20
19.798938
 30
0.0
 10
1.767331
 20
19.795584
 30
0.0
  0
SPLINE
  5
12a
100
AcDbEntity
  8
Layer_1
 62
7
100
AcDbSpline
 70
8
 71
3
 72
8
 73
4
 74
0
 40
0
 40
0
 40
0
 40
0
 40
1
 40
1
 40
1
 40
1
 10
1.767331
 20
19.795584
 30
0.0
 10
1.661996
 20
19.736084
 30
0.0
 10
1.445259
 20
19.617244
 30
0.0
 10
1.218527
 20
19.463824
 30
0.0
  0
SPLINE
  5
12b
100
AcDbEntity
  8
Layer_1
 62
7
100
AcDbSpline
 70
8
 71
3
 72
8
 73
4
 74
0
 40
0
 40
0
 40
0
 40
0
 40
1
 40
1
 40
1
 40
1
 10
1.218527
 20
19.463824
 30
0.0
 10
0.991795
 20
19.310414
 30
0.0
 10
0.747436
 20
19.157584
 30
0.0
 10
0.515728
 20
18.799784
 30
0.0
  0
LINE
  5
12c
100
AcDbEntity
  8
Layer_1
 62
7
100
AcDbLine
 10
0.515728
 20
18.799784
 30
0.0
 11
0.513661
 21
18.797714
 31
0.0
  0
SPLINE
  5
12d
100
AcDbEntity
  8
Layer_1
 62
7
100
AcDbSpline
 70
8
 71
3
 72
8
 73
4
 74
0
 40
0
 40
0
 40
0
 40
0
 40
1
 40
1
 40
1
 40
1
 10
0.513661
 20
18.797714
 30
0.0
 10
0.429471
 20
18.666704
 30
0.0
 10
-0.060544
 20
18.019094
 30
0.0
 10
-0.049096
 20
17.061384
 30
0.0
  0
SPLINE
  5
12e
100
AcDbEntity
  8
Layer_1
 62
7
100
AcDbSpline
 70
8
 71
3
 72
8
 73
4
 74
0
 40
0
 40
0
 40
0
 40
0
 40
1
 40
1
 40
1
 40
1
 10
-0.049096
 20
17.061384
 30
0.0
 10
-0.040896
 20
16.390264
 30
0.0
 10
0.079438
 20
15.947054
 30
0.0
 10
0.275432
 20
15.530214
 30
0.0
  0
SPLINE
  5
12f
100
AcDbEntity
  8
Layer_1
 62
7
100
AcDbSpline
 70
8
 71
3
 72
8
 73
4
 74
0
 40
0
 40
0
 40
0
 40
0
 40
1
 40
1
 40
1
 40
1
 10
0.275432
 20
15.530214
 30
0.0
 10
0.498383
 20
15.052554
 30
0.0
 10
0.768896
 20
14.603484
 30
0.0
 10
1.349785
 20
14.018164
 30
0.0
  0
SPLINE
  5
130
100
AcDbEntity
  8
Layer_1
 62
7
100
AcDbSpline
 70
8
 71
3
 72
8
 73
4
 74
0
 40
0
 40
0
 40
0
 40
0
 40
1
 40
1
 40
1
 40
1
 10
1.349785
 20
14.018164
 30
0.0
 10
1.612364
 20
13.751594
 30
0.0
 10
2.106014
 20
13.263854
 30
0.0
 10
2.714560
 20
12.834764
 30
0.0
  0
SPLINE
  5
131
100
AcDbEntity
  8
Layer_1
 62
7
100
AcDbSpline
 70
8
 71
3
 72
8
 73
4
 74
0
 40
0
 40
0
 40
0
 40
0
 40
1
 40
1
 40
1
 40
1
 10
2.714560
 20
12.834764
 30
0.0
 10
3.197723
 20
12.491374
 30
0.0
 10
3.883108
 20
12.107884
 30
0.0
 10
4.603334
 20
11.932494
 30
0.0
  0
SPLINE
  5
132
100
AcDbEntity
  8
Layer_1
 62
7
100
AcDbSpline
 70
8
 71
3
 72
8
 73
4
 74
0
 40
0
 40
0
 40
0
 40
0
 40
1
 40
1
 40
1
 40
1
 10
4.603334
 20
11.932494
 30
0.0
 10
4.689390
 20
11.911514
 30
0.0
 10
4.803398
 20
11.883264
 30
0.0
 10
4.928895
 20
11.853434
 30
0.0
  0
SPLINE
  5
133
100
AcDbEntity
  8
Layer_1
 62
7
100
AcDbSpline
 70
8
 71
3
 72
8
 73
4
 74
0
 40
0
 40
0
 40
0
 40
0
 40
1
 40
1
 40
1
 40
1
 10
4.928895
 20
11.853434
 30
0.0
 10
5.372558
 20
10.483994
 30
0.0
 10
6.309405
 20
9.288164
 30
0.0
 10
7.291025
 20
8.309464
 30
0.0
  0
SPLINE
  5
134
100
AcDbEntity
  8
Layer_1
 62
7
100
AcDbSpline
 70
8
 71
3
 72
8
 73
4
 74
0
 40
0
 40
0
 40
0
 40
0
 40
1
 40
1
 40
1
 40
1
 10
7.291025
 20
8.309464
 30
0.0
 10
8.415403
 20
7.188434
 30
0.0
 10
9.571355
 20
6.372504
 30
0.0
 10
10.439670
 20
5.996944
 30
0.0
  0
SPLINE
  5
135
100
AcDbEntity
  8
Layer_1
 62
7
100
AcDbSpline
 70
8
 71
3
 72
8
 73
4
 74
0
 40
0
 40
0
 40
0
 40
0
 40
1
 40
1
 40
1
 40
1
 10
10.439670
 20
5.996944
 30
0.0
 10
11.377542
 20
5.589924
 30
0.0
 10
12.679909
 20
5.456734
 30
0.0
 10
13.873052
 20
5.342724
 30
0.0
  0
SPLINE
  5
136
100
AcDbEntity
  8
Layer_1
 62
7
100
AcDbSpline
 70
8
 71
3
 72
8
 73
4
 74
0
 40
0
 40
0
 40
0
 40
0
 40
1
 40
1
 40
1
 40
1
 10
13.873052
 20
5.342724
 30
0.0
 10
15.066195
 20
5.228704
 30
0.0
 10
16.085837
 20
5.190274
 30
0.0
 10
16.085837
 20
5.190274
 30
0.0
  0
SPLINE
  5
137
100
AcDbEntity
  8
Layer_1
 62
7
100
AcDbSpline
 70
8
 71
3
 72
8
 73
4
 74
0
 40
0
 40
0
 40
0
 40
0
 40
1
 40
1
 40
1
 40
1
 10
16.085837
 20
5.190274
 30
0.0
 10
16.120299
 20
5.188960
 30
0.0
 10
16.154808
 20
5.189651
 30
0.0
 10
16.189190
 20
5.192344
 30
0.0
  0
SPLINE
  5
138
100
AcDbEntity
  8
Layer_1
 62
7
100
AcDbSpline
 70
8
 71
3
 72
8
 73
4
 74
0
 40
0
 40
0
 40
0
 40
0
 40
1
 40
1
 40
1
 40
1
 10
16.189190
 20
5.192344
 30
0.0
 10
16.550576
 20
5.220344
 30
0.0
 10
17.738093
 20
5.226994
 30
0.0
 10
18.892384
 20
5.141694
 30
0.0
  0
SPLINE
  5
139
100
AcDbEntity
  8
Layer_1
 62
7
100
AcDbSpline
 70
8
 71
3
 72
8
 73
4
 74
0
 40
0
 40
0
 40
0
 40
0
 40
1
 40
1
 40
1
 40
1
 10
18.892384
 20
5.141694
 30
0.0
 10
20.045856
 20
5.056494
 30
0.0
 10
21.286571
 20
4.800094
 30
0.0
 10
21.552687
 20
4.656974
 30
0.0
  0
LINE
  5
13a
100
AcDbEntity
  8
Layer_1
 62
7
100
AcDbLine
 10
21.552687
 20
4.656974
 30
0.0
 11
21.554754
 21
4.656974
 31
0.0
  0
SPLINE
  5
13b
100
AcDbEntity
  8
Layer_1
 62
7
100
AcDbSpline
 70
8
 71
3
 72
8
 73
4
 74
0
 40
0
 40
0
 40
0
 40
0
 40
1
 40
1
 40
1
 40
1
 10
21.554754
 20
4.656974
 30
0.0
 10
25.138926
 20
2.703704
 30
0.0
 10
26.954941
 20
-0.028526
 30
0.0
 10
26.954941
 20
-0.028526
 30
0.0
  0
LINE
  5
13c
100
AcDbEntity
  8
Layer_1
 62
7
100
AcDbLine
 10
26.954941
 20
-0.028526
 30
0.0
 11
28.437538
 21
0.955904
 31
0.0
  0
SPLINE
  5
13d
100
AcDbEntity
  8
Layer_1
 62
7
100
AcDbSpline
 70
8
 71
3
 72
8
 73
4
 74
0
 40
0
 40
0
 40
0
 40
0
 40
1
 40
1
 40
1
 40
1
 10
28.437538
 20
0.955904
 30
0.0
 10
28.437538
 20
0.955904
 30
0.0
 10
26.384618
 20
4.053094
 30
0.0
 10
22.402247
 20
6.221734
 30
0.0
  0
LINE
  5
13e
100
AcDbEntity
  8
Layer_1
 62
7
100
AcDbLine
 10
22.402247
 20
6.221734
 30
0.0
 11
22.398630
 21
6.223804
 31
0.0
  0
SPLINE
  5
13f
100
AcDbEntity
  8
Layer_1
 62
7
100
AcDbSpline
 70
8
 71
3
 72
8
 73
4
 74
0
 40
0
 40
0
 40
0
 40
0
 40
1
 40
1
 40
1
 40
1
 10
22.398630
 20
6.223804
 30
0.0
 10
21.474532
 20
6.722844
 30
0.0
 10
20.263610
 20
6.823634
 30
0.0
 10
19.023642
 20
6.915234
 30
0.0
  0
SPLINE
  5
140
100
AcDbEntity
  8
Layer_1
 62
7
100
AcDbSpline
 70
8
 71
3
 72
8
 73
4
 74
0
 40
0
 40
0
 40
0
 40
0
 40
1
 40
1
 40
1
 40
1
 10
19.023642
 20
6.915234
 30
0.0
 10
17.824627
 20
7.003804
 30
0.0
 10
16.717596
 20
7.010074
 30
0.0
 10
16.117359
 20
6.969494
 30
0.0
  0
SPLINE
  5
141
100
AcDbEntity
  8
Layer_1
 62
7
100
AcDbSpline
 70
8
 71
3
 72
8
 73
4
 74
0
 40
0
 40
0
 40
0
 40
0
 40
1
 40
1
 40
1
 40
1
 10
16.117359
 20
6.969494
 30
0.0
 10
16.014887
 20
6.973664
 30
0.0
 10
15.114731
 20
7.011794
 30
0.0
 10
14.043067
 20
7.114184
 30
0.0
  0
SPLINE
  5
142
100
AcDbEntity
  8
Layer_1
 62
7
100
AcDbSpline
 70
8
 71
3
 72
8
 73
4
 74
0
 40
0
 40
0
 40
0
 40
0
 40
1
 40
1
 40
1
 40
1
 10
14.043067
 20
7.114184
 30
0.0
 10
12.906657
 20
7.222774
 30
0.0
 10
11.545927
 20
7.457504
 30
0.0
 10
11.148671
 20
7.629914
 30
0.0
  0
LINE
  5
143
100
AcDbEntity
  8
Layer_1
 62
7
100
AcDbLine
 10
11.148671
 20
7.629914
 30
0.0
 11
11.146603
 21
7.629914
 31
0.0
  0
SPLINE
  5
144
100
AcDbEntity
  8
Layer_1
 62
7
100
AcDbSpline
 70
8
 71
3
 72
8
 73
4
 74
0
 40
0
 40
0
 40
0
 40
0
 40
1
 40
1
 40
1
 40
1
 10
11.146603
 20
7.629914
 30
0.0
 10
10.672740
 20
7.834724
 30
0.0
 10
9.526814
 20
8.592194
 30
0.0
 10
8.546762
 20
9.569334
 30
0.0
  0
SPLINE
  5
145
100
AcDbEntity
  8
Layer_1
 62
7
100
AcDbSpline
 70
8
 71
3
 72
8
 73
4
 74
0
 40
0
 40
0
 40
0
 40
0
 40
1
 40
1
 40
1
 40
1
 10
8.546762
 20
9.569334
 30
0.0
 10
7.943292
 20
10.171014
 30
0.0
 10
7.393457
 20
10.864284
 30
0.0
 10
7.008872
 20
11.554744
 30
0.0
  0
SPLINE
  5
146
100
AcDbEntity
  8
Layer_1
 62
7
100
AcDbSpline
 70
8
 71
3
 72
8
 73
4
 74
0
 40
0
 40
0
 40
0
 40
0
 40
1
 40
1
 40
1
 40
1
 10
7.008872
 20
11.554744
 30
0.0
 10
7.658788
 20
11.550384
 30
0.0
 10
8.056111
 20
11.463934
 30
0.0
 10
8.871290
 20
11.561464
 30
0.0
  0
SPLINE
  5
147
100
AcDbEntity
  8
Layer_1
 62
7
100
AcDbSpline
 70
8
 71
3
 72
8
 73
4
 74
0
 40
0
 40
0
 40
0
 40
0
 40
1
 40
1
 40
1
 40
1
 10
8.871290
 20
11.561464
 30
0.0
 10
9.291518
 20
11.610964
 30
0.0
 10
10.036108
 20
11.742364
 30
0.0
 10
10.636557
 20
11.961954
 30
0.0
  0
SPLINE
  5
148
100
AcDbEntity
  8
Layer_1
 62
7
100
AcDbSpline
 70
8
 71
3
 72
8
 73
4
 74
0
 40
0
 40
0
 40
0
 40
0
 40
1
 40
1
 40
1
 40
1
 10
10.636557
 20
11.961954
 30
0.0
 10
10.833465
 20
12.033854
 30
0.0
 10
11.099500
 20
12.119804
 30
0.0
 10
11.351759
 20
12.210004
 30
0.0
  0
SPLINE
  5
149
100
AcDbEntity
  8
Layer_1
 62
7
100
AcDbSpline
 70
8
 71
3
 72
8
 73
4
 74
0
 40
0
 40
0
 40
0
 40
0
 40
1
 40
1
 40
1
 40
1
 10
11.351759
 20
12.210004
 30
0.0
 10
11.604019
 20
12.300204
 30
0.0
 10
11.787985
 20
12.321914
 30
0.0
 10
12.119154
 20
12.576904
 30
0.0
  0
LINE
  5
14a
100
AcDbEntity
  8
Layer_1
 62
7
100
AcDbLine
 10
12.119154
 20
12.576904
 30
0.0
 11
12.121221
 21
12.578974
 31
0.0
  0
SPLINE
  5
14b
100
AcDbEntity
  8
Layer_1
 62
7
100
AcDbSpline
 70
8
 71
3
 72
8
 73
4
 74
0
 40
0
 40
0
 40
0
 40
0
 40
1
 40
1
 40
1
 40
1
 10
12.121221
 20
12.578974
 30
0.0
 10
12.194901
 20
12.635974
 30
0.0
 10
12.742790
 20
12.967314
 30
0.0
 10
13.043129
 20
13.606294
 30
0.0
  0
LINE
  5
14c
100
AcDbEntity
  8
Layer_1
 62
7
100
AcDbLine
 10
13.043129
 20
13.606294
 30
0.0
 11
13.043129
 21
13.608364
 31
0.0
  0
SPLINE
  5
14d
100
AcDbEntity
  8
Layer_1
 62
7
100
AcDbSpline
 70
8
 71
3
 72
8
 73
4
 74
0
 40
0
 40
0
 40
0
 40
0
 40
1
 40
1
 40
1
 40
1
 10
13.043129
 20
13.608364
 30
0.0
 10
13.253057
 20
14.055444
 30
0.0
 10
13.341723
 20
14.687134
 30
0.0
 10
13.185755
 20
15.178814
 30
0.0
  0
LINE
  5
14e
100
AcDbEntity
  8
Layer_1
 62
7
100
AcDbLine
 10
13.185755
 20
15.178814
 30
0.0
 11
13.185755
 21
15.179324
 31
0.0
  0
LINE
  5
14f
100
AcDbEntity
  8
Layer_1
 62
7
100
AcDbLine
 10
13.185755
 20
15.179324
 30
0.0
 11
13.185755
 21
15.179844
 31
0.0
  0
LINE
  5
150
100
AcDbEntity
  8
Layer_1
 62
7
100
AcDbLine
 10
13.185755
 20
15.179844
 30
0.0
 11
13.185755
 21
15.180364
 31
0.0
  0
LINE
  5
151
100
AcDbEntity
  8
Layer_1
 62
7
100
AcDbLine
 10
13.185755
 20
15.180364
 30
0.0
 11
13.185755
 21
15.180874
 31
0.0
  0
LINE
  5
152
100
AcDbEntity
  8
Layer_1
 62
7
100
AcDbLine
 10
13.185755
 20
15.180874
 30
0.0
 11
13.185755
 21
15.181394
 31
0.0
  0
LINE
  5
153
100
AcDbEntity
  8
Layer_1
 62
7
100
AcDbLine
 10
13.185755
 20
15.181394
 30
0.0
 11
13.185755
 21
15.181914
 31
0.0
  0
LINE
  5
154
100
AcDbEntity
  8
Layer_1
 62
7
100
AcDbLine
 10
13.185755
 20
15.181914
 30
0.0
 11
13.185755
 21
15.182434
 31
0.0
  0
SPLINE
  5
155
100
AcDbEntity
  8
Layer_1
 62
7
100
AcDbSpline
 70
8
 71
3
 72
8
 73
4
 74
0
 40
0
 40
0
 40
0
 40
0
 40
1
 40
1
 40
1
 40
1
 10
13.185755
 20
15.182434
 30
0.0
 10
13.162598
 20
15.254234
 30
0.0
 10
13.135771
 20
15.323364
 30
0.0
 10
13.107207
 20
15.390164
 30
0.0
  0
SPLINE
  5
156
100
AcDbEntity
  8
Layer_1
 62
7
100
AcDbSpline
 70
8
 71
3
 72
8
 73
4
 74
0
 40
0
 40
0
 40
0
 40
0
 40
1
 40
1
 40
1
 40
1
 10
13.107207
 20
15.390164
 30
0.0
 10
13.442323
 20
15.395794
 30
0.0
 10
13.754535
 20
15.411764
 30
0.0
 10
14.029115
 20
15.457344
 30
0.0
  0
SPLINE
  5
157
100
AcDbEntity
  8
Layer_1
 62
7
100
AcDbSpline
 70
8
 71
3
 72
8
 73
4
 74
0
 40
0
 40
0
 40
0
 40
0
 40
1
 40
1
 40
1
 40
1
 10
14.029115
 20
15.457344
 30
0.0
 10
14.335354
 20
15.508244
 30
0.0
 10
14.643889
 20
15.599384
 30
0.0
 10
14.929835
 20
15.697644
 30
0.0
  0
SPLINE
  5
158
100
AcDbEntity
  8
Layer_1
 62
7
100
AcDbSpline
 70
8
 71
3
 72
8
 73
4
 74
0
 40
0
 40
0
 40
0
 40
0
 40
1
 40
1
 40
1
 40
1
 10
14.929835
 20
15.697644
 30
0.0
 10
15.214922
 20
15.795644
 30
0.0
 10
15.375653
 20
15.810824
 30
0.0
 10
15.710666
 20
16.055244
 30
0.0
  0
LINE
  5
159
100
AcDbEntity
  8
Layer_1
 62
7
100
AcDbLine
 10
15.710666
 20
16.055244
 30
0.0
 11
15.712733
 21
16.057314
 31
0.0
  0
SPLINE
  5
15a
100
AcDbEntity
  8
Layer_1
 62
7
100
AcDbSpline
 70
8
 71
3
 72
8
 73
4
 74
0
 40
0
 40
0
 40
0
 40
0
 40
1
 40
1
 40
1
 40
1
 10
15.712733
 20
16.057314
 30
0.0
 10
16.073239
 20
16.320274
 30
0.0
 10
16.379504
 20
16.556284
 30
0.0
 10
16.658412
 20
17.168354
 30
0.0
  0
SPLINE
  5
15b
100
AcDbEntity
  8
Layer_1
 62
7
100
AcDbSpline
 70
8
 71
3
 72
8
 73
4
 74
0
 40
0
 40
0
 40
0
 40
0
 40
1
 40
1
 40
1
 40
1
 10
16.658412
 20
17.168354
 30
0.0
 10
16.921301
 20
17.734584
 30
0.0
 10
16.928385
 20
18.199184
 30
0.0
 10
16.955034
 20
18.469564
 30
0.0
  0
LINE
  5
15c
100
AcDbEntity
  8
Layer_1
 62
7
100
AcDbLine
 10
16.955034
 20
18.469564
 30
0.0
 11
16.955034
 21
18.471114
 31
0.0
  0
SPLINE
  5
15d
100
AcDbEntity
  8
Layer_1
 62
7
100
AcDbSpline
 70
8
 71
3
 72
8
 73
4
 74
0
 40
0
 40
0
 40
0
 40
0
 40
1
 40
1
 40
1
 40
1
 10
16.955034
 20
18.471114
 30
0.0
 10
17.006464
 20
18.972864
 30
0.0
 10
16.879214
 20
19.114094
 30
0.0
 10
16.783469
 20
19.356334
 30
0.0
  0
SPLINE
  5
15e
100
AcDbEntity
  8
Layer_1
 62
7
100
AcDbSpline
 70
8
 71
3
 72
8
 73
4
 74
0
 40
0
 40
0
 40
0
 40
0
 40
1
 40
1
 40
1
 40
1
 10
16.783469
 20
19.356334
 30
0.0
 10
16.687519
 20
19.599084
 30
0.0
 10
16.573488
 20
19.828484
 30
0.0
 10
16.439304
 20
20.039494
 30
0.0
  0
SPLINE
  5
15f
100
AcDbEntity
  8
Layer_1
 62
7
100
AcDbSpline
 70
8
 71
3
 72
8
 73
4
 74
0
 40
0
 40
0
 40
0
 40
0
 40
1
 40
1
 40
1
 40
1
 10
16.439304
 20
20.039494
 30
0.0
 10
16.438112
 20
20.042257
 30
0.0
 10
16.436906
 20
20.045013
 30
0.0
 10
16.435686
 20
20.047764
 30
0.0
  0
SPLINE
  5
160
100
AcDbEntity
  8
Layer_1
 62
7
100
AcDbSpline
 70
8
 71
3
 72
8
 73
4
 74
0
 40
0
 40
0
 40
0
 40
0
 40
1
 40
1
 40
1
 40
1
 10
16.435686
 20
20.047764
 30
0.0
 10
16.426881
 20
20.061364
 30
0.0
 10
16.417692
 20
20.073834
 30
0.0
 10
16.408815
 20
20.087044
 30
0.0
  0
SPLINE
  5
161
100
AcDbEntity
  8
Layer_1
 62
7
100
AcDbSpline
 70
8
 71
3
 72
8
 73
4
 74
0
 40
0
 40
0
 40
0
 40
0
 40
1
 40
1
 40
1
 40
1
 10
16.408815
 20
20.087044
 30
0.0
 10
16.737084
 20
20.089764
 30
0.0
 10
17.033683
 20
20.103524
 30
0.0
 10
17.330205
 20
20.163004
 30
0.0
  0
SPLINE
  5
162
100
AcDbEntity
  8
Layer_1
 62
7
100
AcDbSpline
 70
8
 71
3
 72
8
 73
4
 74
0
 40
0
 40
0
 40
0
 40
0
 40
1
 40
1
 40
1
 40
1
 10
17.330205
 20
20.163004
 30
0.0
 10
17.682941
 20
20.233904
 30
0.0
 10
18.040999
 20
20.369204
 30
0.0
 10
18.433497
 20
20.536104
 30
0.0
  0
SPLINE
  5
163
100
AcDbEntity
  8
Layer_1
 62
7
100
AcDbSpline
 70
8
 71
3
 72
8
 73
4
 74
0
 40
0
 40
0
 40
0
 40
0
 40
1
 40
1
 40
1
 40
1
 10
18.433497
 20
20.536104
 30
0.0
 10
18.629747
 20
20.619504
 30
0.0
 10
18.820312
 20
20.708824
 30
0.0
 10
18.997804
 20
20.805344
 30
0.0
  0
SPLINE
  5
164
100
AcDbEntity
  8
Layer_1
 62
7
100
AcDbSpline
 70
8
 71
3
 72
8
 73
4
 74
0
 40
0
 40
0
 40
0
 40
0
 40
1
 40
1
 40
1
 40
1
 10
18.997804
 20
20.805344
 30
0.0
 10
19.175295
 20
20.901844
 30
0.0
 10
19.324150
 20
20.962654
 30
0.0
 10
19.537306
 20
21.196014
 30
0.0
  0
LINE
  5
165
100
AcDbEntity
  8
Layer_1
 62
7
100
AcDbLine
 10
19.537306
 20
21.196014
 30
0.0
 11
19.537306
 21
21.196534
 31
0.0
  0
LINE
  5
166
100
AcDbEntity
  8
Layer_1
 62
7
100
AcDbLine
 10
19.537306
 20
21.196534
 30
0.0
 11
19.537306
 21
21.197054
 31
0.0
  0
LINE
  5
167
100
AcDbEntity
  8
Layer_1
 62
7
100
AcDbLine
 10
19.537306
 20
21.197054
 30
0.0
 11
19.537306
 21
21.197564
 31
0.0
  0
LINE
  5
168
100
AcDbEntity
  8
Layer_1
 62
7
100
AcDbLine
 10
19.537306
 20
21.197564
 30
0.0
 11
19.537306
 21
21.198084
 31
0.0
  0
SPLINE
  5
169
100
AcDbEntity
  8
Layer_1
 62
7
100
AcDbSpline
 70
8
 71
3
 72
8
 73
4
 74
0
 40
0
 40
0
 40
0
 40
0
 40
1
 40
1
 40
1
 40
1
 10
19.537306
 20
21.198084
 30
0.0
 10
19.577116
 20
21.241784
 30
0.0
 10
20.224045
 20
21.696734
 30
0.0
 10
20.632846
 20
22.588694
 30
0.0
  0
LINE
  5
16a
100
AcDbEntity
  8
Layer_1
 62
7
100
AcDbLine
 10
20.632846
 20
22.588694
 30
0.0
 11
20.632846
 21
22.589214
 31
0.0
  0
LINE
  5
16b
100
AcDbEntity
  8
Layer_1
 62
7
100
AcDbLine
 10
20.632846
 20
22.589214
 30
0.0
 11
20.632846
 21
22.589734
 31
0.0
  0
LINE
  5
16c
100
AcDbEntity
  8
Layer_1
 62
7
100
AcDbLine
 10
20.632846
 20
22.589734
 30
0.0
 11
20.632846
 21
22.590244
 31
0.0
  0
LINE
  5
16d
100
AcDbEntity
  8
Layer_1
 62
7
100
AcDbLine
 10
20.632846
 20
22.590244
 30
0.0
 11
20.632846
 21
22.590764
 31
0.0
  0
SPLINE
  5
16e
100
AcDbEntity
  8
Layer_1
 62
7
100
AcDbSpline
 70
8
 71
3
 72
8
 73
4
 74
0
 40
0
 40
0
 40
0
 40
0
 40
1
 40
1
 40
1
 40
1
 10
20.632846
 20
22.590764
 30
0.0
 10
20.779758
 20
22.913134
 30
0.0
 10
20.905169
 20
23.106794
 30
0.0
 10
21.003883
 20
23.452204
 30
0.0
  0
SPLINE
  5
16f
100
AcDbEntity
  8
Layer_1
 62
7
100
AcDbSpline
 70
8
 71
3
 72
8
 73
4
 74
0
 40
0
 40
0
 40
0
 40
0
 40
1
 40
1
 40
1
 40
1
 10
21.003883
 20
23.452204
 30
0.0
 10
21.102593
 20
23.797624
 30
0.0
 10
21.090153
 20
24.178174
 30
0.0
 10
21.021453
 20
24.590644
 30
0.0
  0
LINE
  5
170
100
AcDbEntity
  8
Layer_1
 62
7
100
AcDbLine
 10
21.021453
 20
24.590644
 30
0.0
 11
21.021453
 21
24.591154
 31
0.0
  0
LINE
  5
171
100
AcDbEntity
  8
Layer_1
 62
7
100
AcDbLine
 10
21.021453
 20
24.591154
 30
0.0
 11
21.021453
 21
24.591674
 31
0.0
  0
LINE
  5
172
100
AcDbEntity
  8
Layer_1
 62
7
100
AcDbLine
 10
21.021453
 20
24.591674
 30
0.0
 11
21.021453
 21
24.592194
 31
0.0
  0
LINE
  5
173
100
AcDbEntity
  8
Layer_1
 62
7
100
AcDbLine
 10
21.021453
 20
24.592194
 30
0.0
 11
21.021453
 21
24.592704
 31
0.0
  0
SPLINE
  5
174
100
AcDbEntity
  8
Layer_1
 62
7
100
AcDbSpline
 70
8
 71
3
 72
8
 73
4
 74
0
 40
0
 40
0
 40
0
 40
0
 40
1
 40
1
 40
1
 40
1
 10
21.021453
 20
24.592704
 30
0.0
 10
21.013526
 20
24.640054
 30
0.0
 10
21.007380
 20
24.673314
 30
0.0
 10
20.999749
 20
24.717764
 30
0.0
  0
SPLINE
  5
175
100
AcDbEntity
  8
Layer_1
 62
7
100
AcDbSpline
 70
8
 71
3
 72
8
 73
4
 74
0
 40
0
 40
0
 40
0
 40
0
 40
1
 40
1
 40
1
 40
1
 10
20.999749
 20
24.717764
 30
0.0
 10
21.945996
 20
24.948384
 30
0.0
 10
22.859324
 20
25.552754
 30
0.0
 10
23.652300
 20
26.344534
 30
0.0
  0
LINE
  5
176
100
AcDbEntity
  8
Layer_1
 62
7
100
AcDbLine
 10
23.652300
 20
26.344534
 30
0.0
 11
23.652300
 21
26.345054
 31
0.0
  0
LINE
  5
177
100
AcDbEntity
  8
Layer_1
 62
7
100
AcDbLine
 10
23.652300
 20
26.345054
 30
0.0
 11
23.652300
 21
26.345574
 31
0.0
  0
LINE
  5
178
100
AcDbEntity
  8
Layer_1
 62
7
100
AcDbLine
 10
23.652300
 20
26.345574
 30
0.0
 11
23.652300
 21
26.346084
 31
0.0
  0
LINE
  5
179
100
AcDbEntity
  8
Layer_1
 62
7
100
AcDbLine
 10
23.652300
 20
26.346084
 30
0.0
 11
23.652300
 21
26.346604
 31
0.0
  0
SPLINE
  5
17a
100
AcDbEntity
  8
Layer_1
 62
7
100
AcDbSpline
 70
8
 71
3
 72
8
 73
4
 74
0
 40
0
 40
0
 40
0
 40
0
 40
1
 40
1
 40
1
 40
1
 10
23.652300
 20
26.346604
 30
0.0
 10
24.716193
 20
27.410735
 30
0.0
 10
24.949379
 20
28.848038
 30
0.0
 10
24.949379
 20
30.115885
 30
0.0
  0
SPLINE
  5
17b
100
AcDbEntity
  8
Layer_1
 62
7
100
AcDbSpline
 70
8
 71
3
 72
8
 73
4
 74
0
 40
0
 40
0
 40
0
 40
0
 40
1
 40
1
 40
1
 40
1
 10
24.949379
 20
30.115885
 30
0.0
 10
24.949379
 20
31.509523
 30
0.0
 10
24.234468
 20
32.393931
 30
0.0
 10
23.699326
 20
32.860420
 30
0.0
  0
SPLINE
  5
17c
100
AcDbEntity
  8
Layer_1
 62
7
100
AcDbSpline
 70
8
 71
3
 72
8
 73
4
 74
0
 40
0
 40
0
 40
0
 40
0
 40
1
 40
1
 40
1
 40
1
 10
23.699326
 20
32.860420
 30
0.0
 10
23.207685
 20
33.288981
 30
0.0
 10
22.666977
 20
33.354244
 30
0.0
 10
22.275123
 20
33.374084
 30
0.0
  0
SPLINE
  5
17d
100
AcDbEntity
  8
Layer_1
 62
7
100
AcDbSpline
 70
8
 71
3
 72
8
 73
4
 74
0
 40
0
 40
0
 40
0
 40
0
 40
1
 40
1
 40
1
 40
1
 10
22.275123
 20
33.374084
 30
0.0
 10
21.883271
 20
33.393924
 30
0.0
 10
21.564572
 20
33.338944
 30
0.0
 10
21.564572
 20
33.338944
 30
0.0
  0
SPLINE
  5
17e
100
AcDbEntity
  8
Layer_1
 62
7
100
AcDbSpline
 70
8
 71
3
 72
8
 73
4
 74
0
 40
0
 40
0
 40
0
 40
0
 40
1
 40
1
 40
1
 40
1
 10
21.564572
 20
33.338944
 30
0.0
 10
21.509954
 20
33.329666
 30
0.0
 10
21.456322
 20
33.315306
 30
0.0
 10
21.404375
 20
33.296052
 30
0.0
  0
LINE
  5
17f
100
AcDbEntity
  8
Layer_1
 62
7
100
AcDbLine
 10
21.404375
 20
33.296052
 30
0.0
 11
20.279379
 21
32.879540
 31
0.0
  0
LINE
  5
180
100
AcDbEntity
  8
Layer_1
 62
7
100
AcDbLine
 10
20.279379
 20
32.879540
 30
0.0
 11
18.210772
 21
34.872184
 31
0.0
  0
LINE
  5
181
100
AcDbEntity
  8
Layer_1
 62
7
100
AcDbLine
 10
18.210772
 20
34.872184
 30
0.0
 11
16.978289
 21
33.590608
 31
0.0
  0
LINE
  5
182
100
AcDbEntity
  8
Layer_1
 62
7
100
AcDbLine
 10
16.978289
 20
33.590608
 30
0.0
 11
19.447389
 21
31.211942
 31
0.0
  0
SPLINE
  5
183
100
AcDbEntity
  8
Layer_1
 62
7
100
AcDbSpline
 70
8
 71
3
 72
8
 73
4
 74
0
 40
0
 40
0
 40
0
 40
0
 40
1
 40
1
 40
1
 40
1
 10
19.447389
 20
31.211942
 30
0.0
 10
19.693292
 20
30.975334
 30
0.0
 10
20.052872
 20
30.900245
 30
0.0
 10
20.372914
 20
31.018672
 30
0.0
  0
LINE
  5
184
100
AcDbEntity
  8
Layer_1
 62
7
100
AcDbLine
 10
20.372914
 20
31.018672
 30
0.0
 11
21.908220
 21
31.586596
 31
0.0
  0
SPLINE
  5
185
100
AcDbEntity
  8
Layer_1
 62
7
100
AcDbSpline
 70
8
 71
3
 72
8
 73
4
 74
0
 40
0
 40
0
 40
0
 40
0
 40
1
 40
1
 40
1
 40
1
 10
21.908220
 20
31.586596
 30
0.0
 10
21.941720
 20
31.591196
 30
0.0
 10
22.026202
 20
31.604454
 30
0.0
 10
22.185723
 20
31.596414
 30
0.0
  0
SPLINE
  5
186
100
AcDbEntity
  8
Layer_1
 62
7
100
AcDbSpline
 70
8
 71
3
 72
8
 73
4
 74
0
 40
0
 40
0
 40
0
 40
0
 40
1
 40
1
 40
1
 40
1
 10
22.185723
 20
31.596414
 30
0.0
 10
22.373332
 20
31.586914
 30
0.0
 10
22.535054
 20
31.517300
 30
0.0
 10
22.531438
 20
31.520450
 30
0.0
  0
SPLINE
  5
187
100
AcDbEntity
  8
Layer_1
 62
7
100
AcDbSpline
 70
8
 71
3
 72
8
 73
4
 74
0
 40
0
 40
0
 40
0
 40
0
 40
1
 40
1
 40
1
 40
1
 10
22.531438
 20
31.520450
 30
0.0
 10
22.972328
 20
31.136122
 30
0.0
 10
23.170159
 20
31.043438
 30
0.0
 10
23.170159
 20
30.116401
 30
0.0
  0
SPLINE
  5
188
100
AcDbEntity
  8
Layer_1
 62
7
100
AcDbSpline
 70
8
 71
3
 72
8
 73
4
 74
0
 40
0
 40
0
 40
0
 40
0
 40
1
 40
1
 40
1
 40
1
 10
23.170159
 20
30.116401
 30
0.0
 10
23.170159
 20
29.066508
 30
0.0
 10
22.976126
 20
28.186168
 30
0.0
 10
22.394496
 20
27.604410
 30
0.0
  0
SPLINE
  5
189
100
AcDbEntity
  8
Layer_1
 62
7
100
AcDbSpline
 70
8
 71
3
 72
8
 73
4
 74
0
 40
0
 40
0
 40
0
 40
0
 40
1
 40
1
 40
1
 40
1
 10
22.394496
 20
27.604410
 30
0.0
 10
21.694265
 20
26.905234
 30
0.0
 10
20.680263
 20
26.427704
 30
0.0
 10
20.299016
 20
26.397244
 30
0.0
  0
SPLINE
  5
18a
100
AcDbEntity
  8
Layer_1
 62
7
100
AcDbSpline
 70
8
 71
3
 72
8
 73
4
 74
0
 40
0
 40
0
 40
0
 40
0
 40
1
 40
1
 40
1
 40
1
 10
20.299016
 20
26.397244
 30
0.0
 10
20.294365
 20
26.397280
 30
0.0
 10
20.289715
 20
26.397280
 30
0.0
 10
20.285064
 20
26.397244
 30
0.0
  0
SPLINE
  5
18b
100
AcDbEntity
  8
Layer_1
 62
7
100
AcDbSpline
 70
8
 71
3
 72
8
 73
4
 74
0
 40
0
 40
0
 40
0
 40
0
 40
1
 40
1
 40
1
 40
1
 10
20.285064
 20
26.397244
 30
0.0
 10
20.153300
 20
26.384544
 30
0.0
 10
19.380721
 20
26.446714
 30
0.0
 10
18.687745
 20
26.581214
 30
0.0
  0
SPLINE
  5
18c
100
AcDbEntity
  8
Layer_1
 62
7
100
AcDbSpline
 70
8
 71
3
 72
8
 73
4
 74
0
 40
0
 40
0
 40
0
 40
0
 40
1
 40
1
 40
1
 40
1
 10
18.687745
 20
26.581214
 30
0.0
 10
17.994770
 20
26.715684
 30
0.0
 10
17.256758
 20
26.930924
 30
0.0
 10
17.070273
 20
27.016334
 30
0.0
  0
SPLINE
  5
18d
100
AcDbEntity
  8
Layer_1
 62
7
100
AcDbSpline
 70
8
 71
3
 72
8
 73
4
 74
0
 40
0
 40
0
 40
0
 40
0
 40
1
 40
1
 40
1
 40
1
 10
17.070273
 20
27.016334
 30
0.0
 10
16.770677
 20
27.156854
 30
0.0
 10
15.776520
 20
27.672566
 30
0.0
 10
14.822348
 20
28.213675
 30
0.0
  0
SPLINE
  5
18e
100
AcDbEntity
  8
Layer_1
 62
7
100
AcDbSpline
 70
8
 71
3
 72
8
 73
4
 74
0
 40
0
 40
0
 40
0
 40
0
 40
1
 40
1
 40
1
 40
1
 10
14.822348
 20
28.213675
 30
0.0
 10
14.344123
 20
28.484876
 30
0.0
 10
13.869327
 20
28.766412
 30
0.0
 10
13.484445
 20
29.012593
 30
0.0
  0
SPLINE
  5
18f
100
AcDbEntity
  8
Layer_1
 62
7
100
AcDbSpline
 70
8
 71
3
 72
8
 73
4
 74
0
 40
0
 40
0
 40
0
 40
0
 40
1
 40
1
 40
1
 40
1
 10
13.484445
 20
29.012593
 30
0.0
 10
13.099563
 20
29.258774
 30
0.0
 10
12.785285
 20
29.500917
 30
0.0
 10
12.734620
 20
29.551578
 30
0.0
  0
LINE
  5
190
100
AcDbEntity
  8
Layer_1
 62
7
100
AcDbLine
 10
12.734620
 20
29.551578
 30
0.0
 11
12.732553
 21
29.553645
 31
0.0
  0
SPLINE
  5
191
100
AcDbEntity
  8
Layer_1
 62
7
100
AcDbSpline
 70
8
 71
3
 72
8
 73
4
 74
0
 40
0
 40
0
 40
0
 40
0
 40
1
 40
1
 40
1
 40
1
 10
12.732553
 20
29.553645
 30
0.0
 10
12.112410
 20
30.170595
 30
0.0
 10
11.145178
 20
31.406232
 30
0.0
 10
10.990024
 20
32.104394
 30
0.0
  0
SPLINE
  5
192
100
AcDbEntity
  8
Layer_1
 62
7
100
AcDbSpline
 70
8
 71
3
 72
8
 73
4
 74
0
 40
0
 40
0
 40
0
 40
0
 40
1
 40
1
 40
1
 40
1
 10
10.990024
 20
32.104394
 30
0.0
 10
10.860280
 20
32.688218
 30
0.0
 10
10.673894
 20
33.410538
 30
0.0
 10
10.628806
 20
34.051562
 30
0.0
  0
SPLINE
  5
193
100
AcDbEntity
  8
Layer_1
 62
7
100
AcDbSpline
 70
8
 71
3
 72
8
 73
4
 74
0
 40
0
 40
0
 40
0
 40
0
 40
1
 40
1
 40
1
 40
1
 10
10.628806
 20
34.051562
 30
0.0
 10
10.583716
 20
34.692585
 30
0.0
 10
10.690714
 20
35.149261
 30
0.0
 10
10.914059
 20
35.379646
 30
0.0
  0
SPLINE
  5
194
100
AcDbEntity
  8
Layer_1
 62
7
100
AcDbSpline
 70
8
 71
3
 72
8
 73
4
 74
0
 40
0
 40
0
 40
0
 40
0
 40
1
 40
1
 40
1
 40
1
 10
10.914059
 20
35.379646
 30
0.0
 10
11.794854
 20
36.287757
 30
0.0
 10
12.970394
 20
36.988884
 30
0.0
 10
13.585731
 20
37.108223
 30
0.0
  0
SPLINE
  5
195
100
AcDbEntity
  8
Layer_1
 62
7
100
AcDbSpline
 70
8
 71
3
 72
8
 73
4
 74
0
 40
0
 40
0
 40
0
 40
0
 40
1
 40
1
 40
1
 40
1
 10
13.585731
 20
37.108223
 30
0.0
 10
14.443391
 20
37.274557
 30
0.0
 10
15.997840
 20
37.391777
 30
0.0
 10
17.050636
 20
36.874128
 30
0.0
  0
LINE
  5
196
100
AcDbEntity
  8
Layer_1
 62
7
100
AcDbLine
 10
17.050636
 20
36.874128
 30
0.0
 11
17.052703
 21
36.874128
 31
0.0
  0
SPLINE
  5
197
100
AcDbEntity
  8
Layer_1
 62
7
100
AcDbSpline
 70
8
 71
3
 72
8
 73
4
 74
0
 40
0
 40
0
 40
0
 40
0
 40
1
 40
1
 40
1
 40
1
 10
17.052703
 20
36.874128
 30
0.0
 10
18.257923
 20
36.287565
 30
0.0
 10
18.711502
 20
35.550725
 30
0.0
 10
20.117115
 20
34.762629
 30
0.0
  0
LINE
  5
198
100
AcDbEntity
  8
Layer_1
 62
7
100
AcDbLine
 10
20.117115
 20
34.762629
 30
0.0
 11
20.119182
 21
34.760562
 31
0.0
  0
SPLINE
  5
199
100
AcDbEntity
  8
Layer_1
 62
7
100
AcDbSpline
 70
8
 71
3
 72
8
 73
4
 74
0
 40
0
 40
0
 40
0
 40
0
 40
1
 40
1
 40
1
 40
1
 10
20.119182
 20
34.760562
 30
0.0
 10
21.370324
 20
34.063479
 30
0.0
 10
22.608569
 20
33.371962
 30
0.0
 10
24.285336
 20
33.161177
 30
0.0
  0
SPLINE
  5
19a
100
AcDbEntity
  8
Layer_1
 62
7
100
AcDbSpline
 70
8
 71
3
 72
8
 73
4
 74
0
 40
0
 40
0
 40
0
 40
0
 40
1
 40
1
 40
1
 40
1
 10
24.285336
 20
33.161177
 30
0.0
 10
25.131149
 20
33.051307
 30
0.0
 10
27.232987
 20
32.970825
 30
0.0
 10
29.101580
 20
34.629821
 30
0.0
  0
SPLINE
  5
19b
100
AcDbEntity
  8
Layer_1
 62
7
100
AcDbSpline
 70
8
 71
3
 72
8
 73
4
 74
0
 40
0
 40
0
 40
0
 40
0
 40
1
 40
1
 40
1
 40
1
 10
29.101580
 20
34.629821
 30
0.0
 10
29.128363
 20
34.653089
 30
0.0
 10
29.153729
 20
34.677938
 30
0.0
 10
29.177544
 20
34.704235
 30
0.0
  0
SPLINE
  5
19c
100
AcDbEntity
  8
Layer_1
 62
7
100
AcDbSpline
 70
8
 71
3
 72
8
 73
4
 74
0
 40
0
 40
0
 40
0
 40
0
 40
1
 40
1
 40
1
 40
1
 10
29.177544
 20
34.704235
 30
0.0
 10
29.177544
 20
34.704235
 30
0.0
 10
29.875847
 20
35.492783
 30
0.0
 10
30.650323
 20
36.389404
 30
0.0
  0
SPLINE
  5
19d
100
AcDbEntity
  8
Layer_1
 62
7
100
AcDbSpline
 70
8
 71
3
 72
8
 73
4
 74
0
 40
0
 40
0
 40
0
 40
0
 40
1
 40
1
 40
1
 40
1
 10
30.650323
 20
36.389404
 30
0.0
 10
31.424799
 20
37.286024
 30
0.0
 10
32.246865
 20
38.244259
 30
0.0
 10
32.623329
 20
38.772204
 30
0.0
  0
LINE
  5
19e
100
AcDbEntity
  8
Layer_1
 62
7
100
AcDbLine
 10
32.623329
 20
38.772204
 30
0.0
 11
32.621262
 21
38.772204
 31
0.0
  0
SPLINE
  5
19f
100
AcDbEntity
  8
Layer_1
 62
7
100
AcDbSpline
 70
8
 71
3
 72
8
 73
4
 74
0
 40
0
 40
0
 40
0
 40
0
 40
1
 40
1
 40
1
 40
1
 10
32.621262
 20
38.772204
 30
0.0
 10
33.339146
 20
39.776516
 30
0.0
 10
34.453986
 20
41.839057
 30
0.0
 10
34.841798
 20
42.961612
 30
0.0
  0
LINE
  5
1a0
100
AcDbEntity
  8
Layer_1
 62
7
100
AcDbLine
 10
34.841798
 20
42.961612
 30
0.0
 11
34.841798
 21
42.963679
 31
0.0
  0
SPLINE
  5
1a1
100
AcDbEntity
  8
Layer_1
 62
7
100
AcDbSpline
 70
8
 71
3
 72
8
 73
4
 74
0
 40
0
 40
0
 40
0
 40
0
 40
1
 40
1
 40
1
 40
1
 10
34.841798
 20
42.963679
 30
0.0
 10
35.003561
 20
43.430550
 30
0.0
 10
35.223135
 20
44.127242
 30
0.0
 10
35.437627
 20
44.778556
 30
0.0
  0
SPLINE
  5
1a2
100
AcDbEntity
  8
Layer_1
 62
7
100
AcDbSpline
 70
8
 71
3
 72
8
 73
4
 74
0
 40
0
 40
0
 40
0
 40
0
 40
1
 40
1
 40
1
 40
1
 10
35.437627
 20
44.778556
 30
0.0
 10
35.652068
 20
45.429716
 30
0.0
 10
35.890875
 20
46.080962
 30
0.0
 10
35.954908
 20
46.209993
 30
0.0
  0
LINE
  5
1a3
100
AcDbEntity
  8
Layer_1
 62
7
100
AcDbLine
 10
35.954908
 20
46.209993
 30
0.0
 11
35.954908
 21
46.212060
 31
0.0
  0
SPLINE
  5
1a4
100
AcDbEntity
  8
Layer_1
 62
7
100
AcDbSpline
 70
8
 71
3
 72
8
 73
4
 74
0
 40
0
 40
0
 40
0
 40
0
 40
1
 40
1
 40
1
 40
1
 10
35.954908
 20
46.212060
 30
0.0
 10
36.229971
 20
46.761936
 30
0.0
 10
36.924424
 20
47.970734
 30
0.0
 10
37.216847
 20
48.231575
 30
0.0
  0
LINE
  5
1a5
100
AcDbEntity
  8
Layer_1
 62
7
100
AcDbLine
 10
37.216847
 20
48.231575
 30
0.0
 11
37.220464
 21
48.235192
 31
0.0
  0
SPLINE
  5
1a6
100
AcDbEntity
  8
Layer_1
 62
7
100
AcDbSpline
 70
8
 71
3
 72
8
 73
4
 74
0
 40
0
 40
0
 40
0
 40
0
 40
1
 40
1
 40
1
 40
1
 10
37.220464
 20
48.235192
 30
0.0
 10
37.570195
 20
48.549882
 30
0.0
 10
38.025377
 20
49.029411
 30
0.0
 10
38.566635
 20
49.499198
 30
0.0
  0
SPLINE
  5
1a7
100
AcDbEntity
  8
Layer_1
 62
7
100
AcDbSpline
 70
8
 71
3
 72
8
 73
4
 74
0
 40
0
 40
0
 40
0
 40
0
 40
1
 40
1
 40
1
 40
1
 10
38.566635
 20
49.499198
 30
0.0
 10
39.107436
 20
49.968587
 30
0.0
 10
39.723073
 20
50.397757
 30
0.0
 10
40.179457
 20
50.557531
 30
0.0
  0
SPLINE
  5
1a8
100
AcDbEntity
  8
Layer_1
 62
7
100
AcDbSpline
 70
8
 71
3
 72
8
 73
4
 74
0
 40
0
 40
0
 40
0
 40
0
 40
1
 40
1
 40
1
 40
1
 10
40.179457
 20
50.557531
 30
0.0
 10
41.608027
 20
51.053324
 30
0.0
 10
42.828806
 20
51.734973
 30
0.0
 10
43.644361
 20
51.823087
 30
0.0
  0
LINE
  5
1a9
100
AcDbEntity
  8
Layer_1
 62
7
100
AcDbLine
 10
43.644361
 20
51.823087
 30
0.0
 11
43.646428
 21
51.823087
 31
0.0
  0
SPLINE
  5
1aa
100
AcDbEntity
  8
Layer_1
 62
7
100
AcDbSpline
 70
8
 71
3
 72
8
 73
4
 74
0
 40
0
 40
0
 40
0
 40
0
 40
1
 40
1
 40
1
 40
1
 10
43.646428
 20
51.823087
 30
0.0
 10
44.818308
 20
51.952748
 30
0.0
 10
45.160212
 20
52.078580
 30
0.0
 10
45.966700
 20
51.954345
 30
0.0
  0
SPLINE
  5
1ab
100
AcDbEntity
  8
Layer_1
 62
7
100
AcDbSpline
 70
8
 71
3
 72
8
 73
4
 74
0
 40
0
 40
0
 40
0
 40
0
 40
1
 40
1
 40
1
 40
1
 10
45.966700
 20
51.954345
 30
0.0
 10
46.878371
 20
51.805824
 30
0.0
 10
47.306757
 20
51.693974
 30
0.0
 10
47.812582
 20
51.358516
 30
0.0
  0
SPLINE
  5
1ac
100
AcDbEntity
  8
Layer_1
 62
7
100
AcDbSpline
 70
8
 71
3
 72
8
 73
4
 74
0
 40
0
 40
0
 40
0
 40
0
 40
1
 40
1
 40
1
 40
1
 10
47.812582
 20
51.358516
 30
0.0
 10
48.025969
 20
51.216649
 30
0.0
 10
48.036953
 20
51.176520
 30
0.0
 10
48.074065
 20
51.094966
 30
0.0
  0
SPLINE
  5
1ad
100
AcDbEntity
  8
Layer_1
 62
7
100
AcDbSpline
 70
8
 71
3
 72
8
 73
4
 74
0
 40
0
 40
0
 40
0
 40
0
 40
1
 40
1
 40
1
 40
1
 10
48.074065
 20
51.094966
 30
0.0
 10
48.111175
 20
51.013416
 30
0.0
 10
48.151583
 20
50.824194
 30
0.0
 10
48.246148
 20
50.504821
 30
0.0
  0
LINE
  5
1ae
100
AcDbEntity
  8
Layer_1
 62
7
100
AcDbLine
 10
48.246148
 20
50.504821
 30
0.0
 11
48.244081
 21
50.506888
 31
0.0
  0
SPLINE
  5
1af
100
AcDbEntity
  8
Layer_1
 62
7
100
AcDbSpline
 70
8
 71
3
 72
8
 73
4
 74
0
 40
0
 40
0
 40
0
 40
0
 40
1
 40
1
 40
1
 40
1
 10
48.244081
 20
50.506888
 30
0.0
 10
48.230361
 20
50.553628
 30
0.0
 10
48.262454
 20
50.128688
 30
0.0
 10
48.206874
 20
49.766882
 30
0.0
  0
SPLINE
  5
1b0
100
AcDbEntity
  8
Layer_1
 62
7
100
AcDbSpline
 70
8
 71
3
 72
8
 73
4
 74
0
 40
0
 40
0
 40
0
 40
0
 40
1
 40
1
 40
1
 40
1
 10
48.206874
 20
49.766882
 30
0.0
 10
48.151294
 20
49.405075
 30
0.0
 10
48.008845
 20
48.983326
 30
0.0
 10
48.027556
 20
49.020674
 30
0.0
  0
LINE
  5
1b1
100
AcDbEntity
  8
Layer_1
 62
7
100
AcDbLine
 10
48.027556
 20
49.020674
 30
0.0
 11
48.027556
 21
49.018607
 31
0.0
  0
SPLINE
  5
1b2
100
AcDbEntity
  8
Layer_1
 62
7
100
AcDbSpline
 70
8
 71
3
 72
8
 73
4
 74
0
 40
0
 40
0
 40
0
 40
0
 40
1
 40
1
 40
1
 40
1
 10
48.027556
 20
49.018607
 30
0.0
 10
47.916555
 20
48.795441
 30
0.0
 10
47.187586
 20
47.626493
 30
0.0
 10
46.775436
 20
47.192362
 30
0.0
  0
LINE
  5
1b3
100
AcDbEntity
  8
Layer_1
 62
7
100
AcDbLine
 10
46.775436
 20
47.192362
 30
0.0
 11
46.775436
 21
47.190295
 31
0.0
  0
SPLINE
  5
1b4
100
AcDbEntity
  8
Layer_1
 62
7
100
AcDbSpline
 70
8
 71
3
 72
8
 73
4
 74
0
 40
0
 40
0
 40
0
 40
0
 40
1
 40
1
 40
1
 40
1
 10
46.775436
 20
47.190295
 30
0.0
 10
46.359512
 20
46.751427
 30
0.0
 10
44.361458
 20
45.063480
 30
0.0
 10
43.636610
 20
44.627660
 30
0.0
  0
LINE
  5
1b5
100
AcDbEntity
  8
Layer_1
 62
7
100
AcDbLine
 10
43.636610
 20
44.627660
 30
0.0
 11
43.636610
 21
44.626110
 31
0.0
  0
SPLINE
  5
1b6
100
AcDbEntity
  8
Layer_1
 62
7
100
AcDbSpline
 70
8
 71
3
 72
8
 73
4
 74
0
 40
0
 40
0
 40
0
 40
0
 40
1
 40
1
 40
1
 40
1
 10
43.636610
 20
44.626110
 30
0.0
 10
42.676765
 20
44.048401
 30
0.0
 10
41.125162
 20
43.017612
 30
0.0
 10
40.310715
 20
42.309456
 30
0.0
  0
SPLINE
  5
1b7
100
AcDbEntity
  8
Layer_1
 62
7
100
AcDbSpline
 70
8
 71
3
 72
8
 73
4
 74
0
 40
0
 40
0
 40
0
 40
0
 40
1
 40
1
 40
1
 40
1
 10
40.310715
 20
42.309456
 30
0.0
 10
39.566970
 20
41.663546
 30
0.0
 10
37.830746
 20
40.090422
 30
0.0
 10
37.138815
 20
39.192333
 30
0.0
  0
SPLINE
  5
1b8
100
AcDbEntity
  8
Layer_1
 62
7
100
AcDbSpline
 70
8
 71
3
 72
8
 73
4
 74
0
 40
0
 40
0
 40
0
 40
0
 40
1
 40
1
 40
1
 40
1
 10
37.138815
 20
39.192333
 30
0.0
 10
36.878603
 20
38.856800
 30
0.0
 10
36.361517
 20
38.185659
 30
0.0
 10
35.867058
 20
37.534037
 30
0.0
  0
SPLINE
  5
1b9
100
AcDbEntity
  8
Layer_1
 62
7
100
AcDbSpline
 70
8
 71
3
 72
8
 73
4
 74
0
 40
0
 40
0
 40
0
 40
0
 40
1
 40
1
 40
1
 40
1
 10
35.867058
 20
37.534037
 30
0.0
 10
35.371952
 20
36.881560
 30
0.0
 10
34.932669
 20
36.305487
 30
0.0
 10
34.711057
 20
35.950154
 30
0.0
  0
LINE
  5
1ba
100
AcDbEntity
  8
Layer_1
 62
7
100
AcDbLine
 10
34.711057
 20
35.950154
 30
0.0
 11
34.708990
 21
35.946020
 31
0.0
  0
SPLINE
  5
1bb
100
AcDbEntity
  8
Layer_1
 62
7
100
AcDbSpline
 70
8
 71
3
 72
8
 73
4
 74
0
 40
0
 40
0
 40
0
 40
0
 40
1
 40
1
 40
1
 40
1
 10
34.708990
 20
35.946020
 30
0.0
 10
34.372725
 20
35.401902
 30
0.0
 10
33.364417
 20
33.665800
 30
0.0
 10
32.892563
 20
32.653198
 30
0.0
  0
SPLINE
  5
1bc
100
AcDbEntity
  8
Layer_1
 62
7
100
AcDbSpline
 70
8
 71
3
 72
8
 73
4
 74
0
 40
0
 40
0
 40
0
 40
0
 40
1
 40
1
 40
1
 40
1
 10
32.892563
 20
32.653198
 30
0.0
 10
32.395361
 20
31.590317
 30
0.0
 10
32.038347
 20
30.190245
 30
0.0
 10
32.076075
 20
28.985204
 30
0.0
  0
SPLINE
  5
1bd
100
AcDbEntity
  8
Layer_1
 62
7
100
AcDbSpline
 70
8
 71
3
 72
8
 73
4
 74
0
 40
0
 40
0
 40
0
 40
0
 40
1
 40
1
 40
1
 40
1
 10
32.076075
 20
28.985204
 30
0.0
 10
32.110625
 20
27.845981
 30
0.0
 10
32.418641
 20
26.577294
 30
0.0
 10
32.827967
 20
25.682564
 30
0.0
  0
SPLINE
  5
1be
100
AcDbEntity
  8
Layer_1
 62
7
100
AcDbSpline
 70
8
 71
3
 72
8
 73
4
 74
0
 40
0
 40
0
 40
0
 40
0
 40
1
 40
1
 40
1
 40
1
 10
32.827967
 20
25.682564
 30
0.0
 10
33.166976
 20
24.938624
 30
0.0
 10
33.735181
 20
23.658674
 30
0.0
 10
34.177756
 20
22.996944
 30
0.0
  0
SPLINE
  5
1bf
100
AcDbEntity
  8
Layer_1
 62
7
100
AcDbSpline
 70
8
 71
3
 72
8
 73
4
 74
0
 40
0
 40
0
 40
0
 40
0
 40
1
 40
1
 40
1
 40
1
 10
34.177756
 20
22.996944
 30
0.0
 10
34.186256
 20
22.984244
 30
0.0
 10
34.351237
 20
22.593504
 30
0.0
 10
34.446990
 20
22.192334
 30
0.0
  0
SPLINE
  5
1c0
100
AcDbEntity
  8
Layer_1
 62
7
100
AcDbSpline
 70
8
 71
3
 72
8
 73
4
 74
0
 40
0
 40
0
 40
0
 40
0
 40
1
 40
1
 40
1
 40
1
 10
34.446990
 20
22.192334
 30
0.0
 10
34.542740
 20
21.791164
 30
0.0
 10
34.615479
 20
21.340684
 30
0.0
 10
34.640777
 20
21.063204
 30
0.0
  0
LINE
  5
1c1
100
AcDbEntity
  8
Layer_1
 62
7
100
AcDbLine
 10
34.640777
 20
21.063204
 30
0.0
 11
34.640777
 21
21.061654
 31
0.0
  0
SPLINE
  5
1c2
100
AcDbEntity
  8
Layer_1
 62
7
100
AcDbSpline
 70
8
 71
3
 72
8
 73
4
 74
0
 40
0
 40
0
 40
0
 40
0
 40
1
 40
1
 40
1
 40
1
 10
34.640777
 20
21.061654
 30
0.0
 10
34.671397
 20
20.732284
 30
0.0
 10
34.401596
 20
18.934664
 30
0.0
 10
34.347771
 20
18.774454
 30
0.0
  0
LINE
  5
1c3
100
AcDbEntity
  8
Layer_1
 62
7
100
AcDbLine
 10
34.347771
 20
18.774454
 30
0.0
 11
34.345704
 21
18.770324
 31
0.0
  0
SPLINE
  5
1c4
100
AcDbEntity
  8
Layer_1
 62
7
100
AcDbSpline
 70
8
 71
3
 72
8
 73
4
 74
0
 40
0
 40
0
 40
0
 40
0
 40
1
 40
1
 40
1
 40
1
 10
34.345704
 20
18.770324
 30
0.0
 10
34.273964
 20
18.552004
 30
0.0
 10
33.445705
 20
16.773064
 30
0.0
 10
33.269284
 20
16.479504
 30
0.0
  0
SPLINE
  5
1c5
100
AcDbEntity
  8
Layer_1
 62
7
100
AcDbSpline
 70
8
 71
3
 72
8
 73
4
 74
0
 40
0
 40
0
 40
0
 40
0
 40
1
 40
1
 40
1
 40
1
 10
33.269284
 20
16.479504
 30
0.0
 10
33.047755
 20
16.113654
 30
0.0
 10
32.337212
 20
15.110574
 30
0.0
 10
31.988225
 20
14.600554
 30
0.0
  0
SPLINE
  5
1c6
100
AcDbEntity
  8
Layer_1
 62
7
100
AcDbSpline
 70
8
 71
3
 72
8
 73
4
 74
0
 40
0
 40
0
 40
0
 40
0
 40
1
 40
1
 40
1
 40
1
 10
31.988225
 20
14.600554
 30
0.0
 10
31.896315
 20
14.468514
 30
0.0
 10
31.479227
 20
13.976774
 30
0.0
 10
31.124712
 20
13.580974
 30
0.0
  0
SPLINE
  5
1c7
100
AcDbEntity
  8
Layer_1
 62
7
100
AcDbSpline
 70
8
 71
3
 72
8
 73
4
 74
0
 40
0
 40
0
 40
0
 40
0
 40
1
 40
1
 40
1
 40
1
 10
31.124712
 20
13.580974
 30
0.0
 10
30.769072
 20
13.183914
 30
0.0
 10
30.452919
 20
12.844584
 30
0.0
 10
30.452919
 20
12.844584
 30
0.0
  0
LINE
  5
1c8
100
AcDbEntity
  8
Layer_1
 62
7
100
AcDbLine
 10
30.452919
 20
12.844584
 30
0.0
 11
31.755681
 21
11.631744
 31
0.0
  0
SPLINE
  5
1c9
100
AcDbEntity
  8
Layer_1
 62
7
100
AcDbSpline
 70
8
 71
3
 72
8
 73
4
 74
0
 40
0
 40
0
 40
0
 40
0
 40
1
 40
1
 40
1
 40
1
 10
31.755681
 20
11.631744
 30
0.0
 10
31.755681
 20
11.631744
 30
0.0
 10
32.080192
 20
11.981494
 30
0.0
 10
32.449179
 20
12.393454
 30
0.0
  0
SPLINE
  5
1ca
100
AcDbEntity
  8
Layer_1
 62
7
100
AcDbSpline
 70
8
 71
3
 72
8
 73
4
 74
0
 40
0
 40
0
 40
0
 40
0
 40
1
 40
1
 40
1
 40
1
 10
32.449179
 20
12.393454
 30
0.0
 10
32.818167
 20
12.805404
 30
0.0
 10
33.208150
 20
13.238404
 30
0.0
 10
33.453252
 20
13.592344
 30
0.0
  0
LINE
  5
1cb
100
AcDbEntity
  8
Layer_1
 62
7
100
AcDbLine
 10
33.453252
 20
13.592344
 30
0.0
 11
33.454803
 21
13.596484
 31
0.0
  0
SPLINE
  5
1cc
100
AcDbEntity
  8
Layer_1
 62
7
100
AcDbSpline
 70
8
 71
3
 72
8
 73
4
 74
0
 40
0
 40
0
 40
0
 40
0
 40
1
 40
1
 40
1
 40
1
 10
33.454803
 20
13.596484
 30
0.0
 10
33.457402
 20
13.600274
 30
0.0
 10
33.463007
 20
13.608124
 30
0.0
 10
33.465655
 20
13.611984
 30
0.0
  0
SPLINE
  5
1cd
100
AcDbEntity
  8
Layer_1
 62
7
100
AcDbSpline
 70
8
 71
3
 72
8
 73
4
 74
0
 40
0
 40
0
 40
0
 40
0
 40
1
 40
1
 40
1
 40
1
 10
33.465655
 20
13.611984
 30
0.0
 10
33.646115
 20
13.113014
 30
0.0
 10
33.984180
 20
12.203364
 30
0.0
 10
34.361207
 20
11.551644
 30
0.0
  0
SPLINE
  5
1ce
100
AcDbEntity
  8
Layer_1
 62
7
100
AcDbSpline
 70
8
 71
3
 72
8
 73
4
 74
0
 40
0
 40
0
 40
0
 40
0
 40
1
 40
1
 40
1
 40
1
 10
34.361207
 20
11.551644
 30
0.0
 10
34.559191
 20
11.208874
 30
0.0
 10
34.890344
 20
10.707024
 30
0.0
 10
35.200949
 20
10.239064
 30
0.0
  0
SPLINE
  5
1cf
100
AcDbEntity
  8
Layer_1
 62
7
100
AcDbSpline
 70
8
 71
3
 72
8
 73
4
 74
0
 40
0
 40
0
 40
0
 40
0
 40
1
 40
1
 40
1
 40
1
 10
35.200949
 20
10.239064
 30
0.0
 10
35.511553
 20
9.771114
 30
0.0
 10
35.847041
 20
9.254124
 30
0.0
 10
35.822100
 20
9.297514
 30
0.0
  0
SPLINE
  5
1d0
100
AcDbEntity
  8
Layer_1
 62
7
100
AcDbSpline
 70
8
 71
3
 72
8
 73
4
 74
0
 40
0
 40
0
 40
0
 40
0
 40
1
 40
1
 40
1
 40
1
 10
35.822100
 20
9.297514
 30
0.0
 10
35.981484
 20
9.018434
 30
0.0
 10
36.046448
 20
8.988904
 30
0.0
 10
36.191586
 20
8.821064
 30
0.0
  0
SPLINE
  5
1d1
100
AcDbEntity
  8
Layer_1
 62
7
100
AcDbSpline
 70
8
 71
3
 72
8
 73
4
 74
0
 40
0
 40
0
 40
0
 40
0
 40
1
 40
1
 40
1
 40
1
 10
36.191586
 20
8.821064
 30
0.0
 10
36.337097
 20
8.652804
 30
0.0
 10
36.512996
 20
8.458214
 30
0.0
 10
36.683546
 20
8.270194
 30
0.0
  0
SPLINE
  5
1d2
100
AcDbEntity
  8
Layer_1
 62
7
100
AcDbSpline
 70
8
 71
3
 72
8
 73
4
 74
0
 40
0
 40
0
 40
0
 40
0
 40
1
 40
1
 40
1
 40
1
 10
36.683546
 20
8.270194
 30
0.0
 10
37.024648
 20
7.894154
 30
0.0
 10
37.347588
 20
7.547754
 30
0.0
 10
37.347588
 20
7.547754
 30
0.0
  0
LINE
  5
1d3
100
AcDbEntity
  8
Layer_1
 62
7
100
AcDbLine
 10
37.347588
 20
7.547754
 30
0.0
 11
38.648284
 21
8.760604
 31
0.0
  0
SPLINE
  5
1d4
100
AcDbEntity
  8
Layer_1
 62
7
100
AcDbSpline
 70
8
 71
3
 72
8
 73
4
 74
0
 40
0
 40
0
 40
0
 40
0
 40
1
 40
1
 40
1
 40
1
 10
38.648284
 20
8.760604
 30
0.0
 10
38.648284
 20
8.760604
 30
0.0
 10
38.330269
 20
9.101084
 30
0.0
 10
37.999745
 20
9.465464
 30
0.0
  0
SPLINE
  5
1d5
100
AcDbEntity
  8
Layer_1
 62
7
100
AcDbSpline
 70
8
 71
3
 72
8
 73
4
 74
0
 40
0
 40
0
 40
0
 40
0
 40
1
 40
1
 40
1
 40
1
 10
37.999745
 20
9.465464
 30
0.0
 10
37.834482
 20
9.647664
 30
0.0
 10
37.666332
 20
9.836064
 30
0.0
 10
37.537241
 20
9.985334
 30
0.0
  0
SPLINE
  5
1d6
100
AcDbEntity
  8
Layer_1
 62
7
100
AcDbSpline
 70
8
 71
3
 72
8
 73
4
 74
0
 40
0
 40
0
 40
0
 40
0
 40
1
 40
1
 40
1
 40
1
 10
37.537241
 20
9.985334
 30
0.0
 10
37.408150
 20
10.134614
 30
0.0
 10
37.267591
 20
10.357464
 30
0.0
 10
37.367225
 20
10.182734
 30
0.0
  0
LINE
  5
1d7
100
AcDbEntity
  8
Layer_1
 62
7
100
AcDbLine
 10
37.367225
 20
10.182734
 30
0.0
 11
37.365158
 21
10.184284
 31
0.0
  0
SPLINE
  5
1d8
100
AcDbEntity
  8
Layer_1
 62
7
100
AcDbSpline
 70
8
 71
3
 72
8
 73
4
 74
0
 40
0
 40
0
 40
0
 40
0
 40
1
 40
1
 40
1
 40
1
 10
37.365158
 20
10.184284
 30
0.0
 10
37.217978
 20
10.440384
 30
0.0
 10
36.990369
 20
10.761234
 30
0.0
 10
36.683546
 20
11.223494
 30
0.0
  0
SPLINE
  5
1d9
100
AcDbEntity
  8
Layer_1
 62
7
100
AcDbSpline
 70
8
 71
3
 72
8
 73
4
 74
0
 40
0
 40
0
 40
0
 40
0
 40
1
 40
1
 40
1
 40
1
 10
36.683546
 20
11.223494
 30
0.0
 10
36.376724
 20
11.685744
 30
0.0
 10
36.036408
 20
12.206604
 30
0.0
 10
35.900131
 20
12.442544
 30
0.0
  0
SPLINE
  5
1da
100
AcDbEntity
  8
Layer_1
 62
7
100
AcDbSpline
 70
8
 71
3
 72
8
 73
4
 74
0
 40
0
 40
0
 40
0
 40
0
 40
1
 40
1
 40
1
 40
1
 10
35.900131
 20
12.442544
 30
0.0
 10
35.650333
 20
12.874334
 30
0.0
 10
35.231438
 20
13.957664
 30
0.0
 10
35.082093
 20
14.372144
 30
0.0
  0
LINE
  5
1db
100
AcDbEntity
  8
Layer_1
 62
7
100
AcDbLine
 10
35.082093
 20
14.372144
 30
0.0
 11
35.082093
 21
14.374214
 31
0.0
  0
SPLINE
  5
1dc
100
AcDbEntity
  8
Layer_1
 62
7
100
AcDbSpline
 70
8
 71
3
 72
8
 73
4
 74
0
 40
0
 40
0
 40
0
 40
0
 40
1
 40
1
 40
1
 40
1
 10
35.082093
 20
14.374214
 30
0.0
 10
34.983414
 20
14.648904
 30
0.0
 10
34.826484
 20
15.079984
 30
0.0
 10
34.702788
 20
15.419624
 30
0.0
  0
SPLINE
  5
1dd
100
AcDbEntity
  8
Layer_1
 62
7
100
AcDbSpline
 70
8
 71
3
 72
8
 73
4
 74
0
 40
0
 40
0
 40
0
 40
0
 40
1
 40
1
 40
1
 40
1
 10
34.702788
 20
15.419624
 30
0.0
 10
34.730930
 20
15.464204
 30
0.0
 10
34.768235
 20
15.519204
 30
0.0
 10
34.792705
 20
15.559664
 30
0.0
  0
LINE
  5
1de
100
AcDbEntity
  8
Layer_1
 62
7
100
AcDbLine
 10
34.792705
 20
15.559664
 30
0.0
 11
34.794772
 21
15.561214
 31
0.0
  0
SPLINE
  5
1df
100
AcDbEntity
  8
Layer_1
 62
7
100
AcDbSpline
 70
8
 71
3
 72
8
 73
4
 74
0
 40
0
 40
0
 40
0
 40
0
 40
1
 40
1
 40
1
 40
1
 10
34.794772
 20
15.561214
 30
0.0
 10
35.167663
 20
16.181704
 30
0.0
 10
35.801856
 20
17.501144
 30
0.0
 10
36.035007
 20
18.208084
 30
0.0
  0
LINE
  5
1e0
100
AcDbEntity
  8
Layer_1
 62
7
100
AcDbLine
 10
36.035007
 20
18.208084
 30
0.0
 11
36.035007
 21
18.210154
 31
0.0
  0
SPLINE
  5
1e1
100
AcDbEntity
  8
Layer_1
 62
7
100
AcDbSpline
 70
8
 71
3
 72
8
 73
4
 74
0
 40
0
 40
0
 40
0
 40
0
 40
1
 40
1
 40
1
 40
1
 10
36.035007
 20
18.210154
 30
0.0
 10
36.288339
 20
18.964984
 30
0.0
 10
36.505210
 20
20.220904
 30
0.0
 10
36.412245
 20
21.225474
 30
0.0
  0
SPLINE
  5
1e2
100
AcDbEntity
  8
Layer_1
 62
7
100
AcDbSpline
 70
8
 71
3
 72
8
 73
4
 74
0
 40
0
 40
0
 40
0
 40
0
 40
1
 40
1
 40
1
 40
1
 10
36.412245
 20
21.225474
 30
0.0
 10
36.376425
 20
21.618384
 30
0.0
 10
36.294851
 20
22.113624
 30
0.0
 10
36.177634
 20
22.604714
 30
0.0
  0
SPLINE
  5
1e3
100
AcDbEntity
  8
Layer_1
 62
7
100
AcDbSpline
 70
8
 71
3
 72
8
 73
4
 74
0
 40
0
 40
0
 40
0
 40
0
 40
1
 40
1
 40
1
 40
1
 10
36.177634
 20
22.604714
 30
0.0
 10
36.060418
 20
23.095804
 30
0.0
 10
35.953506
 20
23.543464
 30
0.0
 10
35.658286
 20
23.985514
 30
0.0
  0
SPLINE
  5
1e4
100
AcDbEntity
  8
Layer_1
 62
7
100
AcDbSpline
 70
8
 71
3
 72
8
 73
4
 74
0
 40
0
 40
0
 40
0
 40
0
 40
1
 40
1
 40
1
 40
1
 10
35.658286
 20
23.985514
 30
0.0
 10
35.490024
 20
24.237104
 30
0.0
 10
34.775058
 20
25.699804
 30
0.0
 10
34.445440
 20
26.423084
 30
0.0
  0
SPLINE
  5
1e5
100
AcDbEntity
  8
Layer_1
 62
7
100
AcDbSpline
 70
8
 71
3
 72
8
 73
4
 74
0
 40
0
 40
0
 40
0
 40
0
 40
1
 40
1
 40
1
 40
1
 10
34.445440
 20
26.423084
 30
0.0
 10
34.184337
 20
26.993824
 30
0.0
 10
33.880005
 20
28.225261
 30
0.0
 10
33.855295
 20
29.039981
 30
0.0
  0
SPLINE
  5
1e6
100
AcDbEntity
  8
Layer_1
 62
7
100
AcDbSpline
 70
8
 71
3
 72
8
 73
4
 74
0
 40
0
 40
0
 40
0
 40
0
 40
1
 40
1
 40
1
 40
1
 10
33.855295
 20
29.039981
 30
0.0
 10
33.831895
 20
29.787417
 30
0.0
 10
34.145335
 20
31.132864
 30
0.0
 10
34.503834
 20
31.899238
 30
0.0
  0
LINE
  5
1e7
100
AcDbEntity
  8
Layer_1
 62
7
100
AcDbLine
 10
34.503834
 20
31.899238
 30
0.0
 11
34.503834
 21
31.899755
 31
0.0
  0
LINE
  5
1e8
100
AcDbEntity
  8
Layer_1
 62
7
100
AcDbLine
 10
34.503834
 20
31.899755
 30
0.0
 11
34.503834
 21
31.900272
 31
0.0
  0
LINE
  5
1e9
100
AcDbEntity
  8
Layer_1
 62
7
100
AcDbLine
 10
34.503834
 20
31.900272
 30
0.0
 11
34.503834
 21
31.900789
 31
0.0
  0
LINE
  5
1ea
100
AcDbEntity
  8
Layer_1
 62
7
100
AcDbLine
 10
34.503834
 20
31.900789
 30
0.0
 11
34.503834
 21
31.901305
 31
0.0
  0
SPLINE
  5
1eb
100
AcDbEntity
  8
Layer_1
 62
7
100
AcDbSpline
 70
8
 71
3
 72
8
 73
4
 74
0
 40
0
 40
0
 40
0
 40
0
 40
1
 40
1
 40
1
 40
1
 10
34.503834
 20
31.901305
 30
0.0
 10
34.884010
 20
32.717654
 30
0.0
 10
35.948645
 20
34.568483
 30
0.0
 10
36.220525
 20
35.008609
 30
0.0
  0
LINE
  5
1ec
100
AcDbEntity
  8
Layer_1
 62
7
100
AcDbLine
 10
36.220525
 20
35.008609
 30
0.0
 11
36.222592
 21
35.010676
 31
0.0
  0
SPLINE
  5
1ed
100
AcDbEntity
  8
Layer_1
 62
7
100
AcDbSpline
 70
8
 71
3
 72
8
 73
4
 74
0
 40
0
 40
0
 40
0
 40
0
 40
1
 40
1
 40
1
 40
1
 10
36.222592
 20
35.010676
 30
0.0
 10
36.306752
 20
35.145266
 30
0.0
 10
36.795399
 20
35.817626
 30
0.0
 10
37.282993
 20
36.460200
 30
0.0
  0
SPLINE
  5
1ee
100
AcDbEntity
  8
Layer_1
 62
7
100
AcDbSpline
 70
8
 71
3
 72
8
 73
4
 74
0
 40
0
 40
0
 40
0
 40
0
 40
1
 40
1
 40
1
 40
1
 10
37.282993
 20
36.460200
 30
0.0
 10
37.771327
 20
37.103752
 30
0.0
 10
38.289245
 20
37.772186
 30
0.0
 10
38.546998
 20
38.104544
 30
0.0
  0
LINE
  5
1ef
100
AcDbEntity
  8
Layer_1
 62
7
100
AcDbLine
 10
38.546998
 20
38.104544
 30
0.0
 11
38.549065
 21
38.106611
 31
0.0
  0
SPLINE
  5
1f0
100
AcDbEntity
  8
Layer_1
 62
7
100
AcDbSpline
 70
8
 71
3
 72
8
 73
4
 74
0
 40
0
 40
0
 40
0
 40
0
 40
1
 40
1
 40
1
 40
1
 10
38.549065
 20
38.106611
 30
0.0
 10
38.892388
 20
38.552226
 30
0.0
 10
40.820379
 20
40.394230
 30
0.0
 10
41.478602
 20
40.965868
 30
0.0
  0
SPLINE
  5
1f1
100
AcDbEntity
  8
Layer_1
 62
7
100
AcDbSpline
 70
8
 71
3
 72
8
 73
4
 74
0
 40
0
 40
0
 40
0
 40
0
 40
1
 40
1
 40
1
 40
1
 10
41.478602
 20
40.965868
 30
0.0
 10
42.066138
 20
41.476726
 30
0.0
 10
43.686812
 20
42.580205
 30
0.0
 10
44.554900
 20
43.102689
 30
0.0
  0
SPLINE
  5
1f2
100
AcDbEntity
  8
Layer_1
 62
7
100
AcDbSpline
 70
8
 71
3
 72
8
 73
4
 74
0
 40
0
 40
0
 40
0
 40
0
 40
1
 40
1
 40
1
 40
1
 10
44.554900
 20
43.102689
 30
0.0
 10
45.659878
 20
43.767063
 30
0.0
 10
47.383952
 20
45.248146
 30
0.0
 10
48.066314
 20
45.968147
 30
0.0
  0
SPLINE
  5
1f3
100
AcDbEntity
  8
Layer_1
 62
7
100
AcDbSpline
 70
8
 71
3
 72
8
 73
4
 74
0
 40
0
 40
0
 40
0
 40
0
 40
1
 40
1
 40
1
 40
1
 10
48.066314
 20
45.968147
 30
0.0
 10
48.754358
 20
46.692887
 30
0.0
 10
49.365369
 20
47.717143
 30
0.0
 10
49.619191
 20
48.227441
 30
0.0
  0
SPLINE
  5
1f4
100
AcDbEntity
  8
Layer_1
 62
7
100
AcDbSpline
 70
8
 71
3
 72
8
 73
4
 74
0
 40
0
 40
0
 40
0
 40
0
 40
1
 40
1
 40
1
 40
1
 10
49.619191
 20
48.227441
 30
0.0
 10
49.819950
 20
48.629534
 30
0.0
 10
49.892882
 20
49.014819
 30
0.0
 10
49.966973
 20
49.497131
 30
0.0
  0
SPLINE
  5
1f5
100
AcDbEntity
  8
Layer_1
 62
7
100
AcDbSpline
 70
8
 71
3
 72
8
 73
4
 74
0
 40
0
 40
0
 40
0
 40
0
 40
1
 40
1
 40
1
 40
1
 10
49.966973
 20
49.497131
 30
0.0
 10
50.041273
 20
49.980822
 30
0.0
 10
50.117992
 20
50.439614
 30
0.0
 10
49.951470
 20
51.007116
 30
0.0
  0
LINE
  5
1f6
100
AcDbEntity
  8
Layer_1
 62
7
100
AcDbLine
 10
49.951470
 20
51.007116
 30
0.0
 11
49.951470
 21
51.007633
 31
0.0
  0
LINE
  5
1f7
100
AcDbEntity
  8
Layer_1
 62
7
100
AcDbLine
 10
49.951470
 20
51.007633
 30
0.0
 11
49.951470
 21
51.008149
 31
0.0
  0
LINE
  5
1f8
100
AcDbEntity
  8
Layer_1
 62
7
100
AcDbLine
 10
49.951470
 20
51.008149
 30
0.0
 11
49.951470
 21
51.008666
 31
0.0
  0
LINE
  5
1f9
100
AcDbEntity
  8
Layer_1
 62
7
100
AcDbLine
 10
49.951470
 20
51.008666
 30
0.0
 11
49.951470
 21
51.009183
 31
0.0
  0
SPLINE
  5
1fa
100
AcDbEntity
  8
Layer_1
 62
7
100
AcDbSpline
 70
8
 71
3
 72
8
 73
4
 74
0
 40
0
 40
0
 40
0
 40
0
 40
1
 40
1
 40
1
 40
1
 10
49.951470
 20
51.009183
 30
0.0
 10
49.892280
 20
51.209102
 30
0.0
 10
49.854427
 20
51.477966
 30
0.0
 10
49.693605
 20
51.831355
 30
0.0
  0
SPLINE
  5
1fb
100
AcDbEntity
  8
Layer_1
 62
7
100
AcDbSpline
 70
8
 71
3
 72
8
 73
4
 74
0
 40
0
 40
0
 40
0
 40
0
 40
1
 40
1
 40
1
 40
1
 10
49.693605
 20
51.831355
 30
0.0
 10
49.532787
 20
52.184745
 30
0.0
 10
49.225571
 20
52.557571
 30
0.0
 10
48.799086
 20
52.841113
 30
0.0
  0
LINE
  5
1fc
100
AcDbEntity
  8
Layer_1
 62
7
100
AcDbLine
 10
48.799086
 20
52.841113
 30
0.0
 11
48.797018
 21
52.841113
 31
0.0
  0
SPLINE
  5
1fd
100
AcDbEntity
  8
Layer_1
 62
7
100
AcDbSpline
 70
8
 71
3
 72
8
 73
4
 74
0
 40
0
 40
0
 40
0
 40
0
 40
1
 40
1
 40
1
 40
1
 10
48.797018
 20
52.841113
 30
0.0
 10
48.021825
 20
53.355719
 30
0.0
 10
47.230361
 20
53.550918
 30
0.0
 10
46.251954
 20
53.710310
 30
0.0
  0
SPLINE
  5
1fe
100
AcDbEntity
  8
Layer_1
 62
7
100
AcDbSpline
 70
8
 71
3
 72
8
 73
4
 74
0
 40
0
 40
0
 40
0
 40
0
 40
1
 40
1
 40
1
 40
1
 10
46.251954
 20
53.710310
 30
0.0
 10
46.250062
 20
53.711005
 30
0.0
 10
46.248167
 20
53.711694
 30
0.0
 10
46.246270
 20
53.712377
 30
0.0
  0
LINE
  5
1ff
100
AcDbEntity
  8
Layer_1
 62
7
100
AcDbLine
 10
46.246270
 20
53.712377
 30
0.0
 11
46.246270
 21
53.711860
 31
0.0
  0
SPLINE
  5
200
100
AcDbEntity
  8
Layer_1
 62
7
100
AcDbSpline
 70
8
 71
3
 72
8
 73
4
 74
0
 40
0
 40
0
 40
0
 40
0
 40
1
 40
1
 40
1
 40
1
 10
46.246270
 20
53.711860
 30
0.0
 10
45.976249
 20
53.753755
 30
0.0
 10
45.733582
 20
53.774577
 30
0.0
 10
45.505230
 20
53.780590
 30
0.0
  0
LINE
  5
201
100
AcDbEntity
  8
Layer_1
 62
7
100
AcDbLine
 10
45.505230
 20
53.780590
 30
0.0
 11
45.505230
 21
53.780590
 31
0.0
  0
SPLINE
  5
202
100
AcDbEntity
  8
Layer_1
 62
7
100
AcDbSpline
 70
8
 71
3
 72
8
 73
4
 74
0
 40
0
 40
0
 40
0
 40
0
 40
1
 40
1
 40
1
 40
1
 10
9.334828
 20
30.608361
 30
0.0
 10
9.343973
 20
30.607947
 30
0.0
 10
9.354205
 20
30.606960
 30
0.0
 10
9.365317
 20
30.604744
 30
0.0
  0
SPLINE
  5
203
100
AcDbEntity
  8
Layer_1
 62
7
100
AcDbSpline
 70
8
 71
3
 72
8
 73
4
 74
0
 40
0
 40
0
 40
0
 40
0
 40
1
 40
1
 40
1
 40
1
 10
9.365317
 20
30.604744
 30
0.0
 10
9.432887
 20
30.591234
 30
0.0
 10
9.540876
 20
30.562649
 30
0.0
 10
9.644370
 20
30.528779
 30
0.0
  0
SPLINE
  5
204
100
AcDbEntity
  8
Layer_1
 62
7
100
AcDbSpline
 70
8
 71
3
 72
8
 73
4
 74
0
 40
0
 40
0
 40
0
 40
0
 40
1
 40
1
 40
1
 40
1
 10
9.644370
 20
30.528779
 30
0.0
 10
9.670512
 20
30.520224
 30
0.0
 10
9.694280
 20
30.511613
 30
0.0
 10
9.719300
 20
30.502941
 30
0.0
  0
SPLINE
  5
205
100
AcDbEntity
  8
Layer_1
 62
7
100
AcDbSpline
 70
8
 71
3
 72
8
 73
4
 74
0
 40
0
 40
0
 40
0
 40
0
 40
1
 40
1
 40
1
 40
1
 10
9.719300
 20
30.502941
 30
0.0
 10
10.223745
 20
29.565796
 30
0.0
 10
10.964222
 20
28.803203
 30
0.0
 10
11.478366
 20
28.291707
 30
0.0
  0
SPLINE
  5
206
100
AcDbEntity
  8
Layer_1
 62
7
100
AcDbSpline
 70
8
 71
3
 72
8
 73
4
 74
0
 40
0
 40
0
 40
0
 40
0
 40
1
 40
1
 40
1
 40
1
 10
11.478366
 20
28.291707
 30
0.0
 10
11.762546
 20
28.008029
 30
0.0
 10
12.099525
 20
27.786850
 30
0.0
 10
12.525331
 20
27.514493
 30
0.0
  0
SPLINE
  5
207
100
AcDbEntity
  8
Layer_1
 62
7
100
AcDbSpline
 70
8
 71
3
 72
8
 73
4
 74
0
 40
0
 40
0
 40
0
 40
0
 40
1
 40
1
 40
1
 40
1
 10
12.525331
 20
27.514493
 30
0.0
 10
12.952030
 20
27.241565
 30
0.0
 10
13.449080
 20
26.948464
 30
0.0
 10
13.945399
 20
26.667004
 30
0.0
  0
SPLINE
  5
208
100
AcDbEntity
  8
Layer_1
 62
7
100
AcDbSpline
 70
8
 71
3
 72
8
 73
4
 74
0
 40
0
 40
0
 40
0
 40
0
 40
1
 40
1
 40
1
 40
1
 10
13.945399
 20
26.667004
 30
0.0
 10
14.938040
 20
26.104074
 30
0.0
 10
15.898391
 20
25.601864
 30
0.0
 10
16.321998
 20
25.403514
 30
0.0
  0
SPLINE
  5
209
100
AcDbEntity
  8
Layer_1
 62
7
100
AcDbSpline
 70
8
 71
3
 72
8
 73
4
 74
0
 40
0
 40
0
 40
0
 40
0
 40
1
 40
1
 40
1
 40
1
 10
16.321998
 20
25.403514
 30
0.0
 10
16.324059
 20
25.402125
 30
0.0
 10
16.326126
 20
25.400745
 30
0.0
 10
16.328199
 20
25.399374
 30
0.0
  0
SPLINE
  5
20a
100
AcDbEntity
  8
Layer_1
 62
7
100
AcDbSpline
 70
8
 71
3
 72
8
 73
4
 74
0
 40
0
 40
0
 40
0
 40
0
 40
1
 40
1
 40
1
 40
1
 10
16.328199
 20
25.399374
 30
0.0
 10
16.862291
 20
25.154734
 30
0.0
 10
17.577981
 20
24.984844
 30
0.0
 10
18.349781
 20
24.835074
 30
0.0
  0
SPLINE
  5
20b
100
AcDbEntity
  8
Layer_1
 62
7
100
AcDbSpline
 70
8
 71
3
 72
8
 73
4
 74
0
 40
0
 40
0
 40
0
 40
0
 40
1
 40
1
 40
1
 40
1
 10
18.349781
 20
24.835074
 30
0.0
 10
18.644034
 20
24.777974
 30
0.0
 10
18.924905
 20
24.729324
 30
0.0
 10
19.198825
 20
24.689344
 30
0.0
  0
SPLINE
  5
20c
100
AcDbEntity
  8
Layer_1
 62
7
100
AcDbSpline
 70
8
 71
3
 72
8
 73
4
 74
0
 40
0
 40
0
 40
0
 40
0
 40
1
 40
1
 40
1
 40
1
 10
19.198825
 20
24.689344
 30
0.0
 10
19.219802
 20
24.573514
 30
0.0
 10
19.242258
 20
24.448754
 30
0.0
 10
19.267555
 20
24.297634
 30
0.0
  0
SPLINE
  5
20d
100
AcDbEntity
  8
Layer_1
 62
7
100
AcDbSpline
 70
8
 71
3
 72
8
 73
4
 74
0
 40
0
 40
0
 40
0
 40
0
 40
1
 40
1
 40
1
 40
1
 10
19.267555
 20
24.297634
 30
0.0
 10
19.318215
 20
23.992564
 30
0.0
 10
19.306473
 20
23.980904
 30
0.0
 10
19.294943
 20
23.940554
 30
0.0
  0
SPLINE
  5
20e
100
AcDbEntity
  8
Layer_1
 62
7
100
AcDbSpline
 70
8
 71
3
 72
8
 73
4
 74
0
 40
0
 40
0
 40
0
 40
0
 40
1
 40
1
 40
1
 40
1
 10
19.294943
 20
23.940554
 30
0.0
 10
19.283353
 20
23.899954
 30
0.0
 10
19.187800
 20
23.710984
 30
0.0
 10
19.013823
 20
23.329214
 30
0.0
  0
SPLINE
  5
20f
100
AcDbEntity
  8
Layer_1
 62
7
100
AcDbSpline
 70
8
 71
3
 72
8
 73
4
 74
0
 40
0
 40
0
 40
0
 40
0
 40
1
 40
1
 40
1
 40
1
 10
19.013823
 20
23.329214
 30
0.0
 10
18.781046
 20
22.822934
 30
0.0
 10
18.622086
 20
22.835274
 30
0.0
 10
18.222657
 20
22.397494
 30
0.0
  0
SPLINE
  5
210
100
AcDbEntity
  8
Layer_1
 62
7
100
AcDbSpline
 70
8
 71
3
 72
8
 73
4
 74
0
 40
0
 40
0
 40
0
 40
0
 40
1
 40
1
 40
1
 40
1
 10
18.222657
 20
22.397494
 30
0.0
 10
18.325269
 20
22.509844
 30
0.0
 10
18.252303
 20
22.424634
 30
0.0
 10
18.148243
 20
22.368034
 30
0.0
  0
SPLINE
  5
211
100
AcDbEntity
  8
Layer_1
 62
7
100
AcDbSpline
 70
8
 71
3
 72
8
 73
4
 74
0
 40
0
 40
0
 40
0
 40
0
 40
1
 40
1
 40
1
 40
1
 10
18.148243
 20
22.368034
 30
0.0
 10
18.044180
 20
22.311434
 30
0.0
 10
17.893732
 20
22.239614
 30
0.0
 10
17.736382
 20
22.172704
 30
0.0
  0
SPLINE
  5
212
100
AcDbEntity
  8
Layer_1
 62
7
100
AcDbSpline
 70
8
 71
3
 72
8
 73
4
 74
0
 40
0
 40
0
 40
0
 40
0
 40
1
 40
1
 40
1
 40
1
 10
17.736382
 20
22.172704
 30
0.0
 10
17.421682
 20
22.038894
 30
0.0
 10
17.027139
 20
21.916904
 30
0.0
 10
16.978289
 20
21.907084
 30
0.0
  0
SPLINE
  5
213
100
AcDbEntity
  8
Layer_1
 62
7
100
AcDbSpline
 70
8
 71
3
 72
8
 73
4
 74
0
 40
0
 40
0
 40
0
 40
0
 40
1
 40
1
 40
1
 40
1
 10
16.978289
 20
21.907084
 30
0.0
 10
17.001409
 20
21.912084
 30
0.0
 10
16.440669
 20
21.865364
 30
0.0
 10
15.966981
 20
21.866264
 30
0.0
  0
SPLINE
  5
214
100
AcDbEntity
  8
Layer_1
 62
7
100
AcDbSpline
 70
8
 71
3
 72
8
 73
4
 74
0
 40
0
 40
0
 40
0
 40
0
 40
1
 40
1
 40
1
 40
1
 10
15.966981
 20
21.866264
 30
0.0
 10
15.493293
 20
21.867134
 30
0.0
 10
14.949992
 20
21.901714
 30
0.0
 10
14.892628
 20
21.911214
 30
0.0
  0
SPLINE
  5
215
100
AcDbEntity
  8
Layer_1
 62
7
100
AcDbSpline
 70
8
 71
3
 72
8
 73
4
 74
0
 40
0
 40
0
 40
0
 40
0
 40
1
 40
1
 40
1
 40
1
 10
14.892628
 20
21.911214
 30
0.0
 10
14.868657
 20
21.915476
 30
0.0
 10
14.844521
 20
21.918752
 30
0.0
 10
14.820281
 20
21.921034
 30
0.0
  0
SPLINE
  5
216
100
AcDbEntity
  8
Layer_1
 62
7
100
AcDbSpline
 70
8
 71
3
 72
8
 73
4
 74
0
 40
0
 40
0
 40
0
 40
0
 40
1
 40
1
 40
1
 40
1
 10
14.820281
 20
21.921034
 30
0.0
 10
14.833981
 20
21.920034
 30
0.0
 10
14.110006
 20
22.058754
 30
0.0
 10
13.511834
 20
22.206294
 30
0.0
  0
SPLINE
  5
217
100
AcDbEntity
  8
Layer_1
 62
7
100
AcDbSpline
 70
8
 71
3
 72
8
 73
4
 74
0
 40
0
 40
0
 40
0
 40
0
 40
1
 40
1
 40
1
 40
1
 10
13.511834
 20
22.206294
 30
0.0
 10
12.913662
 20
22.353834
 30
0.0
 10
12.270122
 20
22.530384
 30
0.0
 10
12.173931
 20
22.561824
 30
0.0
  0
SPLINE
  5
218
100
AcDbEntity
  8
Layer_1
 62
7
100
AcDbSpline
 70
8
 71
3
 72
8
 73
4
 74
0
 40
0
 40
0
 40
0
 40
0
 40
1
 40
1
 40
1
 40
1
 10
12.173931
 20
22.561824
 30
0.0
 10
12.170666
 20
22.563220
 30
0.0
 10
12.167393
 20
22.564597
 30
0.0
 10
12.164112
 20
22.565954
 30
0.0
  0
SPLINE
  5
219
100
AcDbEntity
  8
Layer_1
 62
7
100
AcDbSpline
 70
8
 71
3
 72
8
 73
4
 74
0
 40
0
 40
0
 40
0
 40
0
 40
1
 40
1
 40
1
 40
1
 10
12.164112
 20
22.565954
 30
0.0
 10
12.055107
 20
22.600354
 30
0.0
 10
10.565237
 20
23.277544
 30
0.0
 10
10.370940
 20
23.381924
 30
0.0
  0
LINE
  5
21a
100
AcDbEntity
  8
Layer_1
 62
7
100
AcDbLine
 10
10.370940
 20
23.381924
 30
0.0
 11
10.368873
 21
23.383994
 31
0.0
  0
SPLINE
  5
21b
100
AcDbEntity
  8
Layer_1
 62
7
100
AcDbSpline
 70
8
 71
3
 72
8
 73
4
 74
0
 40
0
 40
0
 40
0
 40
0
 40
1
 40
1
 40
1
 40
1
 10
10.368873
 20
23.383994
 30
0.0
 10
10.417073
 20
23.358294
 30
0.0
 10
10.254684
 20
23.458204
 30
0.0
 10
10.095505
 20
23.575714
 30
0.0
  0
SPLINE
  5
21c
100
AcDbEntity
  8
Layer_1
 62
7
100
AcDbSpline
 70
8
 71
3
 72
8
 73
4
 74
0
 40
0
 40
0
 40
0
 40
0
 40
1
 40
1
 40
1
 40
1
 10
10.095505
 20
23.575714
 30
0.0
 10
9.936326
 20
23.693224
 30
0.0
 10
9.739568
 20
23.844434
 30
0.0
 10
9.541017
 20
23.997394
 30
0.0
  0
SPLINE
  5
21d
100
AcDbEntity
  8
Layer_1
 62
7
100
AcDbSpline
 70
8
 71
3
 72
8
 73
4
 74
0
 40
0
 40
0
 40
0
 40
0
 40
1
 40
1
 40
1
 40
1
 10
9.541017
 20
23.997394
 30
0.0
 10
9.143913
 20
24.303334
 30
0.0
 10
8.820592
 20
24.571434
 30
0.0
 10
8.529192
 20
24.755484
 30
0.0
  0
LINE
  5
21e
100
AcDbEntity
  8
Layer_1
 62
7
100
AcDbLine
 10
8.529192
 20
24.755484
 30
0.0
 11
8.529192
 21
24.756004
 31
0.0
  0
LINE
  5
21f
100
AcDbEntity
  8
Layer_1
 62
7
100
AcDbLine
 10
8.529192
 20
24.756004
 30
0.0
 11
8.529192
 21
24.756524
 31
0.0
  0
LINE
  5
220
100
AcDbEntity
  8
Layer_1
 62
7
100
AcDbLine
 10
8.529192
 20
24.756524
 30
0.0
 11
8.529192
 21
24.757034
 31
0.0
  0
SPLINE
  5
221
100
AcDbEntity
  8
Layer_1
 62
7
100
AcDbSpline
 70
8
 71
3
 72
8
 73
4
 74
0
 40
0
 40
0
 40
0
 40
0
 40
1
 40
1
 40
1
 40
1
 10
8.529192
 20
24.757034
 30
0.0
 10
8.679619
 20
24.662234
 30
0.0
 10
8.468612
 20
24.807174
 30
0.0
 10
8.321970
 20
24.933254
 30
0.0
  0
SPLINE
  5
222
100
AcDbEntity
  8
Layer_1
 62
7
100
AcDbSpline
 70
8
 71
3
 72
8
 73
4
 74
0
 40
0
 40
0
 40
0
 40
0
 40
1
 40
1
 40
1
 40
1
 10
8.321970
 20
24.933254
 30
0.0
 10
8.175328
 20
25.059344
 30
0.0
 10
7.988812
 20
25.225064
 30
0.0
 10
7.804689
 20
25.390074
 30
0.0
  0
SPLINE
  5
223
100
AcDbEntity
  8
Layer_1
 62
7
100
AcDbSpline
 70
8
 71
3
 72
8
 73
4
 74
0
 40
0
 40
0
 40
0
 40
0
 40
1
 40
1
 40
1
 40
1
 10
7.804689
 20
25.390074
 30
0.0
 10
7.620565
 20
25.555084
 30
0.0
 10
7.436818
 20
25.720054
 30
0.0
 10
7.298776
 20
25.848964
 30
0.0
  0
SPLINE
  5
224
100
AcDbEntity
  8
Layer_1
 62
7
100
AcDbSpline
 70
8
 71
3
 72
8
 73
4
 74
0
 40
0
 40
0
 40
0
 40
0
 40
1
 40
1
 40
1
 40
1
 10
7.298776
 20
25.848964
 30
0.0
 10
7.229756
 20
25.913364
 30
0.0
 10
7.171211
 20
25.969464
 30
0.0
 10
7.132895
 20
26.007094
 30
0.0
  0
SPLINE
  5
225
100
AcDbEntity
  8
Layer_1
 62
7
100
AcDbSpline
 70
8
 71
3
 72
8
 73
4
 74
0
 40
0
 40
0
 40
0
 40
0
 40
1
 40
1
 40
1
 40
1
 10
7.132895
 20
26.007094
 30
0.0
 10
7.126230
 20
26.013634
 30
0.0
 10
7.119816
 20
26.021444
 30
0.0
 10
7.113258
 20
26.028794
 30
0.0
  0
SPLINE
  5
226
100
AcDbEntity
  8
Layer_1
 62
7
100
AcDbSpline
 70
8
 71
3
 72
8
 73
4
 74
0
 40
0
 40
0
 40
0
 40
0
 40
1
 40
1
 40
1
 40
1
 10
7.113258
 20
26.028794
 30
0.0
 10
7.014467
 20
26.182494
 30
0.0
 10
6.724106
 20
26.807114
 30
0.0
 10
6.634734
 20
27.370316
 30
0.0
  0
LINE
  5
227
100
AcDbEntity
  8
Layer_1
 62
7
100
AcDbLine
 10
6.634734
 20
27.370316
 30
0.0
 11
6.634734
 21
27.372383
 31
0.0
  0
SPLINE
  5
228
100
AcDbEntity
  8
Layer_1
 62
7
100
AcDbSpline
 70
8
 71
3
 72
8
 73
4
 74
0
 40
0
 40
0
 40
0
 40
0
 40
1
 40
1
 40
1
 40
1
 10
6.634734
 20
27.372383
 30
0.0
 10
6.625734
 20
27.435663
 30
0.0
 10
6.785181
 20
28.691688
 30
0.0
 10
6.863144
 20
28.880301
 30
0.0
  0
LINE
  5
229
100
AcDbEntity
  8
Layer_1
 62
7
100
AcDbLine
 10
6.863144
 20
28.880301
 30
0.0
 11
6.865211
 21
28.882368
 31
0.0
  0
SPLINE
  5
22a
100
AcDbEntity
  8
Layer_1
 62
7
100
AcDbSpline
 70
8
 71
3
 72
8
 73
4
 74
0
 40
0
 40
0
 40
0
 40
0
 40
1
 40
1
 40
1
 40
1
 10
6.865211
 20
28.882368
 30
0.0
 10
7.022237
 20
29.265457
 30
0.0
 10
7.548192
 20
29.891545
 30
0.0
 10
7.927678
 20
30.169111
 30
0.0
  0
SPLINE
  5
22b
100
AcDbEntity
  8
Layer_1
 62
7
100
AcDbSpline
 70
8
 71
3
 72
8
 73
4
 74
0
 40
0
 40
0
 40
0
 40
0
 40
1
 40
1
 40
1
 40
1
 10
7.927678
 20
30.169111
 30
0.0
 10
7.929578
 20
30.170482
 30
0.0
 10
7.931473
 20
30.171860
 30
0.0
 10
7.933363
 20
30.173246
 30
0.0
  0
SPLINE
  5
22c
100
AcDbEntity
  8
Layer_1
 62
7
100
AcDbSpline
 70
8
 71
3
 72
8
 73
4
 74
0
 40
0
 40
0
 40
0
 40
0
 40
1
 40
1
 40
1
 40
1
 10
7.933363
 20
30.173246
 30
0.0
 10
8.227829
 20
30.393295
 30
0.0
 10
8.467823
 20
30.473859
 30
0.0
 10
8.691456
 20
30.521028
 30
0.0
  0
SPLINE
  5
22d
100
AcDbEntity
  8
Layer_1
 62
7
100
AcDbSpline
 70
8
 71
3
 72
8
 73
4
 74
0
 40
0
 40
0
 40
0
 40
0
 40
1
 40
1
 40
1
 40
1
 10
8.691456
 20
30.521028
 30
0.0
 10
8.890327
 20
30.562976
 30
0.0
 10
9.043790
 20
30.549641
 30
0.0
 10
9.334828
 20
30.608361
 30
0.0
  0
LINE
  5
22e
100
AcDbEntity
  8
Layer_1
 62
7
100
AcDbLine
 10
9.334828
 20
30.608361
 30
0.0
 11
9.334828
 21
30.608361
 31
0.0
  0
SPLINE
  5
22f
100
AcDbEntity
  8
Layer_1
 62
7
100
AcDbSpline
 70
8
 71
3
 72
8
 73
4
 74
0
 40
0
 40
0
 40
0
 40
0
 40
1
 40
1
 40
1
 40
1
 10
6.570139
 20
24.105914
 30
0.0
 10
6.586070
 20
24.091574
 30
0.0
 10
6.601172
 20
24.077874
 30
0.0
 10
6.617164
 20
24.063544
 30
0.0
  0
SPLINE
  5
230
100
AcDbEntity
  8
Layer_1
 62
7
100
AcDbSpline
 70
8
 71
3
 72
8
 73
4
 74
0
 40
0
 40
0
 40
0
 40
0
 40
1
 40
1
 40
1
 40
1
 10
6.617164
 20
24.063544
 30
0.0
 10
6.808487
 20
23.892084
 30
0.0
 10
7.001742
 20
23.723114
 30
0.0
 10
7.162351
 20
23.585014
 30
0.0
  0
SPLINE
  5
231
100
AcDbEntity
  8
Layer_1
 62
7
100
AcDbSpline
 70
8
 71
3
 72
8
 73
4
 74
0
 40
0
 40
0
 40
0
 40
0
 40
1
 40
1
 40
1
 40
1
 10
7.162351
 20
23.585014
 30
0.0
 10
7.322960
 20
23.446924
 30
0.0
 10
7.344471
 20
23.398964
 30
0.0
 10
7.579896
 20
23.250674
 30
0.0
  0
SPLINE
  5
232
100
AcDbEntity
  8
Layer_1
 62
7
100
AcDbSpline
 70
8
 71
3
 72
8
 73
4
 74
0
 40
0
 40
0
 40
0
 40
0
 40
1
 40
1
 40
1
 40
1
 10
7.579896
 20
23.250674
 30
0.0
 10
7.578796
 20
23.251354
 30
0.0
 10
8.052442
 20
22.899054
 30
0.0
 10
8.455295
 20
22.588694
 30
0.0
  0
SPLINE
  5
233
100
AcDbEntity
  8
Layer_1
 62
7
100
AcDbSpline
 70
8
 71
3
 72
8
 73
4
 74
0
 40
0
 40
0
 40
0
 40
0
 40
1
 40
1
 40
1
 40
1
 10
8.455295
 20
22.588694
 30
0.0
 10
8.656721
 20
22.433514
 30
0.0
 10
8.860085
 20
22.277574
 30
0.0
 10
9.039239
 20
22.145314
 30
0.0
  0
SPLINE
  5
234
100
AcDbEntity
  8
Layer_1
 62
7
100
AcDbSpline
 70
8
 71
3
 72
8
 73
4
 74
0
 40
0
 40
0
 40
0
 40
0
 40
1
 40
1
 40
1
 40
1
 10
9.039239
 20
22.145314
 30
0.0
 10
9.218393
 20
22.013054
 30
0.0
 10
9.332346
 20
21.919554
 30
0.0
 10
9.531198
 20
21.813554
 30
0.0
  0
SPLINE
  5
235
100
AcDbEntity
  8
Layer_1
 62
7
100
AcDbSpline
 70
8
 71
3
 72
8
 73
4
 74
0
 40
0
 40
0
 40
0
 40
0
 40
1
 40
1
 40
1
 40
1
 10
9.531198
 20
21.813554
 30
0.0
 10
9.938584
 20
21.594774
 30
0.0
 10
10.976372
 20
21.073794
 30
0.0
 10
11.628745
 20
20.867874
 30
0.0
  0
SPLINE
  5
236
100
AcDbEntity
  8
Layer_1
 62
7
100
AcDbSpline
 70
8
 71
3
 72
8
 73
4
 74
0
 40
0
 40
0
 40
0
 40
0
 40
1
 40
1
 40
1
 40
1
 10
11.628745
 20
20.867874
 30
0.0
 10
11.915460
 20
20.774574
 30
0.0
 10
12.468279
 20
20.631624
 30
0.0
 10
13.086020
 20
20.479264
 30
0.0
  0
SPLINE
  5
237
100
AcDbEntity
  8
Layer_1
 62
7
100
AcDbSpline
 70
8
 71
3
 72
8
 73
4
 74
0
 40
0
 40
0
 40
0
 40
0
 40
1
 40
1
 40
1
 40
1
 10
13.086020
 20
20.479264
 30
0.0
 10
13.265732
 20
20.434934
 30
0.0
 10
13.433237
 20
20.393704
 30
0.0
 10
13.595033
 20
20.354204
 30
0.0
  0
LINE
  5
238
100
AcDbEntity
  8
Layer_1
 62
7
100
AcDbLine
 10
13.595033
 20
20.354204
 30
0.0
 11
14.359327
 21
19.725304
 31
0.0
  0
SPLINE
  5
239
100
AcDbEntity
  8
Layer_1
 62
7
100
AcDbSpline
 70
8
 71
3
 72
8
 73
4
 74
0
 40
0
 40
0
 40
0
 40
0
 40
1
 40
1
 40
1
 40
1
 10
14.359327
 20
19.725304
 30
0.0
 10
14.382267
 20
19.702704
 30
0.0
 10
14.472045
 20
19.610744
 30
0.0
 10
14.605307
 20
19.469504
 30
0.0
  0
SPLINE
  5
23a
100
AcDbEntity
  8
Layer_1
 62
7
100
AcDbSpline
 70
8
 71
3
 72
8
 73
4
 74
0
 40
0
 40
0
 40
0
 40
0
 40
1
 40
1
 40
1
 40
1
 10
14.605307
 20
19.469504
 30
0.0
 10
14.754121
 20
19.311774
 30
0.0
 10
14.935691
 20
19.092604
 30
0.0
 10
14.943271
 20
19.080904
 30
0.0
  0
SPLINE
  5
23b
100
AcDbEntity
  8
Layer_1
 62
7
100
AcDbSpline
 70
8
 71
3
 72
8
 73
4
 74
0
 40
0
 40
0
 40
0
 40
0
 40
1
 40
1
 40
1
 40
1
 10
14.943271
 20
19.080904
 30
0.0
 10
14.990171
 20
19.006104
 30
0.0
 10
15.075095
 20
18.840024
 30
0.0
 10
15.128789
 20
18.704174
 30
0.0
  0
SPLINE
  5
23c
100
AcDbEntity
  8
Layer_1
 62
7
100
AcDbSpline
 70
8
 71
3
 72
8
 73
4
 74
0
 40
0
 40
0
 40
0
 40
0
 40
1
 40
1
 40
1
 40
1
 10
15.128789
 20
18.704174
 30
0.0
 10
15.154036
 20
18.640314
 30
0.0
 10
15.160843
 20
18.562854
 30
0.0
 10
15.164446
 20
18.524344
 30
0.0
  0
SPLINE
  5
23d
100
AcDbEntity
  8
Layer_1
 62
7
100
AcDbSpline
 70
8
 71
3
 72
8
 73
4
 74
0
 40
0
 40
0
 40
0
 40
0
 40
1
 40
1
 40
1
 40
1
 10
15.164446
 20
18.524344
 30
0.0
 10
15.123666
 20
18.312234
 30
0.0
 10
15.039391
 20
17.942474
 30
0.0
 10
15.041973
 20
17.915594
 30
0.0
  0
SPLINE
  5
23e
100
AcDbEntity
  8
Layer_1
 62
7
100
AcDbSpline
 70
8
 71
3
 72
8
 73
4
 74
0
 40
0
 40
0
 40
0
 40
0
 40
1
 40
1
 40
1
 40
1
 10
15.041973
 20
17.915594
 30
0.0
 10
15.022973
 20
17.919884
 30
0.0
 10
14.769403
 20
17.630044
 30
0.0
 10
14.689023
 20
17.529054
 30
0.0
  0
SPLINE
  5
23f
100
AcDbEntity
  8
Layer_1
 62
7
100
AcDbSpline
 70
8
 71
3
 72
8
 73
4
 74
0
 40
0
 40
0
 40
0
 40
0
 40
1
 40
1
 40
1
 40
1
 10
14.689023
 20
17.529054
 30
0.0
 10
14.628094
 20
17.501234
 30
0.0
 10
14.480782
 20
17.423574
 30
0.0
 10
14.351576
 20
17.379194
 30
0.0
  0
SPLINE
  5
240
100
AcDbEntity
  8
Layer_1
 62
7
100
AcDbSpline
 70
8
 71
3
 72
8
 73
4
 74
0
 40
0
 40
0
 40
0
 40
0
 40
1
 40
1
 40
1
 40
1
 10
14.351576
 20
17.379194
 30
0.0
 10
14.135890
 20
17.305094
 30
0.0
 10
13.873158
 20
17.233664
 30
0.0
 10
13.738177
 20
17.211244
 30
0.0
  0
SPLINE
  5
241
100
AcDbEntity
  8
Layer_1
 62
7
100
AcDbSpline
 70
8
 71
3
 72
8
 73
4
 74
0
 40
0
 40
0
 40
0
 40
0
 40
1
 40
1
 40
1
 40
1
 10
13.738177
 20
17.211244
 30
0.0
 10
13.654757
 20
17.197344
 30
0.0
 10
13.192711
 20
17.167604
 30
0.0
 10
12.793015
 20
17.166804
 30
0.0
  0
SPLINE
  5
242
100
AcDbEntity
  8
Layer_1
 62
7
100
AcDbSpline
 70
8
 71
3
 72
8
 73
4
 74
0
 40
0
 40
0
 40
0
 40
0
 40
1
 40
1
 40
1
 40
1
 10
12.793015
 20
17.166804
 30
0.0
 10
12.393319
 20
17.165934
 30
0.0
 10
11.887186
 20
17.229714
 30
0.0
 10
12.013734
 20
17.197814
 30
0.0
  0
SPLINE
  5
243
100
AcDbEntity
  8
Layer_1
 62
7
100
AcDbSpline
 70
8
 71
3
 72
8
 73
4
 74
0
 40
0
 40
0
 40
0
 40
0
 40
1
 40
1
 40
1
 40
1
 10
12.013734
 20
17.197814
 30
0.0
 10
11.689058
 20
17.279314
 30
0.0
 10
11.229774
 20
17.342064
 30
0.0
 10
10.679448
 20
17.438104
 30
0.0
  0
SPLINE
  5
244
100
AcDbEntity
  8
Layer_1
 62
7
100
AcDbSpline
 70
8
 71
3
 72
8
 73
4
 74
0
 40
0
 40
0
 40
0
 40
0
 40
1
 40
1
 40
1
 40
1
 10
10.679448
 20
17.438104
 30
0.0
 10
10.404286
 20
17.486104
 30
0.0
 10
10.130198
 20
17.536654
 30
0.0
 10
9.912053
 20
17.580734
 30
0.0
  0
SPLINE
  5
245
100
AcDbEntity
  8
Layer_1
 62
7
100
AcDbSpline
 70
8
 71
3
 72
8
 73
4
 74
0
 40
0
 40
0
 40
0
 40
0
 40
1
 40
1
 40
1
 40
1
 10
9.912053
 20
17.580734
 30
0.0
 10
9.696130
 20
17.624334
 30
0.0
 10
9.497705
 20
17.683244
 30
0.0
 10
9.550835
 20
17.662384
 30
0.0
  0
SPLINE
  5
246
100
AcDbEntity
  8
Layer_1
 62
7
100
AcDbSpline
 70
8
 71
3
 72
8
 73
4
 74
0
 40
0
 40
0
 40
0
 40
0
 40
1
 40
1
 40
1
 40
1
 10
9.550835
 20
17.662384
 30
0.0
 10
9.144338
 20
17.820954
 30
0.0
 10
8.027104
 20
18.230304
 30
0.0
 10
7.579896
 20
18.451484
 30
0.0
  0
LINE
  5
247
100
AcDbEntity
  8
Layer_1
 62
7
100
AcDbLine
 10
7.579896
 20
18.451484
 30
0.0
 11
7.576279
 21
18.453544
 31
0.0
  0
SPLINE
  5
248
100
AcDbEntity
  8
Layer_1
 62
7
100
AcDbSpline
 70
8
 71
3
 72
8
 73
4
 74
0
 40
0
 40
0
 40
0
 40
0
 40
1
 40
1
 40
1
 40
1
 10
7.576279
 20
18.453544
 30
0.0
 10
6.882880
 20
18.800494
 30
0.0
 10
5.972546
 20
19.116084
 30
0.0
 10
5.529375
 20
19.449874
 30
0.0
  0
LINE
  5
249
100
AcDbEntity
  8
Layer_1
 62
7
100
AcDbLine
 10
5.529375
 20
19.449874
 30
0.0
 11
5.527308
 21
19.451934
 31
0.0
  0
SPLINE
  5
24a
100
AcDbEntity
  8
Layer_1
 62
7
100
AcDbSpline
 70
8
 71
3
 72
8
 73
4
 74
0
 40
0
 40
0
 40
0
 40
0
 40
1
 40
1
 40
1
 40
1
 10
5.527308
 20
19.451934
 30
0.0
 10
5.025512
 20
19.828434
 30
0.0
 10
4.431489
 20
20.544454
 30
0.0
 10
4.236431
 20
20.817224
 30
0.0
  0
SPLINE
  5
24b
100
AcDbEntity
  8
Layer_1
 62
7
100
AcDbSpline
 70
8
 71
3
 72
8
 73
4
 74
0
 40
0
 40
0
 40
0
 40
0
 40
1
 40
1
 40
1
 40
1
 10
4.236431
 20
20.817224
 30
0.0
 10
4.166931
 20
20.915924
 30
0.0
 10
3.820886
 20
21.767164
 30
0.0
 10
3.777544
 20
21.973234
 30
0.0
  0
LINE
  5
24c
100
AcDbEntity
  8
Layer_1
 62
7
100
AcDbLine
 10
3.777544
 20
21.973234
 30
0.0
 11
3.777544
 21
21.973744
 31
0.0
  0
LINE
  5
24d
100
AcDbEntity
  8
Layer_1
 62
7
100
AcDbLine
 10
3.777544
 20
21.973744
 30
0.0
 11
3.777544
 21
21.974264
 31
0.0
  0
LINE
  5
24e
100
AcDbEntity
  8
Layer_1
 62
7
100
AcDbLine
 10
3.777544
 20
21.974264
 30
0.0
 11
3.777544
 21
21.974784
 31
0.0
  0
LINE
  5
24f
100
AcDbEntity
  8
Layer_1
 62
7
100
AcDbLine
 10
3.777544
 20
21.974784
 30
0.0
 11
3.777544
 21
21.975294
 31
0.0
  0
SPLINE
  5
250
100
AcDbEntity
  8
Layer_1
 62
7
100
AcDbSpline
 70
8
 71
3
 72
8
 73
4
 74
0
 40
0
 40
0
 40
0
 40
0
 40
1
 40
1
 40
1
 40
1
 10
3.777544
 20
21.975294
 30
0.0
 10
3.773865
 20
21.992794
 30
0.0
 10
3.820006
 20
22.584224
 30
0.0
 10
3.908802
 20
22.950944
 30
0.0
  0
SPLINE
  5
251
100
AcDbEntity
  8
Layer_1
 62
7
100
AcDbSpline
 70
8
 71
3
 72
8
 73
4
 74
0
 40
0
 40
0
 40
0
 40
0
 40
1
 40
1
 40
1
 40
1
 10
3.908802
 20
22.950944
 30
0.0
 10
3.911996
 20
22.937514
 30
0.0
 10
4.040778
 20
23.227304
 30
0.0
 10
4.183721
 20
23.441874
 30
0.0
  0
SPLINE
  5
252
100
AcDbEntity
  8
Layer_1
 62
7
100
AcDbSpline
 70
8
 71
3
 72
8
 73
4
 74
0
 40
0
 40
0
 40
0
 40
0
 40
1
 40
1
 40
1
 40
1
 10
4.183721
 20
23.441874
 30
0.0
 10
4.281632
 20
23.588834
 30
0.0
 10
4.410222
 20
23.747864
 30
0.0
 10
4.472592
 20
23.827384
 30
0.0
  0
SPLINE
  5
253
100
AcDbEntity
  8
Layer_1
 62
7
100
AcDbSpline
 70
8
 71
3
 72
8
 73
4
 74
0
 40
0
 40
0
 40
0
 40
0
 40
1
 40
1
 40
1
 40
1
 10
4.472592
 20
23.827384
 30
0.0
 10
4.512618
 20
23.830304
 30
0.0
 10
4.750329
 20
23.971214
 30
0.0
 10
4.927862
 20
24.018064
 30
0.0
  0
SPLINE
  5
254
100
AcDbEntity
  8
Layer_1
 62
7
100
AcDbSpline
 70
8
 71
3
 72
8
 73
4
 74
0
 40
0
 40
0
 40
0
 40
0
 40
1
 40
1
 40
1
 40
1
 10
4.927862
 20
24.018064
 30
0.0
 10
5.202852
 20
24.040044
 30
0.0
 10
6.128031
 20
24.084764
 30
0.0
 10
6.570139
 20
24.105914
 30
0.0
  0
LINE
  5
255
100
AcDbEntity
  8
Layer_1
 62
7
100
AcDbLine
 10
6.570139
 20
24.105914
 30
0.0
 11
6.570139
 21
24.105914
 31
0.0
  0
LINE
  5
256
100
AcDbEntity
  8
Layer_1
 62
7
100
AcDbLine
 10
15.185633
 20
18.653014
 30
0.0
 11
15.185633
 21
18.649404
 31
0.0
  0
SPLINE
  5
257
100
AcDbEntity
  8
Layer_1
 62
7
100
AcDbSpline
 70
8
 71
3
 72
8
 73
4
 74
0
 40
0
 40
0
 40
0
 40
0
 40
1
 40
1
 40
1
 40
1
 10
15.185633
 20
18.649404
 30
0.0
 10
15.185457
 20
18.647624
 30
0.0
 10
15.184827
 20
18.643614
 30
0.0
 10
15.184600
 20
18.641654
 30
0.0
  0
SPLINE
  5
258
100
AcDbEntity
  8
Layer_1
 62
7
100
AcDbSpline
 70
8
 71
3
 72
8
 73
4
 74
0
 40
0
 40
0
 40
0
 40
0
 40
1
 40
1
 40
1
 40
1
 10
15.184600
 20
18.641654
 30
0.0
 10
15.185193
 20
18.647414
 30
0.0
 10
15.184992
 20
18.646834
 30
0.0
 10
15.185633
 20
18.653014
 30
0.0
  0
LINE
  5
259
100
AcDbEntity
  8
Layer_1
 62
7
100
AcDbLine
 10
15.185633
 20
18.653014
 30
0.0
 11
15.185633
 21
18.653014
 31
0.0
  0
SPLINE
  5
25a
100
AcDbEntity
  8
Layer_1
 62
7
100
AcDbSpline
 70
8
 71
3
 72
8
 73
4
 74
0
 40
0
 40
0
 40
0
 40
0
 40
1
 40
1
 40
1
 40
1
 10
3.947560
 20
18.459234
 30
0.0
 10
4.107661
 20
18.310894
 30
0.0
 10
4.278526
 20
18.165414
 30
0.0
 10
4.459156
 20
18.029804
 30
0.0
  0
SPLINE
  5
25b
100
AcDbEntity
  8
Layer_1
 62
7
100
AcDbSpline
 70
8
 71
3
 72
8
 73
4
 74
0
 40
0
 40
0
 40
0
 40
0
 40
1
 40
1
 40
1
 40
1
 10
4.459156
 20
18.029804
 30
0.0
 10
5.300601
 20
17.396044
 30
0.0
 10
6.352877
 20
17.077484
 30
0.0
 10
6.783046
 20
16.861914
 30
0.0
  0
LINE
  5
25c
100
AcDbEntity
  8
Layer_1
 62
7
100
AcDbLine
 10
6.783046
 20
16.861914
 30
0.0
 11
6.785113
 21
16.859844
 31
0.0
  0
SPLINE
  5
25d
100
AcDbEntity
  8
Layer_1
 62
7
100
AcDbSpline
 70
8
 71
3
 72
8
 73
4
 74
0
 40
0
 40
0
 40
0
 40
0
 40
1
 40
1
 40
1
 40
1
 10
6.785113
 20
16.859844
 30
0.0
 10
7.463825
 20
16.523264
 30
0.0
 10
8.589687
 20
16.127344
 30
0.0
 10
8.904363
 20
16.004604
 30
0.0
  0
LINE
  5
25e
100
AcDbEntity
  8
Layer_1
 62
7
100
AcDbLine
 10
8.904363
 20
16.004604
 30
0.0
 11
8.907980
 21
16.002534
 31
0.0
  0
SPLINE
  5
25f
100
AcDbEntity
  8
Layer_1
 62
7
100
AcDbSpline
 70
8
 71
3
 72
8
 73
4
 74
0
 40
0
 40
0
 40
0
 40
0
 40
1
 40
1
 40
1
 40
1
 10
8.907980
 20
16.002534
 30
0.0
 10
9.147757
 20
15.910134
 30
0.0
 10
9.313431
 20
15.886574
 30
0.0
 10
9.560654
 20
15.836654
 30
0.0
  0
SPLINE
  5
260
100
AcDbEntity
  8
Layer_1
 62
7
100
AcDbSpline
 70
8
 71
3
 72
8
 73
4
 74
0
 40
0
 40
0
 40
0
 40
0
 40
1
 40
1
 40
1
 40
1
 10
9.560654
 20
15.836654
 30
0.0
 10
9.807875
 20
15.786754
 30
0.0
 10
10.093336
 20
15.735434
 30
0.0
 10
10.375074
 20
15.686274
 30
0.0
  0
SPLINE
  5
261
100
AcDbEntity
  8
Layer_1
 62
7
100
AcDbSpline
 70
8
 71
3
 72
8
 73
4
 74
0
 40
0
 40
0
 40
0
 40
0
 40
1
 40
1
 40
1
 40
1
 10
10.375074
 20
15.686274
 30
0.0
 10
10.409027
 20
15.680354
 30
0.0
 10
10.438875
 20
15.674734
 30
0.0
 10
10.473260
 20
15.668704
 30
0.0
  0
SPLINE
  5
262
100
AcDbEntity
  8
Layer_1
 62
7
100
AcDbSpline
 70
8
 71
3
 72
8
 73
4
 74
0
 40
0
 40
0
 40
0
 40
0
 40
1
 40
1
 40
1
 40
1
 10
10.473260
 20
15.668704
 30
0.0
 10
10.657177
 20
15.505014
 30
0.0
 10
10.928712
 20
15.265544
 30
0.0
 10
11.156422
 20
15.081144
 30
0.0
  0
SPLINE
  5
263
100
AcDbEntity
  8
Layer_1
 62
7
100
AcDbSpline
 70
8
 71
3
 72
8
 73
4
 74
0
 40
0
 40
0
 40
0
 40
0
 40
1
 40
1
 40
1
 40
1
 10
11.156422
 20
15.081144
 30
0.0
 10
11.160182
 20
15.077665
 30
0.0
 10
11.163972
 20
15.074218
 30
0.0
 10
11.167791
 20
15.070804
 30
0.0
  0
SPLINE
  5
264
100
AcDbEntity
  8
Layer_1
 62
7
100
AcDbSpline
 70
8
 71
3
 72
8
 73
4
 74
0
 40
0
 40
0
 40
0
 40
0
 40
1
 40
1
 40
1
 40
1
 10
11.167791
 20
15.070804
 30
0.0
 10
11.425600
 20
14.869114
 30
0.0
 10
11.385989
 20
14.960854
 30
0.0
 10
11.490252
 20
14.637244
 30
0.0
  0
SPLINE
  5
265
100
AcDbEntity
  8
Layer_1
 62
7
100
AcDbSpline
 70
8
 71
3
 72
8
 73
4
 74
0
 40
0
 40
0
 40
0
 40
0
 40
1
 40
1
 40
1
 40
1
 10
11.490252
 20
14.637244
 30
0.0
 10
11.551802
 20
14.447024
 30
0.0
 10
11.573418
 20
14.661314
 30
0.0
 10
11.433408
 20
14.363874
 30
0.0
  0
LINE
  5
266
100
AcDbEntity
  8
Layer_1
 62
7
100
AcDbLine
 10
11.433408
 20
14.363874
 30
0.0
 11
11.431341
 21
14.361804
 31
0.0
  0
SPLINE
  5
267
100
AcDbEntity
  8
Layer_1
 62
7
100
AcDbSpline
 70
8
 71
3
 72
8
 73
4
 74
0
 40
0
 40
0
 40
0
 40
0
 40
1
 40
1
 40
1
 40
1
 10
11.431341
 20
14.361804
 30
0.0
 10
11.353291
 20
14.195284
 30
0.0
 10
11.317647
 20
14.206704
 30
0.0
 10
11.031365
 20
13.985084
 30
0.0
  0
SPLINE
  5
268
100
AcDbEntity
  8
Layer_1
 62
7
100
AcDbSpline
 70
8
 71
3
 72
8
 73
4
 74
0
 40
0
 40
0
 40
0
 40
0
 40
1
 40
1
 40
1
 40
1
 10
11.031365
 20
13.985084
 30
0.0
 10
11.174230
 20
14.095544
 30
0.0
 10
10.964392
 20
13.961354
 30
0.0
 10
10.751796
 20
13.885354
 30
0.0
  0
SPLINE
  5
269
100
AcDbEntity
  8
Layer_1
 62
7
100
AcDbSpline
 70
8
 71
3
 72
8
 73
4
 74
0
 40
0
 40
0
 40
0
 40
0
 40
1
 40
1
 40
1
 40
1
 10
10.751796
 20
13.885354
 30
0.0
 10
10.537405
 20
13.808654
 30
0.0
 10
10.270501
 20
13.722684
 30
0.0
 10
10.025225
 20
13.633174
 30
0.0
  0
SPLINE
  5
26a
100
AcDbEntity
  8
Layer_1
 62
7
100
AcDbSpline
 70
8
 71
3
 72
8
 73
4
 74
0
 40
0
 40
0
 40
0
 40
0
 40
1
 40
1
 40
1
 40
1
 10
10.025225
 20
13.633174
 30
0.0
 10
9.743230
 20
13.530044
 30
0.0
 10
8.864454
 20
13.352644
 30
0.0
 10
8.662001
 20
13.328794
 30
0.0
  0
LINE
  5
26b
100
AcDbEntity
  8
Layer_1
 62
7
100
AcDbLine
 10
8.662001
 20
13.328794
 30
0.0
 11
8.659934
 21
13.328794
 31
0.0
  0
SPLINE
  5
26c
100
AcDbEntity
  8
Layer_1
 62
7
100
AcDbSpline
 70
8
 71
3
 72
8
 73
4
 74
0
 40
0
 40
0
 40
0
 40
0
 40
1
 40
1
 40
1
 40
1
 10
8.659934
 20
13.328794
 30
0.0
 10
8.023127
 20
13.252694
 30
0.0
 10
7.780120
 20
13.334484
 30
0.0
 10
6.960812
 20
13.334484
 30
0.0
  0
SPLINE
  5
26d
100
AcDbEntity
  8
Layer_1
 62
7
100
AcDbSpline
 70
8
 71
3
 72
8
 73
4
 74
0
 40
0
 40
0
 40
0
 40
0
 40
1
 40
1
 40
1
 40
1
 10
6.960812
 20
13.334484
 30
0.0
 10
6.570345
 20
13.334484
 30
0.0
 10
5.420556
 20
13.564254
 30
0.0
 10
5.023463
 20
13.661074
 30
0.0
  0
SPLINE
  5
26e
100
AcDbEntity
  8
Layer_1
 62
7
100
AcDbSpline
 70
8
 71
3
 72
8
 73
4
 74
0
 40
0
 40
0
 40
0
 40
0
 40
1
 40
1
 40
1
 40
1
 10
5.023463
 20
13.661074
 30
0.0
 10
4.901295
 20
13.690774
 30
0.0
 10
3.881455
 20
14.188034
 30
0.0
 10
3.743955
 20
14.285844
 30
0.0
  0
LINE
  5
26f
100
AcDbEntity
  8
Layer_1
 62
7
100
AcDbLine
 10
3.743955
 20
14.285844
 30
0.0
 11
3.740337
 21
14.287914
 31
0.0
  0
SPLINE
  5
270
100
AcDbEntity
  8
Layer_1
 62
7
100
AcDbSpline
 70
8
 71
3
 72
8
 73
4
 74
0
 40
0
 40
0
 40
0
 40
0
 40
1
 40
1
 40
1
 40
1
 10
3.740337
 20
14.287914
 30
0.0
 10
3.287843
 20
14.606964
 30
0.0
 10
2.852846
 20
15.028674
 30
0.0
 10
2.616892
 20
15.268214
 30
0.0
  0
LINE
  5
271
100
AcDbEntity
  8
Layer_1
 62
7
100
AcDbLine
 10
2.616892
 20
15.268214
 30
0.0
 11
2.615341
 21
15.270284
 31
0.0
  0
SPLINE
  5
272
100
AcDbEntity
  8
Layer_1
 62
7
100
AcDbSpline
 70
8
 71
3
 72
8
 73
4
 74
0
 40
0
 40
0
 40
0
 40
0
 40
1
 40
1
 40
1
 40
1
 10
2.615341
 20
15.270284
 30
0.0
 10
2.120632
 20
15.768334
 30
0.0
 10
2.085359
 20
15.858224
 30
0.0
 10
1.886704
 20
16.284174
 30
0.0
  0
LINE
  5
273
100
AcDbEntity
  8
Layer_1
 62
7
100
AcDbLine
 10
1.886704
 20
16.284174
 30
0.0
 11
1.884636
 21
16.285724
 31
0.0
  0
SPLINE
  5
274
100
AcDbEntity
  8
Layer_1
 62
7
100
AcDbSpline
 70
8
 71
3
 72
8
 73
4
 74
0
 40
0
 40
0
 40
0
 40
0
 40
1
 40
1
 40
1
 40
1
 10
1.884636
 20
16.285724
 30
0.0
 10
1.708179
 20
16.661014
 30
0.0
 10
1.735693
 20
16.497074
 30
0.0
 10
1.728574
 20
17.083084
 30
0.0
  0
SPLINE
  5
275
100
AcDbEntity
  8
Layer_1
 62
7
100
AcDbSpline
 70
8
 71
3
 72
8
 73
4
 74
0
 40
0
 40
0
 40
0
 40
0
 40
1
 40
1
 40
1
 40
1
 10
1.728574
 20
17.083084
 30
0.0
 10
1.721874
 20
17.645004
 30
0.0
 10
1.734230
 20
17.410184
 30
0.0
 10
2.007626
 20
17.832914
 30
0.0
  0
SPLINE
  5
276
100
AcDbEntity
  8
Layer_1
 62
7
100
AcDbSpline
 70
8
 71
3
 72
8
 73
4
 74
0
 40
0
 40
0
 40
0
 40
0
 40
1
 40
1
 40
1
 40
1
 10
2.007626
 20
17.832914
 30
0.0
 10
1.956416
 20
17.753814
 30
0.0
 10
2.071864
 20
17.891124
 30
0.0
 10
2.216399
 20
17.988974
 30
0.0
  0
SPLINE
  5
277
100
AcDbEntity
  8
Layer_1
 62
7
100
AcDbSpline
 70
8
 71
3
 72
8
 73
4
 74
0
 40
0
 40
0
 40
0
 40
0
 40
1
 40
1
 40
1
 40
1
 10
2.216399
 20
17.988974
 30
0.0
 10
2.354318
 20
18.082274
 30
0.0
 10
2.508807
 20
18.170344
 30
0.0
 10
2.623093
 20
18.234954
 30
0.0
  0
SPLINE
  5
278
100
AcDbEntity
  8
Layer_1
 62
7
100
AcDbSpline
 70
8
 71
3
 72
8
 73
4
 74
0
 40
0
 40
0
 40
0
 40
0
 40
1
 40
1
 40
1
 40
1
 10
2.623093
 20
18.234954
 30
0.0
 10
2.537083
 20
18.189254
 30
0.0
 10
2.795899
 20
18.296644
 30
0.0
 10
2.980177
 20
18.346574
 30
0.0
  0
SPLINE
  5
279
100
AcDbEntity
  8
Layer_1
 62
7
100
AcDbSpline
 70
8
 71
3
 72
8
 73
4
 74
0
 40
0
 40
0
 40
0
 40
0
 40
1
 40
1
 40
1
 40
1
 10
2.980177
 20
18.346574
 30
0.0
 10
3.128924
 20
18.386874
 30
0.0
 10
3.213712
 20
18.403894
 30
0.0
 10
3.259746
 20
18.414794
 30
0.0
  0
LINE
  5
27a
100
AcDbEntity
  8
Layer_1
 62
7
100
AcDbLine
 10
3.259746
 20
18.414794
 30
0.0
 11
3.947560
 21
18.459234
 31
0.0
  0
LINE
  5
27b
100
AcDbEntity
  8
Layer_1
 62
7
100
AcDbLine
 10
3.947560
 20
18.459234
 30
0.0
 11
3.947560
 21
18.459234
 31
0.0
  0
SPLINE
  5
27c
100
AcDbEntity
  8
Layer_1
 62
7
100
AcDbSpline
 70
8
 71
3
 72
8
 73
4
 74
0
 40
0
 40
0
 40
0
 40
0
 40
1
 40
1
 40
1
 40
1
 10
15.045073
 20
17.916634
 30
0.0
 10
15.043675
 20
17.913369
 30
0.0
 10
15.042297
 20
17.910096
 30
0.0
 10
15.040939
 20
17.906814
 30
0.0
  0
SPLINE
  5
27d
100
AcDbEntity
  8
Layer_1
 62
7
100
AcDbSpline
 70
8
 71
3
 72
8
 73
4
 74
0
 40
0
 40
0
 40
0
 40
0
 40
1
 40
1
 40
1
 40
1
 10
15.040939
 20
17.906814
 30
0.0
 10
15.042971
 20
17.911284
 30
0.0
 10
15.042983
 20
17.913234
 30
0.0
 10
15.042490
 20
17.914564
 30
0.0
  0
SPLINE
  5
27e
100
AcDbEntity
  8
Layer_1
 62
7
100
AcDbSpline
 70
8
 71
3
 72
8
 73
4
 74
0
 40
0
 40
0
 40
0
 40
0
 40
1
 40
1
 40
1
 40
1
 10
15.042490
 20
17.914564
 30
0.0
 10
15.042992
 20
17.913984
 30
0.0
 10
15.043654
 20
17.913604
 30
0.0
 10
15.045073
 20
17.916634
 30
0.0
  0
LINE
  5
27f
100
AcDbEntity
  8
Layer_1
 62
7
100
AcDbLine
 10
15.045073
 20
17.916634
 30
0.0
 11
15.045073
 21
17.916634
 31
0.0
  0
SPLINE
  5
280
100
AcDbEntity
  8
Layer_1
 62
7
100
AcDbSpline
 70
8
 71
3
 72
8
 73
4
 74
0
 40
0
 40
0
 40
0
 40
0
 40
1
 40
1
 40
1
 40
1
 10
14.662668
 20
17.493404
 30
0.0
 10
14.662430
 20
17.492374
 30
0.0
 10
14.662295
 20
17.491484
 30
0.0
 10
14.664218
 20
17.492884
 30
0.0
  0
LINE
  5
281
100
AcDbEntity
  8
Layer_1
 62
7
100
AcDbLine
 10
14.664218
 20
17.492884
 30
0.0
 11
14.662151
 21
17.492884
 31
0.0
  0
LINE
  5
282
100
AcDbEntity
  8
Layer_1
 62
7
100
AcDbLine
 10
14.662151
 20
17.492884
 30
0.0
 11
14.662668
 21
17.493404
 31
0.0
  0
LINE
  5
283
100
AcDbEntity
  8
Layer_1
 62
7
100
AcDbLine
 10
14.662668
 20
17.493404
 30
0.0
 11
14.662668
 21
17.493404
 31
0.0
  0
ENDSEC
  0
SECTION
  2
OBJECTS
  0
DICTIONARY
  5
C
330
0
100
AcDbDictionary
  3
ACAD_GROUP
350
D
  3
ACAD_MLINESTYLE
350
17
  0
DICTIONARY
  5
D
330
C
100
AcDbDictionary
  0
DICTIONARY
  5
1A
330
C
100
AcDbDictionary
  0
DICTIONARY
  5
17
330
C
100
AcDbDictionary
  3
STANDARD
350
18
  0
DICTIONARY
  5
19
330
C
100
AcDbDictionary
  0
ENDSEC
  0
EOF
