ISO-10303-21;
HEADER;
/* Generated by software containing ST-Developer
 * from STEP Tools, Inc. (www.steptools.com) 
 */
/* OPTION: using custom renumber hook */

FILE_DESCRIPTION(
/* description */ ('STEP AP242',
'CAx-IF Rec.Pracs.---Representation and Presentation of Product Manufa
cturing Information (PMI)---4.0---2014-10-13',
'CAx-IF Rec.Pracs.---3D Tessellated Geometry---0.4---2014-09-14','2;1'),

/* implementation_level */ '2;1');

FILE_NAME(
/* name */ 'box - lid',
/* time_stamp */ '2025-01-25T15:29:13Z',
/* author */ (''),
/* organization */ (''),
/* preprocessor_version */ 'ST-DEVELOPER v20',
/* originating_system */ 'ONSHAPE BY PTC INC, 1.192',
/* authorisation */ '  ');

FILE_SCHEMA (('AP242_MANAGED_MODEL_BASED_3D_ENGINEERING_MIM_LF { 1 0 10303 442 1 1 4 }'));
ENDSEC;

DATA;
#10=SHAPE_REPRESENTATION_RELATIONSHIP('','',#245,#11);
#11=ADVANCED_BREP_SHAPE_REPRESENTATION('',(#243),#425);
#12=PLANE('',#253);
#13=PLANE('',#266);
#14=PLANE('',#267);
#15=PLANE('',#277);
#16=LINE('',#361,#30);
#17=LINE('',#365,#31);
#18=LINE('',#371,#32);
#19=LINE('',#373,#33);
#20=LINE('',#376,#34);
#21=LINE('',#377,#35);
#22=LINE('',#383,#36);
#23=LINE('',#387,#37);
#24=LINE('',#394,#38);
#25=LINE('',#398,#39);
#26=LINE('',#400,#40);
#27=LINE('',#406,#41);
#28=LINE('',#408,#42);
#29=LINE('',#410,#43);
#30=VECTOR('',#284,1.);
#31=VECTOR('',#287,1.);
#32=VECTOR('',#294,1.);
#33=VECTOR('',#297,1.);
#34=VECTOR('',#298,1.);
#35=VECTOR('',#299,1.);
#36=VECTOR('',#306,1.);
#37=VECTOR('',#311,1.);
#38=VECTOR('',#318,1.);
#39=VECTOR('',#321,1.);
#40=VECTOR('',#324,1.);
#41=VECTOR('',#331,1.);
#42=VECTOR('',#332,1.);
#43=VECTOR('',#333,1.);
#44=ORIENTED_EDGE('',*,*,#108,.F.);
#45=ORIENTED_EDGE('',*,*,#109,.T.);
#46=ORIENTED_EDGE('',*,*,#110,.T.);
#47=ORIENTED_EDGE('',*,*,#111,.F.);
#48=ORIENTED_EDGE('',*,*,#112,.F.);
#49=ORIENTED_EDGE('',*,*,#111,.T.);
#50=ORIENTED_EDGE('',*,*,#113,.T.);
#51=ORIENTED_EDGE('',*,*,#114,.F.);
#52=ORIENTED_EDGE('',*,*,#115,.F.);
#53=ORIENTED_EDGE('',*,*,#116,.T.);
#54=ORIENTED_EDGE('',*,*,#114,.T.);
#55=ORIENTED_EDGE('',*,*,#117,.F.);
#56=ORIENTED_EDGE('',*,*,#118,.F.);
#57=ORIENTED_EDGE('',*,*,#115,.T.);
#58=ORIENTED_EDGE('',*,*,#119,.T.);
#59=ORIENTED_EDGE('',*,*,#120,.F.);
#60=ORIENTED_EDGE('',*,*,#120,.T.);
#61=ORIENTED_EDGE('',*,*,#121,.F.);
#62=ORIENTED_EDGE('',*,*,#122,.T.);
#63=ORIENTED_EDGE('',*,*,#123,.T.);
#64=ORIENTED_EDGE('',*,*,#124,.F.);
#65=ORIENTED_EDGE('',*,*,#125,.T.);
#66=ORIENTED_EDGE('',*,*,#126,.T.);
#67=ORIENTED_EDGE('',*,*,#127,.F.);
#68=ORIENTED_EDGE('',*,*,#128,.F.);
#69=ORIENTED_EDGE('',*,*,#129,.T.);
#70=ORIENTED_EDGE('',*,*,#127,.T.);
#71=ORIENTED_EDGE('',*,*,#130,.F.);
#72=ORIENTED_EDGE('',*,*,#128,.T.);
#73=ORIENTED_EDGE('',*,*,#131,.T.);
#74=ORIENTED_EDGE('',*,*,#132,.T.);
#75=ORIENTED_EDGE('',*,*,#133,.F.);
#76=ORIENTED_EDGE('',*,*,#134,.T.);
#77=ORIENTED_EDGE('',*,*,#124,.T.);
#78=ORIENTED_EDGE('',*,*,#129,.F.);
#79=ORIENTED_EDGE('',*,*,#133,.T.);
#80=ORIENTED_EDGE('',*,*,#135,.T.);
#81=ORIENTED_EDGE('',*,*,#108,.T.);
#82=ORIENTED_EDGE('',*,*,#112,.T.);
#83=ORIENTED_EDGE('',*,*,#116,.F.);
#84=ORIENTED_EDGE('',*,*,#118,.T.);
#85=ORIENTED_EDGE('',*,*,#123,.F.);
#86=ORIENTED_EDGE('',*,*,#136,.T.);
#87=ORIENTED_EDGE('',*,*,#135,.F.);
#88=ORIENTED_EDGE('',*,*,#132,.F.);
#89=ORIENTED_EDGE('',*,*,#137,.T.);
#90=ORIENTED_EDGE('',*,*,#109,.F.);
#91=ORIENTED_EDGE('',*,*,#136,.F.);
#92=ORIENTED_EDGE('',*,*,#138,.T.);
#93=ORIENTED_EDGE('',*,*,#122,.F.);
#94=ORIENTED_EDGE('',*,*,#139,.T.);
#95=ORIENTED_EDGE('',*,*,#125,.F.);
#96=ORIENTED_EDGE('',*,*,#134,.F.);
#97=ORIENTED_EDGE('',*,*,#139,.F.);
#98=ORIENTED_EDGE('',*,*,#121,.T.);
#99=ORIENTED_EDGE('',*,*,#119,.F.);
#100=ORIENTED_EDGE('',*,*,#117,.T.);
#101=ORIENTED_EDGE('',*,*,#113,.F.);
#102=ORIENTED_EDGE('',*,*,#110,.F.);
#103=ORIENTED_EDGE('',*,*,#137,.F.);
#104=ORIENTED_EDGE('',*,*,#131,.F.);
#105=ORIENTED_EDGE('',*,*,#130,.T.);
#106=ORIENTED_EDGE('',*,*,#126,.F.);
#107=ORIENTED_EDGE('',*,*,#138,.F.);
#108=EDGE_CURVE('',#140,#141,#162,.T.);
#109=EDGE_CURVE('',#140,#142,#16,.T.);
#110=EDGE_CURVE('',#142,#143,#163,.T.);
#111=EDGE_CURVE('',#141,#143,#17,.T.);
#112=EDGE_CURVE('',#141,#144,#164,.T.);
#113=EDGE_CURVE('',#143,#145,#165,.T.);
#114=EDGE_CURVE('',#144,#145,#18,.T.);
#115=EDGE_CURVE('',#146,#147,#19,.T.);
#116=EDGE_CURVE('',#146,#144,#20,.T.);
#117=EDGE_CURVE('',#147,#145,#21,.T.);
#118=EDGE_CURVE('',#146,#148,#166,.T.);
#119=EDGE_CURVE('',#147,#149,#167,.T.);
#120=EDGE_CURVE('',#148,#149,#22,.T.);
#121=EDGE_CURVE('',#150,#149,#168,.T.);
#122=EDGE_CURVE('',#150,#151,#23,.F.);
#123=EDGE_CURVE('',#151,#148,#169,.T.);
#124=EDGE_CURVE('',#152,#153,#170,.T.);
#125=EDGE_CURVE('',#152,#154,#24,.T.);
#126=EDGE_CURVE('',#154,#155,#171,.T.);
#127=EDGE_CURVE('',#153,#155,#25,.T.);
#128=EDGE_CURVE('',#156,#157,#26,.T.);
#129=EDGE_CURVE('',#156,#153,#172,.T.);
#130=EDGE_CURVE('',#157,#155,#173,.T.);
#131=EDGE_CURVE('',#157,#158,#27,.T.);
#132=EDGE_CURVE('',#158,#159,#28,.T.);
#133=EDGE_CURVE('',#156,#159,#29,.T.);
#134=EDGE_CURVE('',#151,#152,#174,.T.);
#135=EDGE_CURVE('',#159,#140,#175,.F.);
#136=EDGE_CURVE('',#160,#160,#176,.F.);
#137=EDGE_CURVE('',#158,#142,#177,.F.);
#138=EDGE_CURVE('',#161,#161,#178,.F.);
#139=EDGE_CURVE('',#150,#154,#179,.T.);
#140=VERTEX_POINT('',#359);
#141=VERTEX_POINT('',#360);
#142=VERTEX_POINT('',#362);
#143=VERTEX_POINT('',#364);
#144=VERTEX_POINT('',#368);
#145=VERTEX_POINT('',#370);
#146=VERTEX_POINT('',#374);
#147=VERTEX_POINT('',#375);
#148=VERTEX_POINT('',#380);
#149=VERTEX_POINT('',#382);
#150=VERTEX_POINT('',#386);
#151=VERTEX_POINT('',#388);
#152=VERTEX_POINT('',#392);
#153=VERTEX_POINT('',#393);
#154=VERTEX_POINT('',#395);
#155=VERTEX_POINT('',#397);
#156=VERTEX_POINT('',#401);
#157=VERTEX_POINT('',#402);
#158=VERTEX_POINT('',#407);
#159=VERTEX_POINT('',#409);
#160=VERTEX_POINT('',#415);
#161=VERTEX_POINT('',#420);
#162=CIRCLE('',#248,0.0031);
#163=CIRCLE('',#249,0.0031);
#164=CIRCLE('',#251,0.0058);
#165=CIRCLE('',#252,0.0058);
#166=CIRCLE('',#255,0.0058);
#167=CIRCLE('',#256,0.0058);
#168=CIRCLE('',#258,0.000995122676472096);
#169=CIRCLE('',#259,0.000995122676472096);
#170=CIRCLE('',#261,0.0017951226764721);
#171=CIRCLE('',#262,0.0017951226764721);
#172=CIRCLE('',#264,0.005);
#173=CIRCLE('',#265,0.005);
#174=CIRCLE('',#268,0.0004);
#175=CIRCLE('',#269,0.00333333333333333);
#176=CIRCLE('',#270,0.00125);
#177=CIRCLE('',#272,0.00333333333333333);
#178=CIRCLE('',#274,0.00125);
#179=CIRCLE('',#276,0.0004);
#180=EDGE_LOOP('',(#44,#45,#46,#47));
#181=EDGE_LOOP('',(#48,#49,#50,#51));
#182=EDGE_LOOP('',(#52,#53,#54,#55));
#183=EDGE_LOOP('',(#56,#57,#58,#59));
#184=EDGE_LOOP('',(#60,#61,#62,#63));
#185=EDGE_LOOP('',(#64,#65,#66,#67));
#186=EDGE_LOOP('',(#68,#69,#70,#71));
#187=EDGE_LOOP('',(#72,#73,#74,#75));
#188=EDGE_LOOP('',(#76,#77,#78,#79,#80,#81,#82,#83,#84,#85));
#189=EDGE_LOOP('',(#86));
#190=EDGE_LOOP('',(#87,#88,#89,#90));
#191=EDGE_LOOP('',(#91));
#192=EDGE_LOOP('',(#92));
#193=EDGE_LOOP('',(#93,#94,#95,#96));
#194=EDGE_LOOP('',(#97,#98,#99,#100,#101,#102,#103,#104,#105,#106));
#195=EDGE_LOOP('',(#107));
#196=FACE_BOUND('',#180,.T.);
#197=FACE_BOUND('',#181,.T.);
#198=FACE_BOUND('',#182,.T.);
#199=FACE_BOUND('',#183,.T.);
#200=FACE_BOUND('',#184,.T.);
#201=FACE_BOUND('',#185,.T.);
#202=FACE_BOUND('',#186,.T.);
#203=FACE_BOUND('',#187,.T.);
#204=FACE_BOUND('',#188,.T.);
#205=FACE_BOUND('',#189,.T.);
#206=FACE_BOUND('',#190,.T.);
#207=FACE_BOUND('',#191,.T.);
#208=FACE_BOUND('',#192,.T.);
#209=FACE_BOUND('',#193,.T.);
#210=FACE_BOUND('',#194,.T.);
#211=FACE_BOUND('',#195,.T.);
#212=CYLINDRICAL_SURFACE('',#247,0.0031);
#213=CYLINDRICAL_SURFACE('',#250,0.0058);
#214=CYLINDRICAL_SURFACE('',#254,0.0058);
#215=CYLINDRICAL_SURFACE('',#257,0.000995122676472096);
#216=CYLINDRICAL_SURFACE('',#260,0.0017951226764721);
#217=CYLINDRICAL_SURFACE('',#263,0.005);
#218=CYLINDRICAL_SURFACE('',#271,0.00333333333333333);
#219=CYLINDRICAL_SURFACE('',#273,0.00125);
#220=CYLINDRICAL_SURFACE('',#275,0.0004);
#221=ADVANCED_FACE('',(#196),#212,.T.);
#222=ADVANCED_FACE('',(#197),#213,.T.);
#223=ADVANCED_FACE('',(#198),#12,.T.);
#224=ADVANCED_FACE('',(#199),#214,.T.);
#225=ADVANCED_FACE('',(#200),#215,.F.);
#226=ADVANCED_FACE('',(#201),#216,.T.);
#227=ADVANCED_FACE('',(#202),#217,.F.);
#228=ADVANCED_FACE('',(#203),#13,.F.);
#229=ADVANCED_FACE('',(#204,#205),#14,.T.);
#230=ADVANCED_FACE('',(#206),#218,.F.);
#231=ADVANCED_FACE('',(#207,#208),#219,.F.);
#232=ADVANCED_FACE('',(#209),#220,.T.);
#233=ADVANCED_FACE('',(#210,#211),#15,.T.);
#234=CLOSED_SHELL('',(#221,#222,#223,#224,#225,#226,#227,#228,#229,#230,
#231,#232,#233));
#235=STYLED_ITEM('',(#236),#243);
#236=PRESENTATION_STYLE_ASSIGNMENT((#237));
#237=SURFACE_STYLE_USAGE(.BOTH.,#238);
#238=SURFACE_SIDE_STYLE('',(#239));
#239=SURFACE_STYLE_FILL_AREA(#240);
#240=FILL_AREA_STYLE('',(#241));
#241=FILL_AREA_STYLE_COLOUR('',#242);
#242=COLOUR_RGB('',0.647058823529412,0.647058823529412,0.647058823529412);
#243=MANIFOLD_SOLID_BREP('lid',#234);
#244=SHAPE_DEFINITION_REPRESENTATION(#430,#245);
#245=SHAPE_REPRESENTATION('lid',(#246),#425);
#246=AXIS2_PLACEMENT_3D('',#356,#278,#279);
#247=AXIS2_PLACEMENT_3D('',#357,#280,#281);
#248=AXIS2_PLACEMENT_3D('',#358,#282,#283);
#249=AXIS2_PLACEMENT_3D('',#363,#285,#286);
#250=AXIS2_PLACEMENT_3D('',#366,#288,#289);
#251=AXIS2_PLACEMENT_3D('',#367,#290,#291);
#252=AXIS2_PLACEMENT_3D('',#369,#292,#293);
#253=AXIS2_PLACEMENT_3D('',#372,#295,#296);
#254=AXIS2_PLACEMENT_3D('',#378,#300,#301);
#255=AXIS2_PLACEMENT_3D('',#379,#302,#303);
#256=AXIS2_PLACEMENT_3D('',#381,#304,#305);
#257=AXIS2_PLACEMENT_3D('',#384,#307,#308);
#258=AXIS2_PLACEMENT_3D('',#385,#309,#310);
#259=AXIS2_PLACEMENT_3D('',#389,#312,#313);
#260=AXIS2_PLACEMENT_3D('',#390,#314,#315);
#261=AXIS2_PLACEMENT_3D('',#391,#316,#317);
#262=AXIS2_PLACEMENT_3D('',#396,#319,#320);
#263=AXIS2_PLACEMENT_3D('',#399,#322,#323);
#264=AXIS2_PLACEMENT_3D('',#403,#325,#326);
#265=AXIS2_PLACEMENT_3D('',#404,#327,#328);
#266=AXIS2_PLACEMENT_3D('',#405,#329,#330);
#267=AXIS2_PLACEMENT_3D('',#411,#334,#335);
#268=AXIS2_PLACEMENT_3D('',#412,#336,#337);
#269=AXIS2_PLACEMENT_3D('',#413,#338,#339);
#270=AXIS2_PLACEMENT_3D('',#414,#340,#341);
#271=AXIS2_PLACEMENT_3D('',#416,#342,#343);
#272=AXIS2_PLACEMENT_3D('',#417,#344,#345);
#273=AXIS2_PLACEMENT_3D('',#418,#346,#347);
#274=AXIS2_PLACEMENT_3D('',#419,#348,#349);
#275=AXIS2_PLACEMENT_3D('',#421,#350,#351);
#276=AXIS2_PLACEMENT_3D('',#422,#352,#353);
#277=AXIS2_PLACEMENT_3D('',#423,#354,#355);
#278=DIRECTION('',(0.,0.,1.));
#279=DIRECTION('',(1.,0.,0.));
#280=DIRECTION('',(-1.,0.,0.));
#281=DIRECTION('',(0.,0.,1.));
#282=DIRECTION('',(1.,0.,0.));
#283=DIRECTION('',(0.,0.,-1.));
#284=DIRECTION('',(-1.,0.,0.));
#285=DIRECTION('',(1.,0.,0.));
#286=DIRECTION('',(0.,0.,-1.));
#287=DIRECTION('',(-1.,0.,0.));
#288=DIRECTION('',(-1.,0.,0.));
#289=DIRECTION('',(0.,0.,1.));
#290=DIRECTION('',(1.,0.,0.));
#291=DIRECTION('',(0.,0.,-1.));
#292=DIRECTION('',(1.,0.,0.));
#293=DIRECTION('',(0.,0.,-1.));
#294=DIRECTION('',(-1.,0.,0.));
#295=DIRECTION('',(0.,0.,1.));
#296=DIRECTION('',(1.,0.,0.));
#297=DIRECTION('',(-1.,0.,0.));
#298=DIRECTION('',(0.,1.,0.));
#299=DIRECTION('',(0.,1.,0.));
#300=DIRECTION('',(-1.,0.,0.));
#301=DIRECTION('',(0.,0.,1.));
#302=DIRECTION('',(1.,0.,0.));
#303=DIRECTION('',(0.,0.,-1.));
#304=DIRECTION('',(1.,0.,0.));
#305=DIRECTION('',(0.,0.,-1.));
#306=DIRECTION('',(-1.,0.,0.));
#307=DIRECTION('',(-1.,0.,0.));
#308=DIRECTION('',(0.,0.,1.));
#309=DIRECTION('',(1.,0.,0.));
#310=DIRECTION('',(0.,0.,-1.));
#311=DIRECTION('',(-1.,0.,0.));
#312=DIRECTION('',(1.,0.,0.));
#313=DIRECTION('',(0.,0.,-1.));
#314=DIRECTION('',(-1.,0.,0.));
#315=DIRECTION('',(0.,0.,1.));
#316=DIRECTION('',(1.,0.,0.));
#317=DIRECTION('',(0.,0.,-1.));
#318=DIRECTION('',(-1.,0.,0.));
#319=DIRECTION('',(1.,0.,0.));
#320=DIRECTION('',(0.,0.,-1.));
#321=DIRECTION('',(-1.,0.,0.));
#322=DIRECTION('',(-1.,0.,0.));
#323=DIRECTION('',(0.,0.,1.));
#324=DIRECTION('',(-1.,0.,0.));
#325=DIRECTION('',(1.,0.,0.));
#326=DIRECTION('',(0.,0.,-1.));
#327=DIRECTION('',(1.,0.,0.));
#328=DIRECTION('',(0.,0.,-1.));
#329=DIRECTION('',(0.,0.,1.));
#330=DIRECTION('',(1.,0.,0.));
#331=DIRECTION('',(0.,1.,0.));
#332=DIRECTION('',(1.,0.,0.));
#333=DIRECTION('',(0.,1.,0.));
#334=DIRECTION('',(1.,0.,0.));
#335=DIRECTION('',(0.,1.,0.));
#336=DIRECTION('',(1.,0.,0.));
#337=DIRECTION('',(0.,0.,-1.));
#338=DIRECTION('',(1.,0.,0.));
#339=DIRECTION('',(0.,0.,-1.));
#340=DIRECTION('',(1.,0.,0.));
#341=DIRECTION('',(0.,0.,-1.));
#342=DIRECTION('',(-1.,0.,0.));
#343=DIRECTION('',(0.,0.,1.));
#344=DIRECTION('',(1.,0.,0.));
#345=DIRECTION('',(0.,0.,-1.));
#346=DIRECTION('',(-1.,0.,0.));
#347=DIRECTION('',(0.,0.,1.));
#348=DIRECTION('',(1.,0.,0.));
#349=DIRECTION('',(0.,0.,-1.));
#350=DIRECTION('',(-1.,0.,0.));
#351=DIRECTION('',(0.,0.,1.));
#352=DIRECTION('',(1.,0.,0.));
#353=DIRECTION('',(0.,0.,-1.));
#354=DIRECTION('',(-1.,0.,0.));
#355=DIRECTION('',(0.,1.,0.));
#356=CARTESIAN_POINT('',(0.,0.,0.));
#357=CARTESIAN_POINT('',(0.057602,0.0443,-2.49366499671666E-18));
#358=CARTESIAN_POINT('',(0.0575,0.0443,-2.49366499671666E-18));
#359=CARTESIAN_POINT('',(0.0575,0.0413058363033985,0.000803108808290153));
#360=CARTESIAN_POINT('',(0.0575,0.0474,2.44508920427239E-18));
#361=CARTESIAN_POINT('',(0.057602,0.0413058363033985,0.000803108808290153));
#362=CARTESIAN_POINT('',(-0.0575,0.0413058363033985,0.000803108808290153));
#363=CARTESIAN_POINT('',(-0.0575,0.0443,-2.49366499671666E-18));
#364=CARTESIAN_POINT('',(-0.0575,0.0474,2.44508920427239E-18));
#365=CARTESIAN_POINT('',(0.057602,0.0474,2.44508920427239E-18));
#366=CARTESIAN_POINT('',(0.057602,0.0416,-3.265531974911E-18));
#367=CARTESIAN_POINT('',(0.0575,0.0416,-3.265531974911E-18));
#368=CARTESIAN_POINT('',(0.0575,0.0416,0.0058));
#369=CARTESIAN_POINT('',(-0.0575,0.0416,-3.265531974911E-18));
#370=CARTESIAN_POINT('',(-0.0575,0.0416,0.0058));
#371=CARTESIAN_POINT('',(0.057602,0.0416,0.0058));
#372=CARTESIAN_POINT('',(0.057602,0.0208,0.0058));
#373=CARTESIAN_POINT('',(0.057602,0.,0.0058));
#374=CARTESIAN_POINT('',(0.0575,0.,0.0058));
#375=CARTESIAN_POINT('',(-0.0575,0.,0.0058));
#376=CARTESIAN_POINT('',(0.0575,0.0208,0.0058));
#377=CARTESIAN_POINT('',(-0.0575,0.0208,0.0058));
#378=CARTESIAN_POINT('',(0.057602,-2.56340926135045E-18,-1.7347234759768E-18));
#379=CARTESIAN_POINT('',(0.0575,-2.56340926135045E-18,-1.7347234759768E-18));
#380=CARTESIAN_POINT('',(0.0575,-0.00410121933088198,-0.00410121933088198));
#381=CARTESIAN_POINT('',(-0.0575,-2.56340926135045E-18,-1.7347234759768E-18));
#382=CARTESIAN_POINT('',(-0.0575,-0.00410121933088198,-0.00410121933088198));
#383=CARTESIAN_POINT('',(0.057602,-0.00410121933088198,-0.00410121933088198));
#384=CARTESIAN_POINT('',(0.057602,-0.0048048773235279,-0.0048048773235279));
#385=CARTESIAN_POINT('',(-0.0575,-0.0048048773235279,-0.0048048773235279));
#386=CARTESIAN_POINT('',(-0.0575,-0.00385325983468756,-0.00509589845018743));
#387=CARTESIAN_POINT('',(0.057602,-0.00385325983468756,-0.00509589845018743));
#388=CARTESIAN_POINT('',(0.0575,-0.00385325983468756,-0.00509589845018743));
#389=CARTESIAN_POINT('',(0.0575,-0.0048048773235279,-0.0048048773235279));
#390=CARTESIAN_POINT('',(0.057602,-0.0048048773235279,-0.0048048773235279));
#391=CARTESIAN_POINT('',(0.0575,-0.0048048773235279,-0.0048048773235279));
#392=CARTESIAN_POINT('',(0.0575,-0.00308823456788204,-0.00532985644032489));
#393=CARTESIAN_POINT('',(0.0575,-0.00353553390593274,-0.00353553390593274));
#394=CARTESIAN_POINT('',(0.057602,-0.00308823456788204,-0.00532985644032489));
#395=CARTESIAN_POINT('',(-0.0575,-0.00308823456788204,-0.00532985644032489));
#396=CARTESIAN_POINT('',(-0.0575,-0.0048048773235279,-0.0048048773235279));
#397=CARTESIAN_POINT('',(-0.0575,-0.00353553390593274,-0.00353553390593274));
#398=CARTESIAN_POINT('',(0.057602,-0.00353553390593274,-0.00353553390593274));
#399=CARTESIAN_POINT('',(0.057602,-2.28855489793121E-18,2.16840434497101E-19));
#400=CARTESIAN_POINT('',(0.057602,2.16840434497101E-18,0.005));
#401=CARTESIAN_POINT('',(0.0575,2.16840434497101E-18,0.005));
#402=CARTESIAN_POINT('',(-0.0575,2.16840434497101E-18,0.005));
#403=CARTESIAN_POINT('',(0.0575,-2.28855489793121E-18,2.16840434497101E-19));
#404=CARTESIAN_POINT('',(-0.0575,-2.28855489793121E-18,2.16840434497101E-19));
#405=CARTESIAN_POINT('',(0.057602,0.0208,0.005));
#406=CARTESIAN_POINT('',(-0.0575,0.0208,0.005));
#407=CARTESIAN_POINT('',(-0.0575,0.0380863054468376,0.005));
#408=CARTESIAN_POINT('',(0.057602,0.0380863054468376,0.005));
#409=CARTESIAN_POINT('',(0.0575,0.0380863054468376,0.005));
#410=CARTESIAN_POINT('',(0.0575,0.0208,0.005));
#411=CARTESIAN_POINT('',(0.0575,0.0196750776405004,0.));
#412=CARTESIAN_POINT('',(0.0575,-0.0034707472012848,-0.00521287744525616));
#413=CARTESIAN_POINT('',(0.0575,0.0380863054468376,0.00166666666666667));
#414=CARTESIAN_POINT('',(0.0575,0.0443,-3.06161699786838E-18));
#415=CARTESIAN_POINT('',(0.0575,0.0443,-0.00125));
#416=CARTESIAN_POINT('',(0.057602,0.0380863054468376,0.00166666666666667));
#417=CARTESIAN_POINT('',(-0.0575,0.0380863054468376,0.00166666666666667));
#418=CARTESIAN_POINT('',(0.0592,0.0443,-3.06161699786838E-18));
#419=CARTESIAN_POINT('',(-0.0575,0.0443,-3.06161699786838E-18));
#420=CARTESIAN_POINT('',(-0.0575,0.0443,-0.00125));
#421=CARTESIAN_POINT('',(0.057602,-0.0034707472012848,-0.00521287744525616));
#422=CARTESIAN_POINT('',(-0.0575,-0.0034707472012848,-0.00521287744525616));
#423=CARTESIAN_POINT('',(-0.0575,0.0196750776405004,0.));
#424=MECHANICAL_DESIGN_GEOMETRIC_PRESENTATION_REPRESENTATION('',(#235),
#425);
#425=(
GEOMETRIC_REPRESENTATION_CONTEXT(3)
GLOBAL_UNCERTAINTY_ASSIGNED_CONTEXT((#426))
GLOBAL_UNIT_ASSIGNED_CONTEXT((#429,#428,#427))
REPRESENTATION_CONTEXT('lid','TOP_LEVEL_ASSEMBLY_PART')
);
#426=UNCERTAINTY_MEASURE_WITH_UNIT(LENGTH_MEASURE(1.E-8),#429,
'DISTANCE_ACCURACY_VALUE','Maximum Tolerance applied to model');
#427=(
NAMED_UNIT(*)
SI_UNIT($,.STERADIAN.)
SOLID_ANGLE_UNIT()
);
#428=(
NAMED_UNIT(*)
PLANE_ANGLE_UNIT()
SI_UNIT($,.RADIAN.)
);
#429=(
LENGTH_UNIT()
NAMED_UNIT(*)
SI_UNIT($,.METRE.)
);
#430=PRODUCT_DEFINITION_SHAPE('','',#431);
#431=PRODUCT_DEFINITION('','',#433,#432);
#432=PRODUCT_DEFINITION_CONTEXT('',#439,'design');
#433=PRODUCT_DEFINITION_FORMATION_WITH_SPECIFIED_SOURCE('','',#435,
 .NOT_KNOWN.);
#434=PRODUCT_RELATED_PRODUCT_CATEGORY('','',(#435));
#435=PRODUCT('lid','lid','lid',(#437));
#436=PRODUCT_CATEGORY('','');
#437=PRODUCT_CONTEXT('',#439,'mechanical');
#438=APPLICATION_PROTOCOL_DEFINITION('international standard',
'ap242_managed_model_based_3d_engineering',2011,#439);
#439=APPLICATION_CONTEXT('managed model based 3d engineering');
ENDSEC;
END-ISO-10303-21;
