999
dxfrw 0.6.3
  0
SECTION
  2
HEADER
  9
$ACADVER
  1
AC1021
  9
$DWGCODEPAGE
  3
ANSI_1252
  9
$INSBASE
 10
0
 20
0
 30
0
  9
$EXTMIN
 10
1e+20
 20
1e+20
 30
1e+20
  9
$EXTMAX
 10
-1e+20
 20
-1e+20
 30
-1e+20
  9
$LIMMIN
 10
0
 20
0
  9
$LIMMAX
 10
420
 20
297
  9
$ORTHOMODE
 70
    0
  9
$REGENMODE
 70
    1
  9
$FILLMODE
 70
    1
  9
$QTEXTMODE
 70
    0
  9
$MIRRTEXT
 70
    0
  9
$LTSCALE
 40
1
  9
$ATTMODE
 70
    0
  9
$TEXTSIZE
 40
2.5
  9
$TRACEWID
 40
15.68
  9
$TEXTSTYLE
  7
STANDARD
  9
$CLAYER
  8
0
  9
$CELTYPE
  6
BYLAYER
  9
$CECOLOR
 62
  256
  9
$CELTSCALE
 40
1
  9
$DISPSILH
 70
    0
  9
$DIMSCALE
 40
1
  9
$DIMASZ
 40
2.5
  9
$DIMEXO
 40
0.625
  9
$DIMDLI
 40
3.75
  9
$DIMRND
 40
0
  9
$DIMDLE
 40
0
  9
$DIMEXE
 40
1.25
  9
$DIMTP
 40
0
  9
$DIMTM
 40
0
  9
$DIMTXT
 40
2.5
  9
$DIMCEN
 40
2.5
  9
$DIMTSZ
 40
0
  9
$DIMTOL
 70
    0
  9
$DIMLIM
 70
    0
  9
$DIMTIH
 70
    0
  9
$DIMTOH
 70
    0
  9
$DIMSE1
 70
    0
  9
$DIMSE2
 70
    0
  9
$DIMTAD
 70
    1
  9
$DIMZIN
 70
    8
  9
$DIMBLK
  1

  9
$DIMASO
 70
    1
  9
$DIMSHO
 70
    1
  9
$DIMPOST
  1

  9
$DIMAPOST
  1

  9
$DIMALT
 70
    0
  9
$DIMALTD
 70
    3
  9
$DIMALTF
 40
0.03937
  9
$DIMLFAC
 40
1
  9
$DIMTOFL
 70
    1
  9
$DIMTVP
 40
0
  9
$DIMTIX
 70
    0
  9
$DIMSOXD
 70
    0
  9
$DIMSAH
 70
    0
  9
$DIMBLK1
  1

  9
$DIMBLK2
  1

  9
$DIMSTYLE
  2
STANDARD
  9
$DIMCLRD
 70
    0
  9
$DIMCLRE
 70
    0
  9
$DIMCLRT
 70
    0
  9
$DIMTFAC
 40
1
  9
$DIMGAP
 40
0.625
  9
$DIMJUST
 70
    0
  9
$DIMSD1
 70
    0
  9
$DIMSD2
 70
    0
  9
$DIMTOLJ
 70
    0
  9
$DIMTZIN
 70
    8
  9
$DIMALTZ
 70
    0
  9
$DIMALTTZ
 70
    0
  9
$DIMUPT
 70
    0
  9
$DIMDEC
 70
    2
  9
$DIMTDEC
 70
    2
  9
$DIMALTU
 70
    2
  9
$DIMALTTD
 70
    3
  9
$DIMTXSTY
  7
STANDARD
  9
$DIMAUNIT
 70
    0
  9
$DIMADEC
 70
    0
  9
$DIMALTRND
 40
0
  9
$DIMAZIN
 70
    0
  9
$DIMDSEP
 70
   44
  9
$DIMATFIT
 70
    3
  9
$DIMFRAC
 70
    0
  9
$DIMLDRBLK
  1
STANDARD
  9
$DIMLUNIT
 70
    2
  9
$DIMLWD
 70
   -2
  9
$DIMLWE
 70
   -2
  9
$DIMTMOVE
 70
    0
  9
$DIMFXL
 40
1
  9
$DIMFXLON
 70
    0
  9
$DIMJOGANG
 40
0.7854
  9
$DIMTFILL
 70
    0
  9
$DIMTFILLCLR
 70
    0
  9
$DIMARCSYM
 70
    0
  9
$DIMLTYPE
  6

  9
$DIMLTEX1
  6

  9
$DIMLTEX2
  6

  9
$LUNITS
 70
    2
  9
$LUPREC
 70
    4
  9
$SKETCHINC
 40
1
  9
$FILLETRAD
 40
0
  9
$AUNITS
 70
    0
  9
$AUPREC
 70
    2
  9
$MENU
  1
.
  9
$ELEVATION
 40
0
  9
$PELEVATION
 40
0
  9
$THICKNESS
 40
0
  9
$LIMCHECK
 70
    0
  9
$CHAMFERA
 40
0
  9
$CHAMFERB
 40
0
  9
$CHAMFERC
 40
0
  9
$CHAMFERD
 40
0
  9
$SKPOLY
 70
    0
  9
$USRTIMER
 70
    1
  9
$ANGBASE
 50
0
  9
$ANGDIR
 70
    0
  9
$PDMODE
 70
   34
  9
$PDSIZE
 40
0
  9
$PLINEWID
 40
0
  9
$SPLFRAME
 70
    0
  9
$SPLINETYPE
 70
    2
  9
$SPLINESEGS
 70
    8
  9
$HANDSEED
  5
20000
  9
$SURFTAB1
 70
    6
  9
$SURFTAB2
 70
    6
  9
$SURFTYPE
 70
    6
  9
$SURFU
 70
    6
  9
$SURFV
 70
    6
  9
$UCSBASE
  2

  9
$UCSNAME
  2

  9
$UCSORG
 10
0
 20
0
 30
0
  9
$UCSXDIR
 10
1
 20
0
 30
0
  9
$UCSYDIR
 10
0
 20
1
 30
0
  9
$UCSORTHOREF
  2

  9
$UCSORTHOVIEW
 70
    0
  9
$UCSORGTOP
 10
0
 20
0
 30
0
  9
$UCSORGBOTTOM
 10
0
 20
0
 30
0
  9
$UCSORGLEFT
 10
0
 20
0
 30
0
  9
$UCSORGRIGHT
 10
0
 20
0
 30
0
  9
$UCSORGFRONT
 10
0
 20
0
 30
0
  9
$UCSORGBACK
 10
0
 20
0
 30
0
  9
$PUCSBASE
  2

  9
$PUCSNAME
  2

  9
$PUCSORG
 10
0
 20
0
 30
0
  9
$PUCSXDIR
 10
1
 20
0
 30
0
  9
$PUCSYDIR
 10
0
 20
1
 30
0
  9
$PUCSORTHOREF
  2

  9
$PUCSORTHOVIEW
 70
    0
  9
$PUCSORGTOP
 10
0
 20
0
 30
0
  9
$PUCSORGBOTTOM
 10
0
 20
0
 30
0
  9
$PUCSORGLEFT
 10
0
 20
0
 30
0
  9
$PUCSORGRIGHT
 10
0
 20
0
 30
0
  9
$PUCSORGFRONT
 10
0
 20
0
 30
0
  9
$PUCSORGBACK
 10
0
 20
0
 30
0
  9
$USERI1
 70
    0
  9
$USERI2
 70
    0
  9
$USERI3
 70
    0
  9
$USERI4
 70
    0
  9
$USERI5
 70
    0
  9
$USERR1
 40
0
  9
$USERR2
 40
0
  9
$USERR3
 40
0
  9
$USERR4
 40
0
  9
$USERR5
 40
0
  9
$WORLDVIEW
 70
    1
  9
$SHADEDGE
 70
    3
  9
$SHADEDIF
 70
   70
  9
$TILEMODE
 70
    1
  9
$MAXACTVP
 70
   64
  9
$PINSBASE
 10
0
 20
0
 30
0
  9
$PLIMCHECK
 70
    0
  9
$PEXTMIN
 10
0
 20
0
 30
0
  9
$PEXTMAX
 10
0
 20
0
 30
0
  9
$PLIMMIN
 10
0
 20
0
  9
$PLIMMAX
 10
297
 20
210
  9
$UNITMODE
 70
    0
  9
$VISRETAIN
 70
    1
  9
$PLINEGEN
 70
    0
  9
$PSLTSCALE
 70
    1
  9
$TREEDEPTH
 70
 3020
  9
$CMLSTYLE
  2
Standard
  9
$CMLJUST
 70
    0
  9
$CMLSCALE
 40
20
  9
$PROXYGRAPHICS
 70
    1
  9
$MEASUREMENT
 70
    1
  9
$CELWEIGHT
370
   -1
  9
$ENDCAPS
280
    0
  9
$JOINSTYLE
280
    0
  9
$LWDISPLAY
290
    0
  9
$INSUNITS
 70
    0
  9
$HYPERLINKBASE
  1

  9
$STYLESHEET
  1

  9
$XEDIT
290
    1
  9
$CEPSNTYPE
380
    0
  9
$PSTYLEMODE
290
    1
  9
$EXTNAMES
290
    1
  9
$PSVPSCALE
 40
0
  9
$OLESTARTUP
290
    0
  9
$SORTENTS
280
  127
  9
$INDEXCTL
280
    0
  9
$HIDETEXT
280
    1
  9
$XCLIPFRAME
290
    0
  9
$HALOGAP
280
    0
  9
$OBSCOLOR
 70
  257
  9
$OBSLTYPE
280
    0
  9
$INTERSECTIONDISPLAY
280
    0
  9
$INTERSECTIONCOLOR
 70
  257
  9
$DIMASSOC
280
    1
  9
$PROJECTNAME
  1

  9
$CAMERADISPLAY
290
    0
  9
$LENSLENGTH
 40
50
  9
$CAMERAHEIGHT
 40
0
  9
$STEPSPERSEC
 40
2
  9
$STEPSIZE
 40
50
  9
$3DDWFPREC
 40
2
  9
$PSOLWIDTH
 40
5
  9
$PSOLHEIGHT
 40
80
  9
$LOFTANG1
 40
1.570796326794897
  9
$LOFTANG2
 40
1.570796326794897
  9
$LOFTMAG1
 40
0
  9
$LOFTMAG2
 40
0
  9
$LOFTPARAM
 70
    7
  9
$LOFTNORMALS
280
    1
  9
$LATITUDE
 40
1
  9
$LONGITUDE
 40
1
  9
$NORTHDIRECTION
 40
0
  9
$TIMEZONE
 70
-8000
  9
$LIGHTGLYPHDISPLAY
280
    1
  9
$TILEMODELIGHTSYNCH
280
    1
  9
$SOLIDHIST
280
    1
  9
$SHOWHIST
280
    1
  9
$DWFFRAME
280
    2
  9
$DGNFRAME
280
    0
  9
$REALWORLDSCALE
290
    1
  9
$INTERFERECOLOR
 62
    1
  9
$CSHADOW
280
    0
  9
$SHADOWPLANELOCATION
 40
0
  0
ENDSEC
  0
SECTION
  2
CLASSES
  0
ENDSEC
  0
SECTION
  2
TABLES
  0
TABLE
  2
VPORT
  5
8
330
0
100
AcDbSymbolTable
 70
    1
  0
VPORT
  5
31
330
2
100
AcDbSymbolTableRecord
100
AcDbViewportTableRecord
  2
*ACTIVE
 70
    0
 10
0
 20
0
 11
1
 21
1
 12
0.651828
 22
-0.16
 13
0
 23
0
 14
10
 24
10
 15
10
 25
10
 16
0
 26
0
 36
1
 17
0
 27
0
 37
0
 40
5.13732
 41
2.4426877
 42
50
 43
0
 44
0
 50
0
 51
0
 71
    0
 72
  100
 73
    1
 74
    3
 75
    0
 76
    0
 77
    0
 78
    0
281
    0
 65
    1
110
0
120
0
130
0
111
1
121
0
131
0
112
0
122
1
132
0
 79
    0
146
0
348
10020
 60
    7
 61
    5
292
1
282
    1
141
0
142
0
 63
  250
421
3358443
  0
ENDTAB
  0
TABLE
  2
LTYPE
  5
5
330
0
100
AcDbSymbolTable
 70
    4
  0
LTYPE
  5
14
330
5
100
AcDbSymbolTableRecord
100
AcDbLinetypeTableRecord
  2
ByBlock
 70
    0
  3

 72
   65
 73
    0
 40
0
  0
LTYPE
  5
15
330
5
100
AcDbSymbolTableRecord
100
AcDbLinetypeTableRecord
  2
ByLayer
 70
    0
  3

 72
   65
 73
    0
 40
0
  0
LTYPE
  5
16
330
5
100
AcDbSymbolTableRecord
100
AcDbLinetypeTableRecord
  2
Continuous
 70
    0
  3
Solid line
 72
   65
 73
    0
 40
0
  0
LTYPE
  5
32
330
5
100
AcDbSymbolTableRecord
100
AcDbLinetypeTableRecord
  2
DASHED
 70
    0
  3

 72
   65
 73
    2
 40
3
 49
1
 74
    0
 49
-2
 74
    0
  0
LTYPE
  5
33
330
5
100
AcDbSymbolTableRecord
100
AcDbLinetypeTableRecord
  2
DASHED
 70
    0
  3

 72
   65
 73
    2
 40
2
 49
1
 74
    0
 49
-1
 74
    0
  0
LTYPE
  5
34
330
5
100
AcDbSymbolTableRecord
100
AcDbLinetypeTableRecord
  2
DASHEDX2
 70
    0
  3

 72
   65
 73
    2
 40
3
 49
2
 74
    0
 49
-1
 74
    0
  0
LTYPE
  5
35
330
5
100
AcDbSymbolTableRecord
100
AcDbLinetypeTableRecord
  2
DASHDOT
 70
    0
  3

 72
   65
 73
    4
 40
3
 49
1
 74
    0
 49
-1
 74
    0
 49
0
 74
    0
 49
-1
 74
    0
  0
LTYPE
  5
36
330
5
100
AcDbSymbolTableRecord
100
AcDbLinetypeTableRecord
  2
DIVIDE
 70
    0
  3

 72
   65
 73
    6
 40
4
 49
1
 74
    0
 49
-1
 74
    0
 49
0
 74
    0
 49
-1
 74
    0
 49
0
 74
    0
 49
-1
 74
    0
  0
LTYPE
  5
37
330
5
100
AcDbSymbolTableRecord
100
AcDbLinetypeTableRecord
  2
DOT
 70
    0
  3

 72
   65
 73
    2
 40
1
 49
1
 74
    0
 49
0
 74
    0
  0
ENDTAB
  0
TABLE
  2
LAYER
  5
2
330
0
100
AcDbSymbolTable
 70
    1
  0
LAYER
  5
38
330
2
100
AcDbSymbolTableRecord
100
AcDbLayerTableRecord
  2
dimensions
 70
    0
 62
    7
  6
CONTINUOUS
370
   -3
390
F
  0
LAYER
  5
39
330
2
100
AcDbSymbolTableRecord
100
AcDbLayerTableRecord
  2
text
 70
    0
 62
    7
  6
CONTINUOUS
370
   -3
390
F
  0
LAYER
  5
3A
330
2
100
AcDbSymbolTableRecord
100
AcDbLayerTableRecord
  2
s005-#def-solid-edge
 70
    0
 62
    7
  6
CONTINUOUS
370
   -3
390
F
  0
LAYER
  5
10
330
2
100
AcDbSymbolTableRecord
100
AcDbLayerTableRecord
  2
0
 70
    0
 62
    7
  6
CONTINUOUS
370
   -3
390
F
  0
ENDTAB
  0
TABLE
  2
STYLE
  5
3
330
0
100
AcDbSymbolTable
 70
    3
  0
STYLE
  5
3B
330
2
100
AcDbSymbolTableRecord
100
AcDbTextStyleTableRecord
  2
unicode
 70
    0
 40
0
 41
1
 50
0
 71
    0
 42
1
  3
unicode
  4

  0
STYLE
  5
3C
330
2
100
AcDbSymbolTableRecord
100
AcDbTextStyleTableRecord
  2
Standard
 70
    0
 40
0
 41
1
 50
0
 71
    0
 42
1
  3
txt
  4

  0
ENDTAB
  0
TABLE
  2
VIEW
  5
6
330
0
100
AcDbSymbolTable
 70
    0
  0
ENDTAB
  0
TABLE
  2
UCS
  5
7
330
0
100
AcDbSymbolTable
 70
    0
  0
ENDTAB
  0
TABLE
  2
APPID
  5
9
330
0
100
AcDbSymbolTable
 70
    1
  0
APPID
  5
12
330
9
100
AcDbSymbolTableRecord
100
AcDbRegAppTableRecord
  2
ACAD
 70
    0
  0
ENDTAB
  0
TABLE
  2
DIMSTYLE
  5
A
330
0
100
AcDbSymbolTable
 70
    1
100
AcDbDimStyleTable
 71
    1
  0
DIMSTYLE
105
3D
330
A
100
AcDbSymbolTableRecord
100
AcDbDimStyleTableRecord
  2
Standard
 70
    0
 40
1
 41
2.5
 42
0.625
 43
3.75
 44
1.25
 45
0
 46
0
 47
0
 48
0
140
2.5
141
2.5
142
0
143
0.03937007874015748
144
1
145
0
146
1
147
0.625
148
0
 71
    0
 72
    0
 73
    0
 74
    0
 75
    0
 76
    0
 77
    1
 78
    8
 79
    0
170
    0
171
    3
172
    1
173
    0
174
    0
175
    0
176
    0
177
    0
178
    0
179
    0
271
    2
272
    2
273
    2
274
    3
275
    0
276
    0
277
    2
278
   44
279
    0
280
    0
281
    0
282
    0
283
    0
284
    8
285
    0
286
    0
288
    0
289
    3
341

371
   -2
372
   -2
  0
ENDTAB
  0
TABLE
  2
BLOCK_RECORD
  5
1
330
0
100
AcDbSymbolTable
 70
    2
  0
BLOCK_RECORD
  5
1F
330
1
100
AcDbSymbolTableRecord
100
AcDbBlockTableRecord
  2
*Model_Space
 70
    0
280
    1
281
    0
  0
BLOCK_RECORD
  5
1E
330
1
100
AcDbSymbolTableRecord
100
AcDbBlockTableRecord
  2
*Paper_Space
 70
    0
280
    1
281
    0
  0
ENDTAB
  0
ENDSEC
  0
SECTION
  2
BLOCKS
  0
BLOCK
  5
20
330
1F
100
AcDbEntity
  8
0
100
AcDbBlockBegin
  2
*Model_Space
 70
    0
 10
0
 20
0
 30
0
  3
*Model_Space
  1

  0
ENDBLK
  5
21
330
1F
100
AcDbEntity
  8
0
100
AcDbBlockEnd
  0
BLOCK
  5
1C
330
1B
100
AcDbEntity
  8
0
100
AcDbBlockBegin
  2
*Paper_Space
 70
    0
 10
0
 20
0
 30
0
  3
*Paper_Space
  1

  0
ENDBLK
  5
1D
330
1F
100
AcDbEntity
  8
0
100
AcDbBlockEnd
  0
ENDSEC
  0
SECTION
  2
ENTITIES
  0
POLYLINE
  5
3E
100
AcDbEntity
  8
s005-#def-solid-edge
  6
CONTINUOUS
 62
    7
420
    0
370
   50
100
AcDb2dPolyline
 10
0
 20
0
 30
0
 70
    0
  0
VERTEX
  5
3F
100
AcDbEntity
  8
s005-#def-solid-edge
  6
CONTINUOUS
 62
    7
420
    0
370
   50
100
AcDbVertex
100
AcDb2dVertex
 10
-289.1268423145372
 20
11.14185652267759
 30
0
  0
VERTEX
  5
40
100
AcDbEntity
  8
s005-#def-solid-edge
  6
CONTINUOUS
 62
    7
420
    0
370
   50
100
AcDbVertex
100
AcDb2dVertex
 10
-289.494937024099
 20
11.07164482374006
 30
0
  0
VERTEX
  5
41
100
AcDbEntity
  8
s005-#def-solid-edge
  6
CONTINUOUS
 62
    7
420
    0
370
   50
100
AcDbVertex
100
AcDb2dVertex
 10
-289.8339490957237
 20
10.84896330386417
 30
0
  0
VERTEX
  5
42
100
AcDbEntity
  8
s005-#def-solid-edge
  6
CONTINUOUS
 62
    7
420
    0
370
   50
100
AcDbVertex
100
AcDb2dVertex
 10
-290.0566306155996
 20
10.5099512322395
 30
0
  0
VERTEX
  5
43
100
AcDbEntity
  8
s005-#def-solid-edge
  6
CONTINUOUS
 62
    7
420
    0
370
   50
100
AcDbVertex
100
AcDb2dVertex
 10
-290.1268423145372
 20
10.14185652267761
 30
0
  0
VERTEX
  5
44
100
AcDbEntity
  8
s005-#def-solid-edge
  6
CONTINUOUS
 62
    7
420
    0
370
   50
100
AcDbVertex
100
AcDb2dVertex
 10
-290.1268423145372
 20
-46.85814347732239
 30
0
  0
VERTEX
  5
45
100
AcDbEntity
  8
s005-#def-solid-edge
  6
CONTINUOUS
 62
    7
420
    0
370
   50
100
AcDbVertex
100
AcDb2dVertex
 10
-290.0566306155997
 20
-47.22623818688422
 30
0
  0
VERTEX
  5
46
100
AcDbEntity
  8
s005-#def-solid-edge
  6
CONTINUOUS
 62
    7
420
    0
370
   50
100
AcDbVertex
100
AcDb2dVertex
 10
-289.8339490957238
 20
-47.56525025850894
 30
0
  0
VERTEX
  5
47
100
AcDbEntity
  8
s005-#def-solid-edge
  6
CONTINUOUS
 62
    7
420
    0
370
   50
100
AcDbVertex
100
AcDb2dVertex
 10
-289.494937024099
 20
-47.7879317783848
 30
0
  0
VERTEX
  5
48
100
AcDbEntity
  8
s005-#def-solid-edge
  6
CONTINUOUS
 62
    7
420
    0
370
   50
100
AcDbVertex
100
AcDb2dVertex
 10
-289.126842314537
 20
-47.85814347732239
 30
0
  0
VERTEX
  5
49
100
AcDbEntity
  8
s005-#def-solid-edge
  6
CONTINUOUS
 62
    7
420
    0
370
   50
100
AcDbVertex
100
AcDb2dVertex
 10
-269.7851547097147
 20
-47.85814347732239
 30
0
  0
VERTEX
  5
4A
100
AcDbEntity
  8
s005-#def-solid-edge
  6
CONTINUOUS
 62
    7
420
    0
370
   50
100
AcDbVertex
100
AcDb2dVertex
 10
-269.4223593661325
 20
-47.83167931467649
 30
0
  0
VERTEX
  5
4B
100
AcDbEntity
  8
s005-#def-solid-edge
  6
CONTINUOUS
 62
    7
420
    0
370
   50
100
AcDbVertex
100
AcDb2dVertex
 10
-269.0634668732278
 20
-47.75171124671324
 30
0
  0
VERTEX
  5
4C
100
AcDbEntity
  8
s005-#def-solid-edge
  6
CONTINUOUS
 62
    7
420
    0
370
   50
100
AcDbVertex
100
AcDb2dVertex
 10
-268.7201857830332
 20
-47.61996601350924
 30
0
  0
VERTEX
  5
4D
100
AcDbEntity
  8
s005-#def-solid-edge
  6
CONTINUOUS
 62
    7
420
    0
370
   50
100
AcDbVertex
100
AcDb2dVertex
 10
-268.4032277137334
 20
-47.44147681065573
 30
0
  0
VERTEX
  5
4E
100
AcDbEntity
  8
s005-#def-solid-edge
  6
CONTINUOUS
 62
    7
420
    0
370
   50
100
AcDbVertex
100
AcDb2dVertex
 10
-268.2521350385286
 20
-47.37409623446815
 30
0
  0
VERTEX
  5
4F
100
AcDbEntity
  8
s005-#def-solid-edge
  6
CONTINUOUS
 62
    7
420
    0
370
   50
100
AcDbVertex
100
AcDb2dVertex
 10
-268.076997092818
 20
-47.36063422728601
 30
0
  0
VERTEX
  5
50
100
AcDbEntity
  8
s005-#def-solid-edge
  6
CONTINUOUS
 62
    7
420
    0
370
   50
100
AcDbVertex
100
AcDb2dVertex
 10
-267.9080109497983
 20
-47.4085738677995
 30
0
  0
VERTEX
  5
51
100
AcDbEntity
  8
s005-#def-solid-edge
  6
CONTINUOUS
 62
    7
420
    0
370
   50
100
AcDbVertex
100
AcDb2dVertex
 10
-267.7732889239438
 20
-47.50459008672912
 30
0
  0
VERTEX
  5
52
100
AcDbEntity
  8
s005-#def-solid-edge
  6
CONTINUOUS
 62
    7
420
    0
370
   50
100
AcDbVertex
100
AcDb2dVertex
 10
-267.6772727050143
 20
-47.63931211258362
 30
0
  0
VERTEX
  5
53
100
AcDbEntity
  8
s005-#def-solid-edge
  6
CONTINUOUS
 62
    7
420
    0
370
   50
100
AcDbVertex
100
AcDb2dVertex
 10
-267.6293330645008
 20
-47.80829825560315
 30
0
  0
VERTEX
  5
54
100
AcDbEntity
  8
s005-#def-solid-edge
  6
CONTINUOUS
 62
    7
420
    0
370
   50
100
AcDbVertex
100
AcDb2dVertex
 10
-267.6427950716829
 20
-47.98343620131396
 30
0
  0
VERTEX
  5
55
100
AcDbEntity
  8
s005-#def-solid-edge
  6
CONTINUOUS
 62
    7
420
    0
370
   50
100
AcDbVertex
100
AcDb2dVertex
 10
-267.7101756478705
 20
-48.13452887651869
 30
0
  0
VERTEX
  5
56
100
AcDbEntity
  8
s005-#def-solid-edge
  6
CONTINUOUS
 62
    7
420
    0
370
   50
100
AcDbVertex
100
AcDb2dVertex
 10
-267.888664850724
 20
-48.45148694581849
 30
0
  0
VERTEX
  5
57
100
AcDbEntity
  8
s005-#def-solid-edge
  6
CONTINUOUS
 62
    7
420
    0
370
   50
100
AcDbVertex
100
AcDb2dVertex
 10
-268.0204100839279
 20
-48.79476803601305
 30
0
  0
VERTEX
  5
58
100
AcDbEntity
  8
s005-#def-solid-edge
  6
CONTINUOUS
 62
    7
420
    0
370
   50
100
AcDbVertex
100
AcDb2dVertex
 10
-268.1003781518913
 20
-49.15366052891783
 30
0
  0
VERTEX
  5
59
100
AcDbEntity
  8
s005-#def-solid-edge
  6
CONTINUOUS
 62
    7
420
    0
370
   50
100
AcDbVertex
100
AcDb2dVertex
 10
-268.1268423145372
 20
-49.51645587250009
 30
0
  0
VERTEX
  5
5A
100
AcDbEntity
  8
s005-#def-solid-edge
  6
CONTINUOUS
 62
    7
420
    0
370
   50
100
AcDbVertex
100
AcDb2dVertex
 10
-268.1268423145372
 20
-55.35814347732239
 30
0
  0
VERTEX
  5
5B
100
AcDbEntity
  8
s005-#def-solid-edge
  6
CONTINUOUS
 62
    7
420
    0
370
   50
100
AcDbVertex
100
AcDb2dVertex
 10
-248.1268423145372
 20
-55.35814347732239
 30
0
  0
VERTEX
  5
5C
100
AcDbEntity
  8
s005-#def-solid-edge
  6
CONTINUOUS
 62
    7
420
    0
370
   50
100
AcDbVertex
100
AcDb2dVertex
 10
-248.126842314537
 20
-58.35814347732239
 30
0
  0
VERTEX
  5
5D
100
AcDbEntity
  8
s005-#def-solid-edge
  6
CONTINUOUS
 62
    7
420
    0
370
   50
100
AcDbVertex
100
AcDb2dVertex
 10
-228.126842314537
 20
-58.35814347732239
 30
0
  0
VERTEX
  5
5E
100
AcDbEntity
  8
s005-#def-solid-edge
  6
CONTINUOUS
 62
    7
420
    0
370
   50
100
AcDbVertex
100
AcDb2dVertex
 10
-228.1268423145372
 20
-55.3581434773224
 30
0
  0
VERTEX
  5
5F
100
AcDbEntity
  8
s005-#def-solid-edge
  6
CONTINUOUS
 62
    7
420
    0
370
   50
100
AcDbVertex
100
AcDb2dVertex
 10
-201.5554137431085
 20
-55.35814347732239
 30
0
  0
VERTEX
  5
60
100
AcDbEntity
  8
s005-#def-solid-edge
  6
CONTINUOUS
 62
    7
420
    0
370
   50
100
AcDbVertex
100
AcDb2dVertex
 10
-201.5554137431084
 20
-58.35814347732239
 30
0
  0
VERTEX
  5
61
100
AcDbEntity
  8
s005-#def-solid-edge
  6
CONTINUOUS
 62
    7
420
    0
370
   50
100
AcDbVertex
100
AcDb2dVertex
 10
-181.5554137431085
 20
-58.3581434773224
 30
0
  0
VERTEX
  5
62
100
AcDbEntity
  8
s005-#def-solid-edge
  6
CONTINUOUS
 62
    7
420
    0
370
   50
100
AcDbVertex
100
AcDb2dVertex
 10
-181.5554137431085
 20
-55.35814347732239
 30
0
  0
VERTEX
  5
63
100
AcDbEntity
  8
s005-#def-solid-edge
  6
CONTINUOUS
 62
    7
420
    0
370
   50
100
AcDbVertex
100
AcDb2dVertex
 10
-154.98398517168
 20
-55.35814347732239
 30
0
  0
VERTEX
  5
64
100
AcDbEntity
  8
s005-#def-solid-edge
  6
CONTINUOUS
 62
    7
420
    0
370
   50
100
AcDbVertex
100
AcDb2dVertex
 10
-154.9839851716799
 20
-58.35814347732239
 30
0
  0
VERTEX
  5
65
100
AcDbEntity
  8
s005-#def-solid-edge
  6
CONTINUOUS
 62
    7
420
    0
370
   50
100
AcDbVertex
100
AcDb2dVertex
 10
-134.98398517168
 20
-58.35814347732241
 30
0
  0
VERTEX
  5
66
100
AcDbEntity
  8
s005-#def-solid-edge
  6
CONTINUOUS
 62
    7
420
    0
370
   50
100
AcDbVertex
100
AcDb2dVertex
 10
-134.98398517168
 20
-55.35814347732239
 30
0
  0
VERTEX
  5
67
100
AcDbEntity
  8
s005-#def-solid-edge
  6
CONTINUOUS
 62
    7
420
    0
370
   50
100
AcDbVertex
100
AcDb2dVertex
 10
-108.4125566002513
 20
-55.35814347732236
 30
0
  0
VERTEX
  5
68
100
AcDbEntity
  8
s005-#def-solid-edge
  6
CONTINUOUS
 62
    7
420
    0
370
   50
100
AcDbVertex
100
AcDb2dVertex
 10
-108.4125566002513
 20
-58.35814347732236
 30
0
  0
VERTEX
  5
69
100
AcDbEntity
  8
s005-#def-solid-edge
  6
CONTINUOUS
 62
    7
420
    0
370
   50
100
AcDbVertex
100
AcDb2dVertex
 10
-88.41255660025136
 20
-58.3581434773224
 30
0
  0
VERTEX
  5
6A
100
AcDbEntity
  8
s005-#def-solid-edge
  6
CONTINUOUS
 62
    7
420
    0
370
   50
100
AcDbVertex
100
AcDb2dVertex
 10
-88.41255660025135
 20
-55.35814347732239
 30
0
  0
VERTEX
  5
6B
100
AcDbEntity
  8
s005-#def-solid-edge
  6
CONTINUOUS
 62
    7
420
    0
370
   50
100
AcDbVertex
100
AcDb2dVertex
 10
-61.84112802882279
 20
-55.35814347732241
 30
0
  0
VERTEX
  5
6C
100
AcDbEntity
  8
s005-#def-solid-edge
  6
CONTINUOUS
 62
    7
420
    0
370
   50
100
AcDbVertex
100
AcDb2dVertex
 10
-61.84112802882274
 20
-58.35814347732239
 30
0
  0
VERTEX
  5
6D
100
AcDbEntity
  8
s005-#def-solid-edge
  6
CONTINUOUS
 62
    7
420
    0
370
   50
100
AcDbVertex
100
AcDb2dVertex
 10
-41.84112802882274
 20
-58.35814347732239
 30
0
  0
VERTEX
  5
6E
100
AcDbEntity
  8
s005-#def-solid-edge
  6
CONTINUOUS
 62
    7
420
    0
370
   50
100
AcDbVertex
100
AcDb2dVertex
 10
-41.84112802882279
 20
-55.35814347732239
 30
0
  0
VERTEX
  5
6F
100
AcDbEntity
  8
s005-#def-solid-edge
  6
CONTINUOUS
 62
    7
420
    0
370
   50
100
AcDbVertex
100
AcDb2dVertex
 10
-15.26969945739425
 20
-55.35814347732236
 30
0
  0
VERTEX
  5
70
100
AcDbEntity
  8
s005-#def-solid-edge
  6
CONTINUOUS
 62
    7
420
    0
370
   50
100
AcDbVertex
100
AcDb2dVertex
 10
-15.26969945739424
 20
-58.35814347732237
 30
0
  0
VERTEX
  5
71
100
AcDbEntity
  8
s005-#def-solid-edge
  6
CONTINUOUS
 62
    7
420
    0
370
   50
100
AcDbVertex
100
AcDb2dVertex
 10
4.730300542605818
 20
-58.35814347732239
 30
0
  0
VERTEX
  5
72
100
AcDbEntity
  8
s005-#def-solid-edge
  6
CONTINUOUS
 62
    7
420
    0
370
   50
100
AcDbVertex
100
AcDb2dVertex
 10
4.730300542605775
 20
-55.35814347732239
 30
0
  0
VERTEX
  5
73
100
AcDbEntity
  8
s005-#def-solid-edge
  6
CONTINUOUS
 62
    7
420
    0
370
   50
100
AcDbVertex
100
AcDb2dVertex
 10
31.30172911403442
 20
-55.35814347732239
 30
0
  0
VERTEX
  5
74
100
AcDbEntity
  8
s005-#def-solid-edge
  6
CONTINUOUS
 62
    7
420
    0
370
   50
100
AcDbVertex
100
AcDb2dVertex
 10
31.3017291140344
 20
-58.35814347732239
 30
0
  0
VERTEX
  5
75
100
AcDbEntity
  8
s005-#def-solid-edge
  6
CONTINUOUS
 62
    7
420
    0
370
   50
100
AcDbVertex
100
AcDb2dVertex
 10
51.30172911403443
 20
-58.35814347732239
 30
0
  0
VERTEX
  5
76
100
AcDbEntity
  8
s005-#def-solid-edge
  6
CONTINUOUS
 62
    7
420
    0
370
   50
100
AcDbVertex
100
AcDb2dVertex
 10
51.30172911403443
 20
-55.35814347732239
 30
0
  0
VERTEX
  5
77
100
AcDbEntity
  8
s005-#def-solid-edge
  6
CONTINUOUS
 62
    7
420
    0
370
   50
100
AcDbVertex
100
AcDb2dVertex
 10
77.87315768546296
 20
-55.35814347732239
 30
0
  0
VERTEX
  5
78
100
AcDbEntity
  8
s005-#def-solid-edge
  6
CONTINUOUS
 62
    7
420
    0
370
   50
100
AcDbVertex
100
AcDb2dVertex
 10
77.87315768546299
 20
-58.35814347732239
 30
0
  0
VERTEX
  5
79
100
AcDbEntity
  8
s005-#def-solid-edge
  6
CONTINUOUS
 62
    7
420
    0
370
   50
100
AcDbVertex
100
AcDb2dVertex
 10
97.87315768546296
 20
-58.3581434773224
 30
0
  0
VERTEX
  5
7A
100
AcDbEntity
  8
s005-#def-solid-edge
  6
CONTINUOUS
 62
    7
420
    0
370
   50
100
AcDbVertex
100
AcDb2dVertex
 10
97.87315768546296
 20
-55.35814347732239
 30
0
  0
VERTEX
  5
7B
100
AcDbEntity
  8
s005-#def-solid-edge
  6
CONTINUOUS
 62
    7
420
    0
370
   50
100
AcDbVertex
100
AcDb2dVertex
 10
117.873157685463
 20
-55.3581434773224
 30
0
  0
VERTEX
  5
7C
100
AcDbEntity
  8
s005-#def-solid-edge
  6
CONTINUOUS
 62
    7
420
    0
370
   50
100
AcDbVertex
100
AcDb2dVertex
 10
117.873157685463
 20
-49.51645587250009
 30
0
  0
VERTEX
  5
7D
100
AcDbEntity
  8
s005-#def-solid-edge
  6
CONTINUOUS
 62
    7
420
    0
370
   50
100
AcDbVertex
100
AcDb2dVertex
 10
117.846693522817
 20
-49.15366052891783
 30
0
  0
VERTEX
  5
7E
100
AcDbEntity
  8
s005-#def-solid-edge
  6
CONTINUOUS
 62
    7
420
    0
370
   50
100
AcDbVertex
100
AcDb2dVertex
 10
117.7667254548538
 20
-48.79476803601305
 30
0
  0
VERTEX
  5
7F
100
AcDbEntity
  8
s005-#def-solid-edge
  6
CONTINUOUS
 62
    7
420
    0
370
   50
100
AcDbVertex
100
AcDb2dVertex
 10
117.6349802216498
 20
-48.45148694581849
 30
0
  0
VERTEX
  5
80
100
AcDbEntity
  8
s005-#def-solid-edge
  6
CONTINUOUS
 62
    7
420
    0
370
   50
100
AcDbVertex
100
AcDb2dVertex
 10
117.4564910187963
 20
-48.13452887651869
 30
0
  0
VERTEX
  5
81
100
AcDbEntity
  8
s005-#def-solid-edge
  6
CONTINUOUS
 62
    7
420
    0
370
   50
100
AcDbVertex
100
AcDb2dVertex
 10
117.3891104426088
 20
-47.98343620131398
 30
0
  0
VERTEX
  5
82
100
AcDbEntity
  8
s005-#def-solid-edge
  6
CONTINUOUS
 62
    7
420
    0
370
   50
100
AcDbVertex
100
AcDb2dVertex
 10
117.3756484354267
 20
-47.80829825560313
 30
0
  0
VERTEX
  5
83
100
AcDbEntity
  8
s005-#def-solid-edge
  6
CONTINUOUS
 62
    7
420
    0
370
   50
100
AcDbVertex
100
AcDb2dVertex
 10
117.4235880759381
 20
-47.63931211258776
 30
0
  0
VERTEX
  5
84
100
AcDbEntity
  8
s005-#def-solid-edge
  6
CONTINUOUS
 62
    7
420
    0
370
   50
100
AcDbVertex
100
AcDb2dVertex
 10
117.5196042948697
 20
-47.50459008672912
 30
0
  0
VERTEX
  5
85
100
AcDbEntity
  8
s005-#def-solid-edge
  6
CONTINUOUS
 62
    7
420
    0
370
   50
100
AcDbVertex
100
AcDb2dVertex
 10
117.6543263207242
 20
-47.40857386779952
 30
0
  0
VERTEX
  5
86
100
AcDbEntity
  8
s005-#def-solid-edge
  6
CONTINUOUS
 62
    7
420
    0
370
   50
100
AcDbVertex
100
AcDb2dVertex
 10
117.8233124637438
 20
-47.36063422728598
 30
0
  0
VERTEX
  5
87
100
AcDbEntity
  8
s005-#def-solid-edge
  6
CONTINUOUS
 62
    7
420
    0
370
   50
100
AcDbVertex
100
AcDb2dVertex
 10
117.9984504094546
 20
-47.37409623446814
 30
0
  0
VERTEX
  5
88
100
AcDbEntity
  8
s005-#def-solid-edge
  6
CONTINUOUS
 62
    7
420
    0
370
   50
100
AcDbVertex
100
AcDb2dVertex
 10
118.1495430846593
 20
-47.44147681065569
 30
0
  0
VERTEX
  5
89
100
AcDbEntity
  8
s005-#def-solid-edge
  6
CONTINUOUS
 62
    7
420
    0
370
   50
100
AcDbVertex
100
AcDb2dVertex
 10
118.4665011539591
 20
-47.61996601350923
 30
0
  0
VERTEX
  5
8A
100
AcDbEntity
  8
s005-#def-solid-edge
  6
CONTINUOUS
 62
    7
420
    0
370
   50
100
AcDbVertex
100
AcDb2dVertex
 10
118.8097822441536
 20
-47.75171124671324
 30
0
  0
VERTEX
  5
8B
100
AcDbEntity
  8
s005-#def-solid-edge
  6
CONTINUOUS
 62
    7
420
    0
370
   50
100
AcDbVertex
100
AcDb2dVertex
 10
119.1686747370584
 20
-47.83167931467651
 30
0
  0
VERTEX
  5
8C
100
AcDbEntity
  8
s005-#def-solid-edge
  6
CONTINUOUS
 62
    7
420
    0
370
   50
100
AcDbVertex
100
AcDb2dVertex
 10
119.5314700806406
 20
-47.8581434773224
 30
0
  0
VERTEX
  5
8D
100
AcDbEntity
  8
s005-#def-solid-edge
  6
CONTINUOUS
 62
    7
420
    0
370
   50
100
AcDbVertex
100
AcDb2dVertex
 10
139.873157685463
 20
-47.8581434773224
 30
0
  0
VERTEX
  5
8E
100
AcDbEntity
  8
s005-#def-solid-edge
  6
CONTINUOUS
 62
    7
420
    0
370
   50
100
AcDbVertex
100
AcDb2dVertex
 10
139.873157685463
 20
11.14185652267761
 30
0
  0
VERTEX
  5
8F
100
AcDbEntity
  8
s005-#def-solid-edge
  6
CONTINUOUS
 62
    7
420
    0
370
   50
100
AcDbVertex
100
AcDb2dVertex
 10
119.5314700806407
 20
11.14185652267759
 30
0
  0
VERTEX
  5
90
100
AcDbEntity
  8
s005-#def-solid-edge
  6
CONTINUOUS
 62
    7
420
    0
370
   50
100
AcDbVertex
100
AcDb2dVertex
 10
119.1686747370584
 20
11.11539236003168
 30
0
  0
VERTEX
  5
91
100
AcDbEntity
  8
s005-#def-solid-edge
  6
CONTINUOUS
 62
    7
420
    0
370
   50
100
AcDbVertex
100
AcDb2dVertex
 10
118.8097822441537
 20
11.03542429206846
 30
0
  0
VERTEX
  5
92
100
AcDbEntity
  8
s005-#def-solid-edge
  6
CONTINUOUS
 62
    7
420
    0
370
   50
100
AcDbVertex
100
AcDb2dVertex
 10
118.466501153959
 20
10.90367905886441
 30
0
  0
VERTEX
  5
93
100
AcDbEntity
  8
s005-#def-solid-edge
  6
CONTINUOUS
 62
    7
420
    0
370
   50
100
AcDbVertex
100
AcDb2dVertex
 10
118.1495430846593
 20
10.72518985601096
 30
0
  0
VERTEX
  5
94
100
AcDbEntity
  8
s005-#def-solid-edge
  6
CONTINUOUS
 62
    7
420
    0
370
   50
100
AcDbVertex
100
AcDb2dVertex
 10
117.9984504094545
 20
10.6578092798234
 30
0
  0
VERTEX
  5
95
100
AcDbEntity
  8
s005-#def-solid-edge
  6
CONTINUOUS
 62
    7
420
    0
370
   50
100
AcDbVertex
100
AcDb2dVertex
 10
117.8233124637438
 20
10.6443472726412
 30
0
  0
VERTEX
  5
96
100
AcDbEntity
  8
s005-#def-solid-edge
  6
CONTINUOUS
 62
    7
420
    0
370
   50
100
AcDbVertex
100
AcDb2dVertex
 10
117.6543263207283
 20
10.69228691315271
 30
0
  0
VERTEX
  5
97
100
AcDbEntity
  8
s005-#def-solid-edge
  6
CONTINUOUS
 62
    7
420
    0
370
   50
100
AcDbVertex
100
AcDb2dVertex
 10
117.5196042948697
 20
10.78830313208431
 30
0
  0
VERTEX
  5
98
100
AcDbEntity
  8
s005-#def-solid-edge
  6
CONTINUOUS
 62
    7
420
    0
370
   50
100
AcDbVertex
100
AcDb2dVertex
 10
117.4235880759401
 20
10.92302515793878
 30
0
  0
VERTEX
  5
99
100
AcDbEntity
  8
s005-#def-solid-edge
  6
CONTINUOUS
 62
    7
420
    0
370
   50
100
AcDbVertex
100
AcDb2dVertex
 10
117.3756484354266
 20
11.09201130095832
 30
0
  0
VERTEX
  5
9A
100
AcDbEntity
  8
s005-#def-solid-edge
  6
CONTINUOUS
 62
    7
420
    0
370
   50
100
AcDbVertex
100
AcDb2dVertex
 10
117.3891104426076
 20
11.26714924666473
 30
0
  0
VERTEX
  5
9B
100
AcDbEntity
  8
s005-#def-solid-edge
  6
CONTINUOUS
 62
    7
420
    0
370
   50
100
AcDbVertex
100
AcDb2dVertex
 10
117.4564910187963
 20
11.41824192187389
 30
0
  0
VERTEX
  5
9C
100
AcDbEntity
  8
s005-#def-solid-edge
  6
CONTINUOUS
 62
    7
420
    0
370
   50
100
AcDbVertex
100
AcDb2dVertex
 10
117.6349802216498
 20
11.73519999117366
 30
0
  0
VERTEX
  5
9D
100
AcDbEntity
  8
s005-#def-solid-edge
  6
CONTINUOUS
 62
    7
420
    0
370
   50
100
AcDbVertex
100
AcDb2dVertex
 10
117.7667254548539
 20
12.0784810813683
 30
0
  0
VERTEX
  5
9E
100
AcDbEntity
  8
s005-#def-solid-edge
  6
CONTINUOUS
 62
    7
420
    0
370
   50
100
AcDbVertex
100
AcDb2dVertex
 10
117.8466935228171
 20
12.43737357427301
 30
0
  0
VERTEX
  5
9F
100
AcDbEntity
  8
s005-#def-solid-edge
  6
CONTINUOUS
 62
    7
420
    0
370
   50
100
AcDbVertex
100
AcDb2dVertex
 10
117.873157685463
 20
12.8001689178553
 30
0
  0
VERTEX
  5
A0
100
AcDbEntity
  8
s005-#def-solid-edge
  6
CONTINUOUS
 62
    7
420
    0
370
   50
100
AcDbVertex
100
AcDb2dVertex
 10
117.873157685463
 20
26.64185652267761
 30
0
  0
VERTEX
  5
A1
100
AcDbEntity
  8
s005-#def-solid-edge
  6
CONTINUOUS
 62
    7
420
    0
370
   50
100
AcDbVertex
100
AcDb2dVertex
 10
-268.1268423145372
 20
26.64185652267761
 30
0
  0
VERTEX
  5
A2
100
AcDbEntity
  8
s005-#def-solid-edge
  6
CONTINUOUS
 62
    7
420
    0
370
   50
100
AcDbVertex
100
AcDb2dVertex
 10
-268.1268423145372
 20
12.80016891785527
 30
0
  0
VERTEX
  5
A3
100
AcDbEntity
  8
s005-#def-solid-edge
  6
CONTINUOUS
 62
    7
420
    0
370
   50
100
AcDbVertex
100
AcDb2dVertex
 10
-268.1003781518913
 20
12.43737357427298
 30
0
  0
VERTEX
  5
A4
100
AcDbEntity
  8
s005-#def-solid-edge
  6
CONTINUOUS
 62
    7
420
    0
370
   50
100
AcDbVertex
100
AcDb2dVertex
 10
-268.020410083928
 20
12.07848108136824
 30
0
  0
VERTEX
  5
A5
100
AcDbEntity
  8
s005-#def-solid-edge
  6
CONTINUOUS
 62
    7
420
    0
370
   50
100
AcDbVertex
100
AcDb2dVertex
 10
-267.888664850724
 20
11.73519999117366
 30
0
  0
VERTEX
  5
A6
100
AcDbEntity
  8
s005-#def-solid-edge
  6
CONTINUOUS
 62
    7
420
    0
370
   50
100
AcDbVertex
100
AcDb2dVertex
 10
-267.7101756478705
 20
11.41824192187386
 30
0
  0
VERTEX
  5
A7
100
AcDbEntity
  8
s005-#def-solid-edge
  6
CONTINUOUS
 62
    7
420
    0
370
   50
100
AcDbVertex
100
AcDb2dVertex
 10
-267.6427950716829
 20
11.26714924666919
 30
0
  0
VERTEX
  5
A8
100
AcDbEntity
  8
s005-#def-solid-edge
  6
CONTINUOUS
 62
    7
420
    0
370
   50
100
AcDbVertex
100
AcDb2dVertex
 10
-267.6293330645008
 20
11.09201130095832
 30
0
  0
VERTEX
  5
A9
100
AcDbEntity
  8
s005-#def-solid-edge
  6
CONTINUOUS
 62
    7
420
    0
370
   50
100
AcDbVertex
100
AcDb2dVertex
 10
-267.6772727050143
 20
10.92302515793884
 30
0
  0
VERTEX
  5
AA
100
AcDbEntity
  8
s005-#def-solid-edge
  6
CONTINUOUS
 62
    7
420
    0
370
   50
100
AcDbVertex
100
AcDb2dVertex
 10
-267.7732889239438
 20
10.78830313208431
 30
0
  0
VERTEX
  5
AB
100
AcDbEntity
  8
s005-#def-solid-edge
  6
CONTINUOUS
 62
    7
420
    0
370
   50
100
AcDbVertex
100
AcDb2dVertex
 10
-267.9080109497984
 20
10.69228691315473
 30
0
  0
VERTEX
  5
AC
100
AcDbEntity
  8
s005-#def-solid-edge
  6
CONTINUOUS
 62
    7
420
    0
370
   50
100
AcDbVertex
100
AcDb2dVertex
 10
-268.076997092818
 20
10.64434727264126
 30
0
  0
VERTEX
  5
AD
100
AcDbEntity
  8
s005-#def-solid-edge
  6
CONTINUOUS
 62
    7
420
    0
370
   50
100
AcDbVertex
100
AcDb2dVertex
 10
-268.2521350385288
 20
10.6578092798234
 30
0
  0
VERTEX
  5
AE
100
AcDbEntity
  8
s005-#def-solid-edge
  6
CONTINUOUS
 62
    7
420
    0
370
   50
100
AcDbVertex
100
AcDb2dVertex
 10
-268.4032277137333
 20
10.72518985601096
 30
0
  0
VERTEX
  5
AF
100
AcDbEntity
  8
s005-#def-solid-edge
  6
CONTINUOUS
 62
    7
420
    0
370
   50
100
AcDbVertex
100
AcDb2dVertex
 10
-268.7201857830331
 20
10.90367905886444
 30
0
  0
VERTEX
  5
B0
100
AcDbEntity
  8
s005-#def-solid-edge
  6
CONTINUOUS
 62
    7
420
    0
370
   50
100
AcDbVertex
100
AcDb2dVertex
 10
-269.0634668732276
 20
11.03542429206846
 30
0
  0
VERTEX
  5
B1
100
AcDbEntity
  8
s005-#def-solid-edge
  6
CONTINUOUS
 62
    7
420
    0
370
   50
100
AcDbVertex
100
AcDb2dVertex
 10
-269.4223593661324
 20
11.11539236003168
 30
0
  0
VERTEX
  5
B2
100
AcDbEntity
  8
s005-#def-solid-edge
  6
CONTINUOUS
 62
    7
420
    0
370
   50
100
AcDbVertex
100
AcDb2dVertex
 10
-269.7851547097147
 20
11.14185652267761
 30
0
  0
VERTEX
  5
B3
100
AcDbEntity
  8
s005-#def-solid-edge
  6
CONTINUOUS
 62
    7
420
    0
370
   50
100
AcDbVertex
100
AcDb2dVertex
 10
-289.1268423145372
 20
11.14185652267759
 30
0
  0
SEQEND
  5
B4
100
AcDbEntity
  8
s005-#def-solid-edge
  6
CONTINUOUS
 62
    7
420
    0
370
   50
  0
POLYLINE
  5
B5
100
AcDbEntity
  8
s005-#def-solid-edge
  6
CONTINUOUS
 62
    7
420
    0
370
   50
100
AcDb2dPolyline
 10
0
 20
0
 30
0
 70
    0
  0
VERTEX
  5
B6
100
AcDbEntity
  8
s005-#def-solid-edge
  6
CONTINUOUS
 62
    7
420
    0
370
   50
100
AcDbVertex
100
AcDb2dVertex
 10
152.373157685463
 20
-147.1081434773224
 30
0
  0
VERTEX
  5
B7
100
AcDbEntity
  8
s005-#def-solid-edge
  6
CONTINUOUS
 62
    7
420
    0
370
   50
100
AcDbVertex
100
AcDb2dVertex
 10
152.373157685463
 20
-103.6081434773224
 30
0
  0
VERTEX
  5
B8
100
AcDbEntity
  8
s005-#def-solid-edge
  6
CONTINUOUS
 62
    7
420
    0
370
   50
100
AcDbVertex
100
AcDb2dVertex
 10
152.0220991907752
 20
-101.767669929513
 30
0
  0
VERTEX
  5
B9
100
AcDbEntity
  8
s005-#def-solid-edge
  6
CONTINUOUS
 62
    7
420
    0
370
   50
100
AcDbVertex
100
AcDb2dVertex
 10
151.5581352415562
 20
-100.8720947103967
 30
0
  0
VERTEX
  5
BA
100
AcDbEntity
  8
s005-#def-solid-edge
  6
CONTINUOUS
 62
    7
420
    0
370
   50
100
AcDbVertex
100
AcDb2dVertex
 10
150.9086915913958
 20
-100.0726095713896
 30
0
  0
VERTEX
  5
BB
100
AcDbEntity
  8
s005-#def-solid-edge
  6
CONTINUOUS
 62
    7
420
    0
370
   50
100
AcDbVertex
100
AcDb2dVertex
 10
150.1092064523887
 20
-99.42316592122916
 30
0
  0
VERTEX
  5
BC
100
AcDbEntity
  8
s005-#def-solid-edge
  6
CONTINUOUS
 62
    7
420
    0
370
   50
100
AcDbVertex
100
AcDb2dVertex
 10
149.2136312332738
 20
-98.95920197201079
 30
0
  0
VERTEX
  5
BD
100
AcDbEntity
  8
s005-#def-solid-edge
  6
CONTINUOUS
 62
    7
420
    0
370
   50
100
AcDbVertex
100
AcDb2dVertex
 10
147.373157685463
 20
-98.60814347732239
 30
0
  0
VERTEX
  5
BE
100
AcDbEntity
  8
s005-#def-solid-edge
  6
CONTINUOUS
 62
    7
420
    0
370
   50
100
AcDbVertex
100
AcDb2dVertex
 10
118.873157685463
 20
-98.60814347732239
 30
0
  0
VERTEX
  5
BF
100
AcDbEntity
  8
s005-#def-solid-edge
  6
CONTINUOUS
 62
    7
420
    0
370
   50
100
AcDbVertex
100
AcDb2dVertex
 10
118.5050629759011
 20
-98.53793177838482
 30
0
  0
VERTEX
  5
C0
100
AcDbEntity
  8
s005-#def-solid-edge
  6
CONTINUOUS
 62
    7
420
    0
370
   50
100
AcDbVertex
100
AcDb2dVertex
 10
118.1660509042765
 20
-98.31525025850893
 30
0
  0
VERTEX
  5
C1
100
AcDbEntity
  8
s005-#def-solid-edge
  6
CONTINUOUS
 62
    7
420
    0
370
   50
100
AcDbVertex
100
AcDb2dVertex
 10
117.9433693844006
 20
-97.97623818688425
 30
0
  0
VERTEX
  5
C2
100
AcDbEntity
  8
s005-#def-solid-edge
  6
CONTINUOUS
 62
    7
420
    0
370
   50
100
AcDbVertex
100
AcDb2dVertex
 10
117.873157685463
 20
-97.60814347732239
 30
0
  0
VERTEX
  5
C3
100
AcDbEntity
  8
s005-#def-solid-edge
  6
CONTINUOUS
 62
    7
420
    0
370
   50
100
AcDbVertex
100
AcDb2dVertex
 10
117.873157685463
 20
-95.35814347732239
 30
0
  0
VERTEX
  5
C4
100
AcDbEntity
  8
s005-#def-solid-edge
  6
CONTINUOUS
 62
    7
420
    0
370
   50
100
AcDbVertex
100
AcDb2dVertex
 10
-75.12684231453701
 20
-95.35814347732239
 30
0
  0
VERTEX
  5
C5
100
AcDbEntity
  8
s005-#def-solid-edge
  6
CONTINUOUS
 62
    7
420
    0
370
   50
100
AcDbVertex
100
AcDb2dVertex
 10
-268.126842314537
 20
-95.35814347732239
 30
0
  0
VERTEX
  5
C6
100
AcDbEntity
  8
s005-#def-solid-edge
  6
CONTINUOUS
 62
    7
420
    0
370
   50
100
AcDbVertex
100
AcDb2dVertex
 10
-268.126842314537
 20
-97.60814347732239
 30
0
  0
VERTEX
  5
C7
100
AcDbEntity
  8
s005-#def-solid-edge
  6
CONTINUOUS
 62
    7
420
    0
370
   50
100
AcDbVertex
100
AcDb2dVertex
 10
-268.1970540134746
 20
-97.97623818688425
 30
0
  0
VERTEX
  5
C8
100
AcDbEntity
  8
s005-#def-solid-edge
  6
CONTINUOUS
 62
    7
420
    0
370
   50
100
AcDbVertex
100
AcDb2dVertex
 10
-268.4197355333505
 20
-98.31525025850893
 30
0
  0
VERTEX
  5
C9
100
AcDbEntity
  8
s005-#def-solid-edge
  6
CONTINUOUS
 62
    7
420
    0
370
   50
100
AcDbVertex
100
AcDb2dVertex
 10
-268.7587476049752
 20
-98.53793177838482
 30
0
  0
VERTEX
  5
CA
100
AcDbEntity
  8
s005-#def-solid-edge
  6
CONTINUOUS
 62
    7
420
    0
370
   50
100
AcDbVertex
100
AcDb2dVertex
 10
-269.126842314537
 20
-98.60814347732239
 30
0
  0
VERTEX
  5
CB
100
AcDbEntity
  8
s005-#def-solid-edge
  6
CONTINUOUS
 62
    7
420
    0
370
   50
100
AcDbVertex
100
AcDb2dVertex
 10
-297.626842314537
 20
-98.60814347732239
 30
0
  0
VERTEX
  5
CC
100
AcDbEntity
  8
s005-#def-solid-edge
  6
CONTINUOUS
 62
    7
420
    0
370
   50
100
AcDbVertex
100
AcDb2dVertex
 10
-299.4673158623464
 20
-98.95920197201023
 30
0
  0
VERTEX
  5
CD
100
AcDbEntity
  8
s005-#def-solid-edge
  6
CONTINUOUS
 62
    7
420
    0
370
   50
100
AcDbVertex
100
AcDb2dVertex
 10
-300.3628910814627
 20
-99.42316592122914
 30
0
  0
VERTEX
  5
CE
100
AcDbEntity
  8
s005-#def-solid-edge
  6
CONTINUOUS
 62
    7
420
    0
370
   50
100
AcDbVertex
100
AcDb2dVertex
 10
-301.1623762204698
 20
-100.0726095713896
 30
0
  0
VERTEX
  5
CF
100
AcDbEntity
  8
s005-#def-solid-edge
  6
CONTINUOUS
 62
    7
420
    0
370
   50
100
AcDbVertex
100
AcDb2dVertex
 10
-301.8118198706302
 20
-100.8720947103967
 30
0
  0
VERTEX
  5
D0
100
AcDbEntity
  8
s005-#def-solid-edge
  6
CONTINUOUS
 62
    7
420
    0
370
   50
100
AcDbVertex
100
AcDb2dVertex
 10
-302.2757838198493
 20
-101.767669929513
 30
0
  0
VERTEX
  5
D1
100
AcDbEntity
  8
s005-#def-solid-edge
  6
CONTINUOUS
 62
    7
420
    0
370
   50
100
AcDbVertex
100
AcDb2dVertex
 10
-302.626842314537
 20
-103.6081434773224
 30
0
  0
VERTEX
  5
D2
100
AcDbEntity
  8
s005-#def-solid-edge
  6
CONTINUOUS
 62
    7
420
    0
370
   50
100
AcDbVertex
100
AcDb2dVertex
 10
-302.626842314537
 20
-147.1081434773224
 30
0
  0
VERTEX
  5
D3
100
AcDbEntity
  8
s005-#def-solid-edge
  6
CONTINUOUS
 62
    7
420
    0
370
   50
100
AcDbVertex
100
AcDb2dVertex
 10
-302.2757838198492
 20
-148.9486170251317
 30
0
  0
VERTEX
  5
D4
100
AcDbEntity
  8
s005-#def-solid-edge
  6
CONTINUOUS
 62
    7
420
    0
370
   50
100
AcDbVertex
100
AcDb2dVertex
 10
-301.8118198706303
 20
-149.8441922442481
 30
0
  0
VERTEX
  5
D5
100
AcDbEntity
  8
s005-#def-solid-edge
  6
CONTINUOUS
 62
    7
420
    0
370
   50
100
AcDbVertex
100
AcDb2dVertex
 10
-301.1623762204698
 20
-150.6436773832551
 30
0
  0
VERTEX
  5
D6
100
AcDbEntity
  8
s005-#def-solid-edge
  6
CONTINUOUS
 62
    7
420
    0
370
   50
100
AcDbVertex
100
AcDb2dVertex
 10
-300.3628910814627
 20
-151.2931210334156
 30
0
  0
VERTEX
  5
D7
100
AcDbEntity
  8
s005-#def-solid-edge
  6
CONTINUOUS
 62
    7
420
    0
370
   50
100
AcDbVertex
100
AcDb2dVertex
 10
-299.4673158623464
 20
-151.7570849826346
 30
0
  0
VERTEX
  5
D8
100
AcDbEntity
  8
s005-#def-solid-edge
  6
CONTINUOUS
 62
    7
420
    0
370
   50
100
AcDbVertex
100
AcDb2dVertex
 10
-297.626842314537
 20
-152.1081434773224
 30
0
  0
VERTEX
  5
D9
100
AcDbEntity
  8
s005-#def-solid-edge
  6
CONTINUOUS
 62
    7
420
    0
370
   50
100
AcDbVertex
100
AcDb2dVertex
 10
-269.126842314537
 20
-152.1081434773224
 30
0
  0
VERTEX
  5
DA
100
AcDbEntity
  8
s005-#def-solid-edge
  6
CONTINUOUS
 62
    7
420
    0
370
   50
100
AcDbVertex
100
AcDb2dVertex
 10
-268.7587476049752
 20
-152.17835517626
 30
0
  0
VERTEX
  5
DB
100
AcDbEntity
  8
s005-#def-solid-edge
  6
CONTINUOUS
 62
    7
420
    0
370
   50
100
AcDbVertex
100
AcDb2dVertex
 10
-268.4197355333505
 20
-152.4010366961358
 30
0
  0
VERTEX
  5
DC
100
AcDbEntity
  8
s005-#def-solid-edge
  6
CONTINUOUS
 62
    7
420
    0
370
   50
100
AcDbVertex
100
AcDb2dVertex
 10
-268.1970540134746
 20
-152.7400487677605
 30
0
  0
VERTEX
  5
DD
100
AcDbEntity
  8
s005-#def-solid-edge
  6
CONTINUOUS
 62
    7
420
    0
370
   50
100
AcDbVertex
100
AcDb2dVertex
 10
-268.126842314537
 20
-153.1081434773224
 30
0
  0
VERTEX
  5
DE
100
AcDbEntity
  8
s005-#def-solid-edge
  6
CONTINUOUS
 62
    7
420
    0
370
   50
100
AcDbVertex
100
AcDb2dVertex
 10
-268.126842314537
 20
-155.3581434773224
 30
0
  0
VERTEX
  5
DF
100
AcDbEntity
  8
s005-#def-solid-edge
  6
CONTINUOUS
 62
    7
420
    0
370
   50
100
AcDbVertex
100
AcDb2dVertex
 10
-75.12684231453701
 20
-155.3581434773224
 30
0
  0
VERTEX
  5
E0
100
AcDbEntity
  8
s005-#def-solid-edge
  6
CONTINUOUS
 62
    7
420
    0
370
   50
100
AcDbVertex
100
AcDb2dVertex
 10
117.873157685463
 20
-155.3581434773224
 30
0
  0
VERTEX
  5
E1
100
AcDbEntity
  8
s005-#def-solid-edge
  6
CONTINUOUS
 62
    7
420
    0
370
   50
100
AcDbVertex
100
AcDb2dVertex
 10
117.873157685463
 20
-153.1081434773224
 30
0
  0
VERTEX
  5
E2
100
AcDbEntity
  8
s005-#def-solid-edge
  6
CONTINUOUS
 62
    7
420
    0
370
   50
100
AcDbVertex
100
AcDb2dVertex
 10
117.9433693844006
 20
-152.7400487677605
 30
0
  0
VERTEX
  5
E3
100
AcDbEntity
  8
s005-#def-solid-edge
  6
CONTINUOUS
 62
    7
420
    0
370
   50
100
AcDbVertex
100
AcDb2dVertex
 10
118.1660509042765
 20
-152.4010366961358
 30
0
  0
VERTEX
  5
E4
100
AcDbEntity
  8
s005-#def-solid-edge
  6
CONTINUOUS
 62
    7
420
    0
370
   50
100
AcDbVertex
100
AcDb2dVertex
 10
118.5050629758275
 20
-152.1783551762891
 30
0
  0
VERTEX
  5
E5
100
AcDbEntity
  8
s005-#def-solid-edge
  6
CONTINUOUS
 62
    7
420
    0
370
   50
100
AcDbVertex
100
AcDb2dVertex
 10
118.873157685463
 20
-152.1081434773224
 30
0
  0
VERTEX
  5
E6
100
AcDbEntity
  8
s005-#def-solid-edge
  6
CONTINUOUS
 62
    7
420
    0
370
   50
100
AcDbVertex
100
AcDb2dVertex
 10
147.373157685463
 20
-152.1081434773224
 30
0
  0
VERTEX
  5
E7
100
AcDbEntity
  8
s005-#def-solid-edge
  6
CONTINUOUS
 62
    7
420
    0
370
   50
100
AcDbVertex
100
AcDb2dVertex
 10
149.2136312332724
 20
-151.7570849826346
 30
0
  0
VERTEX
  5
E8
100
AcDbEntity
  8
s005-#def-solid-edge
  6
CONTINUOUS
 62
    7
420
    0
370
   50
100
AcDbVertex
100
AcDb2dVertex
 10
150.1092064523887
 20
-151.2931210334156
 30
0
  0
VERTEX
  5
E9
100
AcDbEntity
  8
s005-#def-solid-edge
  6
CONTINUOUS
 62
    7
420
    0
370
   50
100
AcDbVertex
100
AcDb2dVertex
 10
150.9086915913958
 20
-150.6436773832551
 30
0
  0
VERTEX
  5
EA
100
AcDbEntity
  8
s005-#def-solid-edge
  6
CONTINUOUS
 62
    7
420
    0
370
   50
100
AcDbVertex
100
AcDb2dVertex
 10
151.5581352415562
 20
-149.8441922442481
 30
0
  0
VERTEX
  5
EB
100
AcDbEntity
  8
s005-#def-solid-edge
  6
CONTINUOUS
 62
    7
420
    0
370
   50
100
AcDbVertex
100
AcDb2dVertex
 10
152.0220991907752
 20
-148.9486170251318
 30
0
  0
VERTEX
  5
EC
100
AcDbEntity
  8
s005-#def-solid-edge
  6
CONTINUOUS
 62
    7
420
    0
370
   50
100
AcDbVertex
100
AcDb2dVertex
 10
152.373157685463
 20
-147.1081434773224
 30
0
  0
SEQEND
  5
ED
100
AcDbEntity
  8
s005-#def-solid-edge
  6
CONTINUOUS
 62
    7
420
    0
370
   50
  0
POLYLINE
  5
EE
100
AcDbEntity
  8
s005-#def-solid-edge
  6
CONTINUOUS
 62
    7
420
    0
370
   50
100
AcDb2dPolyline
 10
0
 20
0
 30
0
 70
    0
  0
VERTEX
  5
EF
100
AcDbEntity
  8
s005-#def-solid-edge
  6
CONTINUOUS
 62
    7
420
    0
370
   50
100
AcDbVertex
100
AcDb2dVertex
 10
97.54042075780288
 20
-147.1081434773224
 30
0
  0
VERTEX
  5
F0
100
AcDbEntity
  8
s005-#def-solid-edge
  6
CONTINUOUS
 62
    7
420
    0
370
   50
100
AcDbVertex
100
AcDb2dVertex
 10
97.64363194768274
 20
-147.0973749667868
 30
0
  0
VERTEX
  5
F1
100
AcDbEntity
  8
s005-#def-solid-edge
  6
CONTINUOUS
 62
    7
420
    0
370
   50
100
AcDbVertex
100
AcDb2dVertex
 10
97.74454490303472
 20
-147.06457894191
 30
0
  0
VERTEX
  5
F2
100
AcDbEntity
  8
s005-#def-solid-edge
  6
CONTINUOUS
 62
    7
420
    0
370
   50
100
AcDbVertex
100
AcDb2dVertex
 10
97.83626492027489
 20
-147.0112268825021
 30
0
  0
VERTEX
  5
F3
100
AcDbEntity
  8
s005-#def-solid-edge
  6
CONTINUOUS
 62
    7
420
    0
370
   50
100
AcDbVertex
100
AcDb2dVertex
 10
97.91309875405287
 20
-146.9414768106557
 30
0
  0
VERTEX
  5
F4
100
AcDbEntity
  8
s005-#def-solid-edge
  6
CONTINUOUS
 62
    7
420
    0
370
   50
100
AcDbVertex
100
AcDb2dVertex
 10
97.96346573247749
 20
-146.898354035599
 30
0
  0
VERTEX
  5
F5
100
AcDbEntity
  8
s005-#def-solid-edge
  6
CONTINUOUS
 62
    7
420
    0
370
   50
100
AcDbVertex
100
AcDb2dVertex
 10
98.0258173426447
 20
-146.8692291929019
 30
0
  0
VERTEX
  5
F6
100
AcDbEntity
  8
s005-#def-solid-edge
  6
CONTINUOUS
 62
    7
420
    0
370
   50
100
AcDbVertex
100
AcDb2dVertex
 10
98.09374758911466
 20
-146.8582082416226
 30
0
  0
VERTEX
  5
F7
100
AcDbEntity
  8
s005-#def-solid-edge
  6
CONTINUOUS
 62
    7
420
    0
370
   50
100
AcDbVertex
100
AcDb2dVertex
 10
98.15965049849171
 20
-146.8655029506552
 30
0
  0
VERTEX
  5
F8
100
AcDbEntity
  8
s005-#def-solid-edge
  6
CONTINUOUS
 62
    7
420
    0
370
   50
100
AcDbVertex
100
AcDb2dVertex
 10
98.22131789278006
 20
-146.8898656009199
 30
0
  0
VERTEX
  5
F9
100
AcDbEntity
  8
s005-#def-solid-edge
  6
CONTINUOUS
 62
    7
420
    0
370
   50
100
AcDbVertex
100
AcDb2dVertex
 10
98.27621444747442
 20
-146.9313667820257
 30
0
  0
VERTEX
  5
FA
100
AcDbEntity
  8
s005-#def-solid-edge
  6
CONTINUOUS
 62
    7
420
    0
370
   50
100
AcDbVertex
100
AcDb2dVertex
 10
98.31771562858773
 20
-146.9862633367335
 30
0
  0
VERTEX
  5
FB
100
AcDbEntity
  8
s005-#def-solid-edge
  6
CONTINUOUS
 62
    7
420
    0
370
   50
100
AcDbVertex
100
AcDb2dVertex
 10
98.34207827884501
 20
-147.0479307310085
 30
0
  0
VERTEX
  5
FC
100
AcDbEntity
  8
s005-#def-solid-edge
  6
CONTINUOUS
 62
    7
420
    0
370
   50
100
AcDbVertex
100
AcDb2dVertex
 10
98.34937298787764
 20
-147.1138336403855
 30
0
  0
VERTEX
  5
FD
100
AcDbEntity
  8
s005-#def-solid-edge
  6
CONTINUOUS
 62
    7
420
    0
370
   50
100
AcDbVertex
100
AcDb2dVertex
 10
98.33835203659834
 20
-147.1817638868555
 30
0
  0
VERTEX
  5
FE
100
AcDbEntity
  8
s005-#def-solid-edge
  6
CONTINUOUS
 62
    7
420
    0
370
   50
100
AcDbVertex
100
AcDb2dVertex
 10
98.30922719390125
 20
-147.2441154970226
 30
0
  0
VERTEX
  5
FF
100
AcDbEntity
  8
s005-#def-solid-edge
  6
CONTINUOUS
 62
    7
420
    0
370
   50
100
AcDbVertex
100
AcDb2dVertex
 10
98.26610441884446
 20
-147.2944824754474
 30
0
  0
VERTEX
  5
100
100
AcDbEntity
  8
s005-#def-solid-edge
  6
CONTINUOUS
 62
    7
420
    0
370
   50
100
AcDbVertex
100
AcDb2dVertex
 10
98.19635434699777
 20
-147.3713163092258
 30
0
  0
VERTEX
  5
101
100
AcDbEntity
  8
s005-#def-solid-edge
  6
CONTINUOUS
 62
    7
420
    0
370
   50
100
AcDbVertex
100
AcDb2dVertex
 10
98.14300228759012
 20
-147.4630363264654
 30
0
  0
VERTEX
  5
102
100
AcDbEntity
  8
s005-#def-solid-edge
  6
CONTINUOUS
 62
    7
420
    0
370
   50
100
AcDbVertex
100
AcDb2dVertex
 10
98.11020626271338
 20
-147.5639492818174
 30
0
  0
VERTEX
  5
103
100
AcDbEntity
  8
s005-#def-solid-edge
  6
CONTINUOUS
 62
    7
420
    0
370
   50
100
AcDbVertex
100
AcDb2dVertex
 10
98.09943775217781
 20
-147.6671604716973
 30
0
  0
VERTEX
  5
104
100
AcDbEntity
  8
s005-#def-solid-edge
  6
CONTINUOUS
 62
    7
420
    0
370
   50
100
AcDbVertex
100
AcDb2dVertex
 10
98.09943775217781
 20
-149.8491264829474
 30
0
  0
VERTEX
  5
105
100
AcDbEntity
  8
s005-#def-solid-edge
  6
CONTINUOUS
 62
    7
420
    0
370
   50
100
AcDbVertex
100
AcDb2dVertex
 10
98.11020626271343
 20
-149.9523376728274
 30
0
  0
VERTEX
  5
106
100
AcDbEntity
  8
s005-#def-solid-edge
  6
CONTINUOUS
 62
    7
420
    0
370
   50
100
AcDbVertex
100
AcDb2dVertex
 10
98.14300228759018
 20
-150.0532506281794
 30
0
  0
VERTEX
  5
107
100
AcDbEntity
  8
s005-#def-solid-edge
  6
CONTINUOUS
 62
    7
420
    0
370
   50
100
AcDbVertex
100
AcDb2dVertex
 10
98.19635434699811
 20
-150.1449706454194
 30
0
  0
VERTEX
  5
108
100
AcDbEntity
  8
s005-#def-solid-edge
  6
CONTINUOUS
 62
    7
420
    0
370
   50
100
AcDbVertex
100
AcDb2dVertex
 10
98.26610441884444
 20
-150.2218044791974
 30
0
  0
VERTEX
  5
109
100
AcDbEntity
  8
s005-#def-solid-edge
  6
CONTINUOUS
 62
    7
420
    0
370
   50
100
AcDbVertex
100
AcDb2dVertex
 10
98.30922719390122
 20
-150.2721714576221
 30
0
  0
VERTEX
  5
10A
100
AcDbEntity
  8
s005-#def-solid-edge
  6
CONTINUOUS
 62
    7
420
    0
370
   50
100
AcDbVertex
100
AcDb2dVertex
 10
98.33835203659831
 20
-150.3345230677893
 30
0
  0
VERTEX
  5
10B
100
AcDbEntity
  8
s005-#def-solid-edge
  6
CONTINUOUS
 62
    7
420
    0
370
   50
100
AcDbVertex
100
AcDb2dVertex
 10
98.34937298787762
 20
-150.4024533142593
 30
0
  0
VERTEX
  5
10C
100
AcDbEntity
  8
s005-#def-solid-edge
  6
CONTINUOUS
 62
    7
420
    0
370
   50
100
AcDbVertex
100
AcDb2dVertex
 10
98.34207827884501
 20
-150.4683562236363
 30
0
  0
VERTEX
  5
10D
100
AcDbEntity
  8
s005-#def-solid-edge
  6
CONTINUOUS
 62
    7
420
    0
370
   50
100
AcDbVertex
100
AcDb2dVertex
 10
98.31771562858782
 20
-150.5300236179113
 30
0
  0
VERTEX
  5
10E
100
AcDbEntity
  8
s005-#def-solid-edge
  6
CONTINUOUS
 62
    7
420
    0
370
   50
100
AcDbVertex
100
AcDb2dVertex
 10
98.27621444747444
 20
-150.584920172619
 30
0
  0
VERTEX
  5
10F
100
AcDbEntity
  8
s005-#def-solid-edge
  6
CONTINUOUS
 62
    7
420
    0
370
   50
100
AcDbVertex
100
AcDb2dVertex
 10
98.22131789276673
 20
-150.6264213537323
 30
0
  0
VERTEX
  5
110
100
AcDbEntity
  8
s005-#def-solid-edge
  6
CONTINUOUS
 62
    7
420
    0
370
   50
100
AcDbVertex
100
AcDb2dVertex
 10
98.15965049849171
 20
-150.6507840039896
 30
0
  0
VERTEX
  5
111
100
AcDbEntity
  8
s005-#def-solid-edge
  6
CONTINUOUS
 62
    7
420
    0
370
   50
100
AcDbVertex
100
AcDb2dVertex
 10
98.09374758911477
 20
-150.6580787130222
 30
0
  0
VERTEX
  5
112
100
AcDbEntity
  8
s005-#def-solid-edge
  6
CONTINUOUS
 62
    7
420
    0
370
   50
100
AcDbVertex
100
AcDb2dVertex
 10
98.02581734264464
 20
-150.6470577617429
 30
0
  0
VERTEX
  5
113
100
AcDbEntity
  8
s005-#def-solid-edge
  6
CONTINUOUS
 62
    7
420
    0
370
   50
100
AcDbVertex
100
AcDb2dVertex
 10
97.96346573247746
 20
-150.6179329190458
 30
0
  0
VERTEX
  5
114
100
AcDbEntity
  8
s005-#def-solid-edge
  6
CONTINUOUS
 62
    7
420
    0
370
   50
100
AcDbVertex
100
AcDb2dVertex
 10
97.91309875405287
 20
-150.5748101439891
 30
0
  0
VERTEX
  5
115
100
AcDbEntity
  8
s005-#def-solid-edge
  6
CONTINUOUS
 62
    7
420
    0
370
   50
100
AcDbVertex
100
AcDb2dVertex
 10
97.83626492027491
 20
-150.5050600721427
 30
0
  0
VERTEX
  5
116
100
AcDbEntity
  8
s005-#def-solid-edge
  6
CONTINUOUS
 62
    7
420
    0
370
   50
100
AcDbVertex
100
AcDb2dVertex
 10
97.74454490303481
 20
-150.4517080127348
 30
0
  0
VERTEX
  5
117
100
AcDbEntity
  8
s005-#def-solid-edge
  6
CONTINUOUS
 62
    7
420
    0
370
   50
100
AcDbVertex
100
AcDb2dVertex
 10
97.64363194768276
 20
-150.418911987858
 30
0
  0
VERTEX
  5
118
100
AcDbEntity
  8
s005-#def-solid-edge
  6
CONTINUOUS
 62
    7
420
    0
370
   50
100
AcDbVertex
100
AcDb2dVertex
 10
97.54042075780288
 20
-150.4081434773224
 30
0
  0
VERTEX
  5
119
100
AcDbEntity
  8
s005-#def-solid-edge
  6
CONTINUOUS
 62
    7
420
    0
370
   50
100
AcDbVertex
100
AcDb2dVertex
 10
78.65845474655276
 20
-150.4081434773224
 30
0
  0
VERTEX
  5
11A
100
AcDbEntity
  8
s005-#def-solid-edge
  6
CONTINUOUS
 62
    7
420
    0
370
   50
100
AcDbVertex
100
AcDb2dVertex
 10
78.55524355667222
 20
-150.4189119878581
 30
0
  0
VERTEX
  5
11B
100
AcDbEntity
  8
s005-#def-solid-edge
  6
CONTINUOUS
 62
    7
420
    0
370
   50
100
AcDbVertex
100
AcDb2dVertex
 10
78.45433060132089
 20
-150.4517080127347
 30
0
  0
VERTEX
  5
11C
100
AcDbEntity
  8
s005-#def-solid-edge
  6
CONTINUOUS
 62
    7
420
    0
370
   50
100
AcDbVertex
100
AcDb2dVertex
 10
78.36261058408078
 20
-150.5050600721427
 30
0
  0
VERTEX
  5
11D
100
AcDbEntity
  8
s005-#def-solid-edge
  6
CONTINUOUS
 62
    7
420
    0
370
   50
100
AcDbVertex
100
AcDb2dVertex
 10
78.28577675030272
 20
-150.574810143989
 30
0
  0
VERTEX
  5
11E
100
AcDbEntity
  8
s005-#def-solid-edge
  6
CONTINUOUS
 62
    7
420
    0
370
   50
100
AcDbVertex
100
AcDb2dVertex
 10
78.23540977187807
 20
-150.6179329190458
 30
0
  0
VERTEX
  5
11F
100
AcDbEntity
  8
s005-#def-solid-edge
  6
CONTINUOUS
 62
    7
420
    0
370
   50
100
AcDbVertex
100
AcDb2dVertex
 10
78.17305816171088
 20
-150.6470577617429
 30
0
  0
VERTEX
  5
120
100
AcDbEntity
  8
s005-#def-solid-edge
  6
CONTINUOUS
 62
    7
420
    0
370
   50
100
AcDbVertex
100
AcDb2dVertex
 10
78.10512791524096
 20
-150.6580787130222
 30
0
  0
VERTEX
  5
121
100
AcDbEntity
  8
s005-#def-solid-edge
  6
CONTINUOUS
 62
    7
420
    0
370
   50
100
AcDbVertex
100
AcDb2dVertex
 10
78.03922500586387
 20
-150.6507840039896
 30
0
  0
VERTEX
  5
122
100
AcDbEntity
  8
s005-#def-solid-edge
  6
CONTINUOUS
 62
    7
420
    0
370
   50
100
AcDbVertex
100
AcDb2dVertex
 10
77.97755761158888
 20
-150.6264213537323
 30
0
  0
VERTEX
  5
123
100
AcDbEntity
  8
s005-#def-solid-edge
  6
CONTINUOUS
 62
    7
420
    0
370
   50
100
AcDbVertex
100
AcDb2dVertex
 10
77.92266105688114
 20
-150.584920172619
 30
0
  0
VERTEX
  5
124
100
AcDbEntity
  8
s005-#def-solid-edge
  6
CONTINUOUS
 62
    7
420
    0
370
   50
100
AcDbVertex
100
AcDb2dVertex
 10
77.88115987576782
 20
-150.5300236179113
 30
0
  0
VERTEX
  5
125
100
AcDbEntity
  8
s005-#def-solid-edge
  6
CONTINUOUS
 62
    7
420
    0
370
   50
100
AcDbVertex
100
AcDb2dVertex
 10
77.85679722551063
 20
-150.4683562236363
 30
0
  0
VERTEX
  5
126
100
AcDbEntity
  8
s005-#def-solid-edge
  6
CONTINUOUS
 62
    7
420
    0
370
   50
100
AcDbVertex
100
AcDb2dVertex
 10
77.84950251647794
 20
-150.4024533142593
 30
0
  0
VERTEX
  5
127
100
AcDbEntity
  8
s005-#def-solid-edge
  6
CONTINUOUS
 62
    7
420
    0
370
   50
100
AcDbVertex
100
AcDb2dVertex
 10
77.86052346775733
 20
-150.3345230677893
 30
0
  0
VERTEX
  5
128
100
AcDbEntity
  8
s005-#def-solid-edge
  6
CONTINUOUS
 62
    7
420
    0
370
   50
100
AcDbVertex
100
AcDb2dVertex
 10
77.88964831045436
 20
-150.2721714576221
 30
0
  0
VERTEX
  5
129
100
AcDbEntity
  8
s005-#def-solid-edge
  6
CONTINUOUS
 62
    7
420
    0
370
   50
100
AcDbVertex
100
AcDb2dVertex
 10
77.93277108551115
 20
-150.2218044791974
 30
0
  0
VERTEX
  5
12A
100
AcDbEntity
  8
s005-#def-solid-edge
  6
CONTINUOUS
 62
    7
420
    0
370
   50
100
AcDbVertex
100
AcDb2dVertex
 10
78.00252115735753
 20
-150.1449706454194
 30
0
  0
VERTEX
  5
12B
100
AcDbEntity
  8
s005-#def-solid-edge
  6
CONTINUOUS
 62
    7
420
    0
370
   50
100
AcDbVertex
100
AcDb2dVertex
 10
78.05587321676552
 20
-150.0532506281794
 30
0
  0
VERTEX
  5
12C
100
AcDbEntity
  8
s005-#def-solid-edge
  6
CONTINUOUS
 62
    7
420
    0
370
   50
100
AcDbVertex
100
AcDb2dVertex
 10
78.08866924164218
 20
-149.9523376728274
 30
0
  0
VERTEX
  5
12D
100
AcDbEntity
  8
s005-#def-solid-edge
  6
CONTINUOUS
 62
    7
420
    0
370
   50
100
AcDbVertex
100
AcDb2dVertex
 10
78.09943775217783
 20
-149.8491264829474
 30
0
  0
VERTEX
  5
12E
100
AcDbEntity
  8
s005-#def-solid-edge
  6
CONTINUOUS
 62
    7
420
    0
370
   50
100
AcDbVertex
100
AcDb2dVertex
 10
78.09943775217783
 20
-147.6671604716973
 30
0
  0
VERTEX
  5
12F
100
AcDbEntity
  8
s005-#def-solid-edge
  6
CONTINUOUS
 62
    7
420
    0
370
   50
100
AcDbVertex
100
AcDb2dVertex
 10
78.08866924164226
 20
-147.5639492818174
 30
0
  0
VERTEX
  5
130
100
AcDbEntity
  8
s005-#def-solid-edge
  6
CONTINUOUS
 62
    7
420
    0
370
   50
100
AcDbVertex
100
AcDb2dVertex
 10
78.05587321676549
 20
-147.4630363264654
 30
0
  0
VERTEX
  5
131
100
AcDbEntity
  8
s005-#def-solid-edge
  6
CONTINUOUS
 62
    7
420
    0
370
   50
100
AcDbVertex
100
AcDb2dVertex
 10
78.00252115735748
 20
-147.3713163092253
 30
0
  0
VERTEX
  5
132
100
AcDbEntity
  8
s005-#def-solid-edge
  6
CONTINUOUS
 62
    7
420
    0
370
   50
100
AcDbVertex
100
AcDb2dVertex
 10
77.93277108551115
 20
-147.2944824754474
 30
0
  0
VERTEX
  5
133
100
AcDbEntity
  8
s005-#def-solid-edge
  6
CONTINUOUS
 62
    7
420
    0
370
   50
100
AcDbVertex
100
AcDb2dVertex
 10
77.88964831044609
 20
-147.2441154970099
 30
0
  0
VERTEX
  5
134
100
AcDbEntity
  8
s005-#def-solid-edge
  6
CONTINUOUS
 62
    7
420
    0
370
   50
100
AcDbVertex
100
AcDb2dVertex
 10
77.86052346775728
 20
-147.1817638868555
 30
0
  0
VERTEX
  5
135
100
AcDbEntity
  8
s005-#def-solid-edge
  6
CONTINUOUS
 62
    7
420
    0
370
   50
100
AcDbVertex
100
AcDb2dVertex
 10
77.849502516478
 20
-147.1138336403855
 30
0
  0
VERTEX
  5
136
100
AcDbEntity
  8
s005-#def-solid-edge
  6
CONTINUOUS
 62
    7
420
    0
370
   50
100
AcDbVertex
100
AcDb2dVertex
 10
77.8567972255106
 20
-147.0479307310085
 30
0
  0
VERTEX
  5
137
100
AcDbEntity
  8
s005-#def-solid-edge
  6
CONTINUOUS
 62
    7
420
    0
370
   50
100
AcDbVertex
100
AcDb2dVertex
 10
77.88115987577535
 20
-146.9862633367201
 30
0
  0
VERTEX
  5
138
100
AcDbEntity
  8
s005-#def-solid-edge
  6
CONTINUOUS
 62
    7
420
    0
370
   50
100
AcDbVertex
100
AcDb2dVertex
 10
77.92266105688117
 20
-146.9313667820257
 30
0
  0
VERTEX
  5
139
100
AcDbEntity
  8
s005-#def-solid-edge
  6
CONTINUOUS
 62
    7
420
    0
370
   50
100
AcDbVertex
100
AcDb2dVertex
 10
77.97755761158885
 20
-146.8898656009125
 30
0
  0
VERTEX
  5
13A
100
AcDbEntity
  8
s005-#def-solid-edge
  6
CONTINUOUS
 62
    7
420
    0
370
   50
100
AcDbVertex
100
AcDb2dVertex
 10
78.03922500586387
 20
-146.8655029506552
 30
0
  0
VERTEX
  5
13B
100
AcDbEntity
  8
s005-#def-solid-edge
  6
CONTINUOUS
 62
    7
420
    0
370
   50
100
AcDbVertex
100
AcDb2dVertex
 10
78.10512791524096
 20
-146.8582082416226
 30
0
  0
VERTEX
  5
13C
100
AcDbEntity
  8
s005-#def-solid-edge
  6
CONTINUOUS
 62
    7
420
    0
370
   50
100
AcDbVertex
100
AcDb2dVertex
 10
78.17305816171088
 20
-146.8692291929018
 30
0
  0
VERTEX
  5
13D
100
AcDbEntity
  8
s005-#def-solid-edge
  6
CONTINUOUS
 62
    7
420
    0
370
   50
100
AcDbVertex
100
AcDb2dVertex
 10
78.23540977187807
 20
-146.898354035599
 30
0
  0
VERTEX
  5
13E
100
AcDbEntity
  8
s005-#def-solid-edge
  6
CONTINUOUS
 62
    7
420
    0
370
   50
100
AcDbVertex
100
AcDb2dVertex
 10
78.2857767503028
 20
-146.9414768106557
 30
0
  0
VERTEX
  5
13F
100
AcDbEntity
  8
s005-#def-solid-edge
  6
CONTINUOUS
 62
    7
420
    0
370
   50
100
AcDbVertex
100
AcDb2dVertex
 10
78.3626105840807
 20
-147.0112268825021
 30
0
  0
VERTEX
  5
140
100
AcDbEntity
  8
s005-#def-solid-edge
  6
CONTINUOUS
 62
    7
420
    0
370
   50
100
AcDbVertex
100
AcDb2dVertex
 10
78.45433060132078
 20
-147.06457894191
 30
0
  0
VERTEX
  5
141
100
AcDbEntity
  8
s005-#def-solid-edge
  6
CONTINUOUS
 62
    7
420
    0
370
   50
100
AcDbVertex
100
AcDb2dVertex
 10
78.55524355667282
 20
-147.0973749667868
 30
0
  0
VERTEX
  5
142
100
AcDbEntity
  8
s005-#def-solid-edge
  6
CONTINUOUS
 62
    7
420
    0
370
   50
100
AcDbVertex
100
AcDb2dVertex
 10
78.65845474655271
 20
-147.1081434773224
 30
0
  0
VERTEX
  5
143
100
AcDbEntity
  8
s005-#def-solid-edge
  6
CONTINUOUS
 62
    7
420
    0
370
   50
100
AcDbVertex
100
AcDb2dVertex
 10
97.54042075780288
 20
-147.1081434773224
 30
0
  0
SEQEND
  5
144
100
AcDbEntity
  8
s005-#def-solid-edge
  6
CONTINUOUS
 62
    7
420
    0
370
   50
  0
POLYLINE
  5
145
100
AcDbEntity
  8
s005-#def-solid-edge
  6
CONTINUOUS
 62
    7
420
    0
370
   50
100
AcDb2dPolyline
 10
0
 20
0
 30
0
 70
    0
  0
VERTEX
  5
146
100
AcDbEntity
  8
s005-#def-solid-edge
  6
CONTINUOUS
 62
    7
420
    0
370
   50
100
AcDbVertex
100
AcDb2dVertex
 10
50.93666646255782
 20
-147.1081434773224
 30
0
  0
VERTEX
  5
147
100
AcDbEntity
  8
s005-#def-solid-edge
  6
CONTINUOUS
 62
    7
420
    0
370
   50
100
AcDbVertex
100
AcDb2dVertex
 10
51.03987765243777
 20
-147.0973749667868
 30
0
  0
VERTEX
  5
148
100
AcDbEntity
  8
s005-#def-solid-edge
  6
CONTINUOUS
 62
    7
420
    0
370
   50
100
AcDbVertex
100
AcDb2dVertex
 10
51.14079060778982
 20
-147.06457894191
 30
0
  0
VERTEX
  5
149
100
AcDbEntity
  8
s005-#def-solid-edge
  6
CONTINUOUS
 62
    7
420
    0
370
   50
100
AcDbVertex
100
AcDb2dVertex
 10
51.23251062502987
 20
-147.0112268825021
 30
0
  0
VERTEX
  5
14A
100
AcDbEntity
  8
s005-#def-solid-edge
  6
CONTINUOUS
 62
    7
420
    0
370
   50
100
AcDbVertex
100
AcDb2dVertex
 10
51.3093444588078
 20
-146.9414768106557
 30
0
  0
VERTEX
  5
14B
100
AcDbEntity
  8
s005-#def-solid-edge
  6
CONTINUOUS
 62
    7
420
    0
370
   50
100
AcDbVertex
100
AcDb2dVertex
 10
51.35971143723248
 20
-146.898354035599
 30
0
  0
VERTEX
  5
14C
100
AcDbEntity
  8
s005-#def-solid-edge
  6
CONTINUOUS
 62
    7
420
    0
370
   50
100
AcDbVertex
100
AcDb2dVertex
 10
51.42206304739972
 20
-146.8692291929019
 30
0
  0
VERTEX
  5
14D
100
AcDbEntity
  8
s005-#def-solid-edge
  6
CONTINUOUS
 62
    7
420
    0
370
   50
100
AcDbVertex
100
AcDb2dVertex
 10
51.48999329386973
 20
-146.8582082416226
 30
0
  0
VERTEX
  5
14E
100
AcDbEntity
  8
s005-#def-solid-edge
  6
CONTINUOUS
 62
    7
420
    0
370
   50
100
AcDbVertex
100
AcDb2dVertex
 10
51.55589620324668
 20
-146.8655029506552
 30
0
  0
VERTEX
  5
14F
100
AcDbEntity
  8
s005-#def-solid-edge
  6
CONTINUOUS
 62
    7
420
    0
370
   50
100
AcDbVertex
100
AcDb2dVertex
 10
51.61756359752177
 20
-146.8898656009125
 30
0
  0
VERTEX
  5
150
100
AcDbEntity
  8
s005-#def-solid-edge
  6
CONTINUOUS
 62
    7
420
    0
370
   50
100
AcDbVertex
100
AcDb2dVertex
 10
51.67246015222938
 20
-146.9313667820257
 30
0
  0
VERTEX
  5
151
100
AcDbEntity
  8
s005-#def-solid-edge
  6
CONTINUOUS
 62
    7
420
    0
370
   50
100
AcDbVertex
100
AcDb2dVertex
 10
51.71396133334275
 20
-146.9862633367335
 30
0
  0
VERTEX
  5
152
100
AcDbEntity
  8
s005-#def-solid-edge
  6
CONTINUOUS
 62
    7
420
    0
370
   50
100
AcDbVertex
100
AcDb2dVertex
 10
51.73832398360003
 20
-147.0479307310085
 30
0
  0
VERTEX
  5
153
100
AcDbEntity
  8
s005-#def-solid-edge
  6
CONTINUOUS
 62
    7
420
    0
370
   50
100
AcDbVertex
100
AcDb2dVertex
 10
51.74561869263258
 20
-147.1138336403855
 30
0
  0
VERTEX
  5
154
100
AcDbEntity
  8
s005-#def-solid-edge
  6
CONTINUOUS
 62
    7
420
    0
370
   50
100
AcDbVertex
100
AcDb2dVertex
 10
51.73459774135334
 20
-147.1817638868555
 30
0
  0
VERTEX
  5
155
100
AcDbEntity
  8
s005-#def-solid-edge
  6
CONTINUOUS
 62
    7
420
    0
370
   50
100
AcDbVertex
100
AcDb2dVertex
 10
51.70547289865625
 20
-147.2441154970227
 30
0
  0
VERTEX
  5
156
100
AcDbEntity
  8
s005-#def-solid-edge
  6
CONTINUOUS
 62
    7
420
    0
370
   50
100
AcDbVertex
100
AcDb2dVertex
 10
51.66235012359954
 20
-147.2944824754474
 30
0
  0
VERTEX
  5
157
100
AcDbEntity
  8
s005-#def-solid-edge
  6
CONTINUOUS
 62
    7
420
    0
370
   50
100
AcDbVertex
100
AcDb2dVertex
 10
51.59260005175321
 20
-147.3713163092253
 30
0
  0
VERTEX
  5
158
100
AcDbEntity
  8
s005-#def-solid-edge
  6
CONTINUOUS
 62
    7
420
    0
370
   50
100
AcDbVertex
100
AcDb2dVertex
 10
51.53924799234524
 20
-147.4630363264654
 30
0
  0
VERTEX
  5
159
100
AcDbEntity
  8
s005-#def-solid-edge
  6
CONTINUOUS
 62
    7
420
    0
370
   50
100
AcDbVertex
100
AcDb2dVertex
 10
51.50645196746839
 20
-147.5639492818174
 30
0
  0
VERTEX
  5
15A
100
AcDbEntity
  8
s005-#def-solid-edge
  6
CONTINUOUS
 62
    7
420
    0
370
   50
100
AcDbVertex
100
AcDb2dVertex
 10
51.49568345693282
 20
-147.6671604716973
 30
0
  0
VERTEX
  5
15B
100
AcDbEntity
  8
s005-#def-solid-edge
  6
CONTINUOUS
 62
    7
420
    0
370
   50
100
AcDbVertex
100
AcDb2dVertex
 10
51.49568345693282
 20
-149.8491264829474
 30
0
  0
VERTEX
  5
15C
100
AcDbEntity
  8
s005-#def-solid-edge
  6
CONTINUOUS
 62
    7
420
    0
370
   50
100
AcDbVertex
100
AcDb2dVertex
 10
51.50645196746842
 20
-149.9523376728274
 30
0
  0
VERTEX
  5
15D
100
AcDbEntity
  8
s005-#def-solid-edge
  6
CONTINUOUS
 62
    7
420
    0
370
   50
100
AcDbVertex
100
AcDb2dVertex
 10
51.53924799234522
 20
-150.0532506281794
 30
0
  0
VERTEX
  5
15E
100
AcDbEntity
  8
s005-#def-solid-edge
  6
CONTINUOUS
 62
    7
420
    0
370
   50
100
AcDbVertex
100
AcDb2dVertex
 10
51.59260005175314
 20
-150.1449706454194
 30
0
  0
VERTEX
  5
15F
100
AcDbEntity
  8
s005-#def-solid-edge
  6
CONTINUOUS
 62
    7
420
    0
370
   50
100
AcDbVertex
100
AcDb2dVertex
 10
51.66235012359951
 20
-150.2218044791974
 30
0
  0
VERTEX
  5
160
100
AcDbEntity
  8
s005-#def-solid-edge
  6
CONTINUOUS
 62
    7
420
    0
370
   50
100
AcDbVertex
100
AcDb2dVertex
 10
51.70547289865624
 20
-150.2721714576221
 30
0
  0
VERTEX
  5
161
100
AcDbEntity
  8
s005-#def-solid-edge
  6
CONTINUOUS
 62
    7
420
    0
370
   50
100
AcDbVertex
100
AcDb2dVertex
 10
51.73459774135338
 20
-150.3345230677893
 30
0
  0
VERTEX
  5
162
100
AcDbEntity
  8
s005-#def-solid-edge
  6
CONTINUOUS
 62
    7
420
    0
370
   50
100
AcDbVertex
100
AcDb2dVertex
 10
51.74561869263263
 20
-150.4024533142593
 30
0
  0
VERTEX
  5
163
100
AcDbEntity
  8
s005-#def-solid-edge
  6
CONTINUOUS
 62
    7
420
    0
370
   50
100
AcDbVertex
100
AcDb2dVertex
 10
51.73832398360003
 20
-150.4683562236363
 30
0
  0
VERTEX
  5
164
100
AcDbEntity
  8
s005-#def-solid-edge
  6
CONTINUOUS
 62
    7
420
    0
370
   50
100
AcDbVertex
100
AcDb2dVertex
 10
51.71396133334278
 20
-150.5300236179113
 30
0
  0
VERTEX
  5
165
100
AcDbEntity
  8
s005-#def-solid-edge
  6
CONTINUOUS
 62
    7
420
    0
370
   50
100
AcDbVertex
100
AcDb2dVertex
 10
51.67246015222938
 20
-150.584920172619
 30
0
  0
VERTEX
  5
166
100
AcDbEntity
  8
s005-#def-solid-edge
  6
CONTINUOUS
 62
    7
420
    0
370
   50
100
AcDbVertex
100
AcDb2dVertex
 10
51.61756359752174
 20
-150.6264213537323
 30
0
  0
VERTEX
  5
167
100
AcDbEntity
  8
s005-#def-solid-edge
  6
CONTINUOUS
 62
    7
420
    0
370
   50
100
AcDbVertex
100
AcDb2dVertex
 10
51.55589620324676
 20
-150.6507840039896
 30
0
  0
VERTEX
  5
168
100
AcDbEntity
  8
s005-#def-solid-edge
  6
CONTINUOUS
 62
    7
420
    0
370
   50
100
AcDbVertex
100
AcDb2dVertex
 10
51.48999329386972
 20
-150.6580787130222
 30
0
  0
VERTEX
  5
169
100
AcDbEntity
  8
s005-#def-solid-edge
  6
CONTINUOUS
 62
    7
420
    0
370
   50
100
AcDbVertex
100
AcDb2dVertex
 10
51.42206304739972
 20
-150.6470577617429
 30
0
  0
VERTEX
  5
16A
100
AcDbEntity
  8
s005-#def-solid-edge
  6
CONTINUOUS
 62
    7
420
    0
370
   50
100
AcDbVertex
100
AcDb2dVertex
 10
51.35971143723255
 20
-150.6179329190458
 30
0
  0
VERTEX
  5
16B
100
AcDbEntity
  8
s005-#def-solid-edge
  6
CONTINUOUS
 62
    7
420
    0
370
   50
100
AcDbVertex
100
AcDb2dVertex
 10
51.30934445880783
 20
-150.5748101439891
 30
0
  0
VERTEX
  5
16C
100
AcDbEntity
  8
s005-#def-solid-edge
  6
CONTINUOUS
 62
    7
420
    0
370
   50
100
AcDbVertex
100
AcDb2dVertex
 10
51.23251062502987
 20
-150.5050600721427
 30
0
  0
VERTEX
  5
16D
100
AcDbEntity
  8
s005-#def-solid-edge
  6
CONTINUOUS
 62
    7
420
    0
370
   50
100
AcDbVertex
100
AcDb2dVertex
 10
51.14079060778982
 20
-150.4517080127348
 30
0
  0
VERTEX
  5
16E
100
AcDbEntity
  8
s005-#def-solid-edge
  6
CONTINUOUS
 62
    7
420
    0
370
   50
100
AcDbVertex
100
AcDb2dVertex
 10
51.03987765243781
 20
-150.418911987858
 30
0
  0
VERTEX
  5
16F
100
AcDbEntity
  8
s005-#def-solid-edge
  6
CONTINUOUS
 62
    7
420
    0
370
   50
100
AcDbVertex
100
AcDb2dVertex
 10
50.93666646255787
 20
-150.4081434773224
 30
0
  0
VERTEX
  5
170
100
AcDbEntity
  8
s005-#def-solid-edge
  6
CONTINUOUS
 62
    7
420
    0
370
   50
100
AcDbVertex
100
AcDb2dVertex
 10
32.05470045130778
 20
-150.4081434773224
 30
0
  0
VERTEX
  5
171
100
AcDbEntity
  8
s005-#def-solid-edge
  6
CONTINUOUS
 62
    7
420
    0
370
   50
100
AcDbVertex
100
AcDb2dVertex
 10
31.95148926142781
 20
-150.418911987858
 30
0
  0
VERTEX
  5
172
100
AcDbEntity
  8
s005-#def-solid-edge
  6
CONTINUOUS
 62
    7
420
    0
370
   50
100
AcDbVertex
100
AcDb2dVertex
 10
31.85057630607585
 20
-150.4517080127347
 30
0
  0
VERTEX
  5
173
100
AcDbEntity
  8
s005-#def-solid-edge
  6
CONTINUOUS
 62
    7
420
    0
370
   50
100
AcDbVertex
100
AcDb2dVertex
 10
31.75885628883583
 20
-150.5050600721427
 30
0
  0
VERTEX
  5
174
100
AcDbEntity
  8
s005-#def-solid-edge
  6
CONTINUOUS
 62
    7
420
    0
370
   50
100
AcDbVertex
100
AcDb2dVertex
 10
31.68202245505783
 20
-150.574810143989
 30
0
  0
VERTEX
  5
175
100
AcDbEntity
  8
s005-#def-solid-edge
  6
CONTINUOUS
 62
    7
420
    0
370
   50
100
AcDbVertex
100
AcDb2dVertex
 10
31.6316554766331
 20
-150.6179329190458
 30
0
  0
VERTEX
  5
176
100
AcDbEntity
  8
s005-#def-solid-edge
  6
CONTINUOUS
 62
    7
420
    0
370
   50
100
AcDbVertex
100
AcDb2dVertex
 10
31.56930386646589
 20
-150.6470577617429
 30
0
  0
VERTEX
  5
177
100
AcDbEntity
  8
s005-#def-solid-edge
  6
CONTINUOUS
 62
    7
420
    0
370
   50
100
AcDbVertex
100
AcDb2dVertex
 10
31.50137361999592
 20
-150.6580787130222
 30
0
  0
VERTEX
  5
178
100
AcDbEntity
  8
s005-#def-solid-edge
  6
CONTINUOUS
 62
    7
420
    0
370
   50
100
AcDbVertex
100
AcDb2dVertex
 10
31.43547071061893
 20
-150.6507840039896
 30
0
  0
VERTEX
  5
179
100
AcDbEntity
  8
s005-#def-solid-edge
  6
CONTINUOUS
 62
    7
420
    0
370
   50
100
AcDbVertex
100
AcDb2dVertex
 10
31.37380331634387
 20
-150.6264213537323
 30
0
  0
VERTEX
  5
17A
100
AcDbEntity
  8
s005-#def-solid-edge
  6
CONTINUOUS
 62
    7
420
    0
370
   50
100
AcDbVertex
100
AcDb2dVertex
 10
31.3189067616362
 20
-150.584920172619
 30
0
  0
VERTEX
  5
17B
100
AcDbEntity
  8
s005-#def-solid-edge
  6
CONTINUOUS
 62
    7
420
    0
370
   50
100
AcDbVertex
100
AcDb2dVertex
 10
31.27740558052294
 20
-150.5300236179113
 30
0
  0
VERTEX
  5
17C
100
AcDbEntity
  8
s005-#def-solid-edge
  6
CONTINUOUS
 62
    7
420
    0
370
   50
100
AcDbVertex
100
AcDb2dVertex
 10
31.25304293026556
 20
-150.4683562236363
 30
0
  0
VERTEX
  5
17D
100
AcDbEntity
  8
s005-#def-solid-edge
  6
CONTINUOUS
 62
    7
420
    0
370
   50
100
AcDbVertex
100
AcDb2dVertex
 10
31.24574822123338
 20
-150.402453314244
 30
0
  0
VERTEX
  5
17E
100
AcDbEntity
  8
s005-#def-solid-edge
  6
CONTINUOUS
 62
    7
420
    0
370
   50
100
AcDbVertex
100
AcDb2dVertex
 10
31.25676917251229
 20
-150.3345230677893
 30
0
  0
VERTEX
  5
17F
100
AcDbEntity
  8
s005-#def-solid-edge
  6
CONTINUOUS
 62
    7
420
    0
370
   50
100
AcDbVertex
100
AcDb2dVertex
 10
31.28589401520939
 20
-150.2721714576221
 30
0
  0
VERTEX
  5
180
100
AcDbEntity
  8
s005-#def-solid-edge
  6
CONTINUOUS
 62
    7
420
    0
370
   50
100
AcDbVertex
100
AcDb2dVertex
 10
31.32901679026618
 20
-150.2218044791974
 30
0
  0
VERTEX
  5
181
100
AcDbEntity
  8
s005-#def-solid-edge
  6
CONTINUOUS
 62
    7
420
    0
370
   50
100
AcDbVertex
100
AcDb2dVertex
 10
31.39876686211286
 20
-150.1449706454189
 30
0
  0
VERTEX
  5
182
100
AcDbEntity
  8
s005-#def-solid-edge
  6
CONTINUOUS
 62
    7
420
    0
370
   50
100
AcDbVertex
100
AcDb2dVertex
 10
31.45211892152045
 20
-150.0532506281794
 30
0
  0
VERTEX
  5
183
100
AcDbEntity
  8
s005-#def-solid-edge
  6
CONTINUOUS
 62
    7
420
    0
370
   50
100
AcDbVertex
100
AcDb2dVertex
 10
31.48491494639727
 20
-149.9523376728274
 30
0
  0
VERTEX
  5
184
100
AcDbEntity
  8
s005-#def-solid-edge
  6
CONTINUOUS
 62
    7
420
    0
370
   50
100
AcDbVertex
100
AcDb2dVertex
 10
31.49568345693282
 20
-149.8491264829474
 30
0
  0
VERTEX
  5
185
100
AcDbEntity
  8
s005-#def-solid-edge
  6
CONTINUOUS
 62
    7
420
    0
370
   50
100
AcDbVertex
100
AcDb2dVertex
 10
31.49568345693282
 20
-147.6671604716973
 30
0
  0
VERTEX
  5
186
100
AcDbEntity
  8
s005-#def-solid-edge
  6
CONTINUOUS
 62
    7
420
    0
370
   50
100
AcDbVertex
100
AcDb2dVertex
 10
31.48491494639727
 20
-147.5639492818174
 30
0
  0
VERTEX
  5
187
100
AcDbEntity
  8
s005-#def-solid-edge
  6
CONTINUOUS
 62
    7
420
    0
370
   50
100
AcDbVertex
100
AcDb2dVertex
 10
31.45211892152047
 20
-147.4630363264654
 30
0
  0
VERTEX
  5
188
100
AcDbEntity
  8
s005-#def-solid-edge
  6
CONTINUOUS
 62
    7
420
    0
370
   50
100
AcDbVertex
100
AcDb2dVertex
 10
31.39876686211248
 20
-147.3713163092253
 30
0
  0
VERTEX
  5
189
100
AcDbEntity
  8
s005-#def-solid-edge
  6
CONTINUOUS
 62
    7
420
    0
370
   50
100
AcDbVertex
100
AcDb2dVertex
 10
31.32901679026617
 20
-147.2944824754474
 30
0
  0
VERTEX
  5
18A
100
AcDbEntity
  8
s005-#def-solid-edge
  6
CONTINUOUS
 62
    7
420
    0
370
   50
100
AcDbVertex
100
AcDb2dVertex
 10
31.28589401520108
 20
-147.2441154970099
 30
0
  0
VERTEX
  5
18B
100
AcDbEntity
  8
s005-#def-solid-edge
  6
CONTINUOUS
 62
    7
420
    0
370
   50
100
AcDbVertex
100
AcDb2dVertex
 10
31.25676917251229
 20
-147.1817638868555
 30
0
  0
VERTEX
  5
18C
100
AcDbEntity
  8
s005-#def-solid-edge
  6
CONTINUOUS
 62
    7
420
    0
370
   50
100
AcDbVertex
100
AcDb2dVertex
 10
31.24574822123303
 20
-147.1138336403855
 30
0
  0
VERTEX
  5
18D
100
AcDbEntity
  8
s005-#def-solid-edge
  6
CONTINUOUS
 62
    7
420
    0
370
   50
100
AcDbVertex
100
AcDb2dVertex
 10
31.25304293026561
 20
-147.0479307310085
 30
0
  0
VERTEX
  5
18E
100
AcDbEntity
  8
s005-#def-solid-edge
  6
CONTINUOUS
 62
    7
420
    0
370
   50
100
AcDbVertex
100
AcDb2dVertex
 10
31.27740558052295
 20
-146.9862633367335
 30
0
  0
VERTEX
  5
18F
100
AcDbEntity
  8
s005-#def-solid-edge
  6
CONTINUOUS
 62
    7
420
    0
370
   50
100
AcDbVertex
100
AcDb2dVertex
 10
31.31890676163617
 20
-146.9313667820257
 30
0
  0
VERTEX
  5
190
100
AcDbEntity
  8
s005-#def-solid-edge
  6
CONTINUOUS
 62
    7
420
    0
370
   50
100
AcDbVertex
100
AcDb2dVertex
 10
31.37380331634382
 20
-146.8898656009125
 30
0
  0
VERTEX
  5
191
100
AcDbEntity
  8
s005-#def-solid-edge
  6
CONTINUOUS
 62
    7
420
    0
370
   50
100
AcDbVertex
100
AcDb2dVertex
 10
31.43547071061892
 20
-146.8655029506552
 30
0
  0
VERTEX
  5
192
100
AcDbEntity
  8
s005-#def-solid-edge
  6
CONTINUOUS
 62
    7
420
    0
370
   50
100
AcDbVertex
100
AcDb2dVertex
 10
31.50137361999592
 20
-146.8582082416226
 30
0
  0
VERTEX
  5
193
100
AcDbEntity
  8
s005-#def-solid-edge
  6
CONTINUOUS
 62
    7
420
    0
370
   50
100
AcDbVertex
100
AcDb2dVertex
 10
31.569303866466
 20
-146.8692291929018
 30
0
  0
VERTEX
  5
194
100
AcDbEntity
  8
s005-#def-solid-edge
  6
CONTINUOUS
 62
    7
420
    0
370
   50
100
AcDbVertex
100
AcDb2dVertex
 10
31.63165547663311
 20
-146.898354035599
 30
0
  0
VERTEX
  5
195
100
AcDbEntity
  8
s005-#def-solid-edge
  6
CONTINUOUS
 62
    7
420
    0
370
   50
100
AcDbVertex
100
AcDb2dVertex
 10
31.68202245505782
 20
-146.9414768106557
 30
0
  0
VERTEX
  5
196
100
AcDbEntity
  8
s005-#def-solid-edge
  6
CONTINUOUS
 62
    7
420
    0
370
   50
100
AcDbVertex
100
AcDb2dVertex
 10
31.75885628883583
 20
-147.0112268825021
 30
0
  0
VERTEX
  5
197
100
AcDbEntity
  8
s005-#def-solid-edge
  6
CONTINUOUS
 62
    7
420
    0
370
   50
100
AcDbVertex
100
AcDb2dVertex
 10
31.85057630607591
 20
-147.06457894191
 30
0
  0
VERTEX
  5
198
100
AcDbEntity
  8
s005-#def-solid-edge
  6
CONTINUOUS
 62
    7
420
    0
370
   50
100
AcDbVertex
100
AcDb2dVertex
 10
31.95148926142784
 20
-147.0973749667868
 30
0
  0
VERTEX
  5
199
100
AcDbEntity
  8
s005-#def-solid-edge
  6
CONTINUOUS
 62
    7
420
    0
370
   50
100
AcDbVertex
100
AcDb2dVertex
 10
32.05470045130782
 20
-147.1081434773224
 30
0
  0
VERTEX
  5
19A
100
AcDbEntity
  8
s005-#def-solid-edge
  6
CONTINUOUS
 62
    7
420
    0
370
   50
100
AcDbVertex
100
AcDb2dVertex
 10
50.93666646255782
 20
-147.1081434773224
 30
0
  0
SEQEND
  5
19B
100
AcDbEntity
  8
s005-#def-solid-edge
  6
CONTINUOUS
 62
    7
420
    0
370
   50
  0
POLYLINE
  5
19C
100
AcDbEntity
  8
s005-#def-solid-edge
  6
CONTINUOUS
 62
    7
420
    0
370
   50
100
AcDb2dPolyline
 10
0
 20
0
 30
0
 70
    0
  0
VERTEX
  5
19D
100
AcDbEntity
  8
s005-#def-solid-edge
  6
CONTINUOUS
 62
    7
420
    0
370
   50
100
AcDbVertex
100
AcDb2dVertex
 10
-88.87459642317705
 20
-150.4081434773224
 30
0
  0
VERTEX
  5
19E
100
AcDbEntity
  8
s005-#def-solid-edge
  6
CONTINUOUS
 62
    7
420
    0
370
   50
100
AcDbVertex
100
AcDb2dVertex
 10
-107.7565624344271
 20
-150.4081434773224
 30
0
  0
VERTEX
  5
19F
100
AcDbEntity
  8
s005-#def-solid-edge
  6
CONTINUOUS
 62
    7
420
    0
370
   50
100
AcDbVertex
100
AcDb2dVertex
 10
-107.8597736243071
 20
-150.418911987858
 30
0
  0
VERTEX
  5
1A0
100
AcDbEntity
  8
s005-#def-solid-edge
  6
CONTINUOUS
 62
    7
420
    0
370
   50
100
AcDbVertex
100
AcDb2dVertex
 10
-107.9606865796591
 20
-150.4517080127347
 30
0
  0
VERTEX
  5
1A1
100
AcDbEntity
  8
s005-#def-solid-edge
  6
CONTINUOUS
 62
    7
420
    0
370
   50
100
AcDbVertex
100
AcDb2dVertex
 10
-108.0524065968991
 20
-150.5050600721427
 30
0
  0
VERTEX
  5
1A2
100
AcDbEntity
  8
s005-#def-solid-edge
  6
CONTINUOUS
 62
    7
420
    0
370
   50
100
AcDbVertex
100
AcDb2dVertex
 10
-108.1292404306771
 20
-150.574810143989
 30
0
  0
VERTEX
  5
1A3
100
AcDbEntity
  8
s005-#def-solid-edge
  6
CONTINUOUS
 62
    7
420
    0
370
   50
100
AcDbVertex
100
AcDb2dVertex
 10
-108.1796074091018
 20
-150.6179329190458
 30
0
  0
VERTEX
  5
1A4
100
AcDbEntity
  8
s005-#def-solid-edge
  6
CONTINUOUS
 62
    7
420
    0
370
   50
100
AcDbVertex
100
AcDb2dVertex
 10
-108.241959019269
 20
-150.6470577617429
 30
0
  0
VERTEX
  5
1A5
100
AcDbEntity
  8
s005-#def-solid-edge
  6
CONTINUOUS
 62
    7
420
    0
370
   50
100
AcDbVertex
100
AcDb2dVertex
 10
-108.309889265739
 20
-150.6580787130222
 30
0
  0
VERTEX
  5
1A6
100
AcDbEntity
  8
s005-#def-solid-edge
  6
CONTINUOUS
 62
    7
420
    0
370
   50
100
AcDbVertex
100
AcDb2dVertex
 10
-108.375792175116
 20
-150.6507840039896
 30
0
  0
VERTEX
  5
1A7
100
AcDbEntity
  8
s005-#def-solid-edge
  6
CONTINUOUS
 62
    7
420
    0
370
   50
100
AcDbVertex
100
AcDb2dVertex
 10
-108.4374595694044
 20
-150.6264213537249
 30
0
  0
VERTEX
  5
1A8
100
AcDbEntity
  8
s005-#def-solid-edge
  6
CONTINUOUS
 62
    7
420
    0
370
   50
100
AcDbVertex
100
AcDb2dVertex
 10
-108.4923561240987
 20
-150.584920172619
 30
0
  0
VERTEX
  5
1A9
100
AcDbEntity
  8
s005-#def-solid-edge
  6
CONTINUOUS
 62
    7
420
    0
370
   50
100
AcDbVertex
100
AcDb2dVertex
 10
-108.533857305212
 20
-150.5300236179113
 30
0
  0
VERTEX
  5
1AA
100
AcDbEntity
  8
s005-#def-solid-edge
  6
CONTINUOUS
 62
    7
420
    0
370
   50
100
AcDbVertex
100
AcDb2dVertex
 10
-108.5582199554693
 20
-150.4683562236363
 30
0
  0
VERTEX
  5
1AB
100
AcDbEntity
  8
s005-#def-solid-edge
  6
CONTINUOUS
 62
    7
420
    0
370
   50
100
AcDbVertex
100
AcDb2dVertex
 10
-108.5655146645018
 20
-150.4024533142593
 30
0
  0
VERTEX
  5
1AC
100
AcDbEntity
  8
s005-#def-solid-edge
  6
CONTINUOUS
 62
    7
420
    0
370
   50
100
AcDbVertex
100
AcDb2dVertex
 10
-108.5544937132226
 20
-150.3345230677893
 30
0
  0
VERTEX
  5
1AD
100
AcDbEntity
  8
s005-#def-solid-edge
  6
CONTINUOUS
 62
    7
420
    0
370
   50
100
AcDbVertex
100
AcDb2dVertex
 10
-108.5253688705255
 20
-150.2721714576221
 30
0
  0
VERTEX
  5
1AE
100
AcDbEntity
  8
s005-#def-solid-edge
  6
CONTINUOUS
 62
    7
420
    0
370
   50
100
AcDbVertex
100
AcDb2dVertex
 10
-108.4822460954688
 20
-150.2218044791974
 30
0
  0
VERTEX
  5
1AF
100
AcDbEntity
  8
s005-#def-solid-edge
  6
CONTINUOUS
 62
    7
420
    0
370
   50
100
AcDbVertex
100
AcDb2dVertex
 10
-108.4124960236224
 20
-150.1449706454194
 30
0
  0
VERTEX
  5
1B0
100
AcDbEntity
  8
s005-#def-solid-edge
  6
CONTINUOUS
 62
    7
420
    0
370
   50
100
AcDbVertex
100
AcDb2dVertex
 10
-108.3591439642145
 20
-150.0532506281794
 30
0
  0
VERTEX
  5
1B1
100
AcDbEntity
  8
s005-#def-solid-edge
  6
CONTINUOUS
 62
    7
420
    0
370
   50
100
AcDbVertex
100
AcDb2dVertex
 10
-108.3263479393377
 20
-149.9523376728274
 30
0
  0
VERTEX
  5
1B2
100
AcDbEntity
  8
s005-#def-solid-edge
  6
CONTINUOUS
 62
    7
420
    0
370
   50
100
AcDbVertex
100
AcDb2dVertex
 10
-108.3155794288021
 20
-149.8491264829474
 30
0
  0
VERTEX
  5
1B3
100
AcDbEntity
  8
s005-#def-solid-edge
  6
CONTINUOUS
 62
    7
420
    0
370
   50
100
AcDbVertex
100
AcDb2dVertex
 10
-108.3155794288021
 20
-147.6671604716973
 30
0
  0
VERTEX
  5
1B4
100
AcDbEntity
  8
s005-#def-solid-edge
  6
CONTINUOUS
 62
    7
420
    0
370
   50
100
AcDbVertex
100
AcDb2dVertex
 10
-108.3263479393377
 20
-147.5639492818174
 30
0
  0
VERTEX
  5
1B5
100
AcDbEntity
  8
s005-#def-solid-edge
  6
CONTINUOUS
 62
    7
420
    0
370
   50
100
AcDbVertex
100
AcDb2dVertex
 10
-108.3591439642144
 20
-147.4630363264654
 30
0
  0
VERTEX
  5
1B6
100
AcDbEntity
  8
s005-#def-solid-edge
  6
CONTINUOUS
 62
    7
420
    0
370
   50
100
AcDbVertex
100
AcDb2dVertex
 10
-108.4124960236224
 20
-147.3713163092253
 30
0
  0
VERTEX
  5
1B7
100
AcDbEntity
  8
s005-#def-solid-edge
  6
CONTINUOUS
 62
    7
420
    0
370
   50
100
AcDbVertex
100
AcDb2dVertex
 10
-108.4822460954688
 20
-147.2944824754474
 30
0
  0
VERTEX
  5
1B8
100
AcDbEntity
  8
s005-#def-solid-edge
  6
CONTINUOUS
 62
    7
420
    0
370
   50
100
AcDbVertex
100
AcDb2dVertex
 10
-108.5253688705338
 20
-147.2441154970099
 30
0
  0
VERTEX
  5
1B9
100
AcDbEntity
  8
s005-#def-solid-edge
  6
CONTINUOUS
 62
    7
420
    0
370
   50
100
AcDbVertex
100
AcDb2dVertex
 10
-108.5544937132227
 20
-147.1817638868555
 30
0
  0
VERTEX
  5
1BA
100
AcDbEntity
  8
s005-#def-solid-edge
  6
CONTINUOUS
 62
    7
420
    0
370
   50
100
AcDbVertex
100
AcDb2dVertex
 10
-108.5655146645019
 20
-147.1138336403855
 30
0
  0
VERTEX
  5
1BB
100
AcDbEntity
  8
s005-#def-solid-edge
  6
CONTINUOUS
 62
    7
420
    0
370
   50
100
AcDbVertex
100
AcDb2dVertex
 10
-108.5582199554693
 20
-147.0479307310085
 30
0
  0
VERTEX
  5
1BC
100
AcDbEntity
  8
s005-#def-solid-edge
  6
CONTINUOUS
 62
    7
420
    0
370
   50
100
AcDbVertex
100
AcDb2dVertex
 10
-108.5338573052046
 20
-146.9862633367201
 30
0
  0
VERTEX
  5
1BD
100
AcDbEntity
  8
s005-#def-solid-edge
  6
CONTINUOUS
 62
    7
420
    0
370
   50
100
AcDbVertex
100
AcDb2dVertex
 10
-108.4923561240987
 20
-146.9313667820257
 30
0
  0
VERTEX
  5
1BE
100
AcDbEntity
  8
s005-#def-solid-edge
  6
CONTINUOUS
 62
    7
420
    0
370
   50
100
AcDbVertex
100
AcDb2dVertex
 10
-108.4374595693911
 20
-146.8898656009125
 30
0
  0
VERTEX
  5
1BF
100
AcDbEntity
  8
s005-#def-solid-edge
  6
CONTINUOUS
 62
    7
420
    0
370
   50
100
AcDbVertex
100
AcDb2dVertex
 10
-108.375792175116
 20
-146.8655029506552
 30
0
  0
VERTEX
  5
1C0
100
AcDbEntity
  8
s005-#def-solid-edge
  6
CONTINUOUS
 62
    7
420
    0
370
   50
100
AcDbVertex
100
AcDb2dVertex
 10
-108.309889265739
 20
-146.8582082416226
 30
0
  0
VERTEX
  5
1C1
100
AcDbEntity
  8
s005-#def-solid-edge
  6
CONTINUOUS
 62
    7
420
    0
370
   50
100
AcDbVertex
100
AcDb2dVertex
 10
-108.241959019269
 20
-146.8692291929018
 30
0
  0
VERTEX
  5
1C2
100
AcDbEntity
  8
s005-#def-solid-edge
  6
CONTINUOUS
 62
    7
420
    0
370
   50
100
AcDbVertex
100
AcDb2dVertex
 10
-108.1796074091018
 20
-146.898354035599
 30
0
  0
VERTEX
  5
1C3
100
AcDbEntity
  8
s005-#def-solid-edge
  6
CONTINUOUS
 62
    7
420
    0
370
   50
100
AcDbVertex
100
AcDb2dVertex
 10
-108.1292404306771
 20
-146.9414768106557
 30
0
  0
VERTEX
  5
1C4
100
AcDbEntity
  8
s005-#def-solid-edge
  6
CONTINUOUS
 62
    7
420
    0
370
   50
100
AcDbVertex
100
AcDb2dVertex
 10
-108.0524065968992
 20
-147.0112268825021
 30
0
  0
VERTEX
  5
1C5
100
AcDbEntity
  8
s005-#def-solid-edge
  6
CONTINUOUS
 62
    7
420
    0
370
   50
100
AcDbVertex
100
AcDb2dVertex
 10
-107.9606865796591
 20
-147.06457894191
 30
0
  0
VERTEX
  5
1C6
100
AcDbEntity
  8
s005-#def-solid-edge
  6
CONTINUOUS
 62
    7
420
    0
370
   50
100
AcDbVertex
100
AcDb2dVertex
 10
-107.8597736243071
 20
-147.0973749667868
 30
0
  0
VERTEX
  5
1C7
100
AcDbEntity
  8
s005-#def-solid-edge
  6
CONTINUOUS
 62
    7
420
    0
370
   50
100
AcDbVertex
100
AcDb2dVertex
 10
-107.7565624344271
 20
-147.1081434773224
 30
0
  0
VERTEX
  5
1C8
100
AcDbEntity
  8
s005-#def-solid-edge
  6
CONTINUOUS
 62
    7
420
    0
370
   50
100
AcDbVertex
100
AcDb2dVertex
 10
-88.87459642317708
 20
-147.1081434773224
 30
0
  0
VERTEX
  5
1C9
100
AcDbEntity
  8
s005-#def-solid-edge
  6
CONTINUOUS
 62
    7
420
    0
370
   50
100
AcDbVertex
100
AcDb2dVertex
 10
-88.77138523329711
 20
-147.0973749667868
 30
0
  0
VERTEX
  5
1CA
100
AcDbEntity
  8
s005-#def-solid-edge
  6
CONTINUOUS
 62
    7
420
    0
370
   50
100
AcDbVertex
100
AcDb2dVertex
 10
-88.67047227794514
 20
-147.06457894191
 30
0
  0
VERTEX
  5
1CB
100
AcDbEntity
  8
s005-#def-solid-edge
  6
CONTINUOUS
 62
    7
420
    0
370
   50
100
AcDbVertex
100
AcDb2dVertex
 10
-88.57875226070507
 20
-147.0112268825021
 30
0
  0
VERTEX
  5
1CC
100
AcDbEntity
  8
s005-#def-solid-edge
  6
CONTINUOUS
 62
    7
420
    0
370
   50
100
AcDbVertex
100
AcDb2dVertex
 10
-88.50191842692709
 20
-146.9414768106557
 30
0
  0
VERTEX
  5
1CD
100
AcDbEntity
  8
s005-#def-solid-edge
  6
CONTINUOUS
 62
    7
420
    0
370
   50
100
AcDbVertex
100
AcDb2dVertex
 10
-88.4515514485024
 20
-146.898354035599
 30
0
  0
VERTEX
  5
1CE
100
AcDbEntity
  8
s005-#def-solid-edge
  6
CONTINUOUS
 62
    7
420
    0
370
   50
100
AcDbVertex
100
AcDb2dVertex
 10
-88.38919983833526
 20
-146.8692291929019
 30
0
  0
VERTEX
  5
1CF
100
AcDbEntity
  8
s005-#def-solid-edge
  6
CONTINUOUS
 62
    7
420
    0
370
   50
100
AcDbVertex
100
AcDb2dVertex
 10
-88.32126959186525
 20
-146.8582082416226
 30
0
  0
VERTEX
  5
1D0
100
AcDbEntity
  8
s005-#def-solid-edge
  6
CONTINUOUS
 62
    7
420
    0
370
   50
100
AcDbVertex
100
AcDb2dVertex
 10
-88.25536668248817
 20
-146.8655029506552
 30
0
  0
VERTEX
  5
1D1
100
AcDbEntity
  8
s005-#def-solid-edge
  6
CONTINUOUS
 62
    7
420
    0
370
   50
100
AcDbVertex
100
AcDb2dVertex
 10
-88.19369928821317
 20
-146.8898656009125
 30
0
  0
VERTEX
  5
1D2
100
AcDbEntity
  8
s005-#def-solid-edge
  6
CONTINUOUS
 62
    7
420
    0
370
   50
100
AcDbVertex
100
AcDb2dVertex
 10
-88.13880273350544
 20
-146.9313667820257
 30
0
  0
VERTEX
  5
1D3
100
AcDbEntity
  8
s005-#def-solid-edge
  6
CONTINUOUS
 62
    7
420
    0
370
   50
100
AcDbVertex
100
AcDb2dVertex
 10
-88.0973015523922
 20
-146.9862633367335
 30
0
  0
VERTEX
  5
1D4
100
AcDbEntity
  8
s005-#def-solid-edge
  6
CONTINUOUS
 62
    7
420
    0
370
   50
100
AcDbVertex
100
AcDb2dVertex
 10
-88.07293890213489
 20
-147.0479307310085
 30
0
  0
VERTEX
  5
1D5
100
AcDbEntity
  8
s005-#def-solid-edge
  6
CONTINUOUS
 62
    7
420
    0
370
   50
100
AcDbVertex
100
AcDb2dVertex
 10
-88.0656441931023
 20
-147.1138336403855
 30
0
  0
VERTEX
  5
1D6
100
AcDbEntity
  8
s005-#def-solid-edge
  6
CONTINUOUS
 62
    7
420
    0
370
   50
100
AcDbVertex
100
AcDb2dVertex
 10
-88.07666514438156
 20
-147.1817638868555
 30
0
  0
VERTEX
  5
1D7
100
AcDbEntity
  8
s005-#def-solid-edge
  6
CONTINUOUS
 62
    7
420
    0
370
   50
100
AcDbVertex
100
AcDb2dVertex
 10
-88.10578998707867
 20
-147.2441154970226
 30
0
  0
VERTEX
  5
1D8
100
AcDbEntity
  8
s005-#def-solid-edge
  6
CONTINUOUS
 62
    7
420
    0
370
   50
100
AcDbVertex
100
AcDb2dVertex
 10
-88.14891276213544
 20
-147.2944824754474
 30
0
  0
VERTEX
  5
1D9
100
AcDbEntity
  8
s005-#def-solid-edge
  6
CONTINUOUS
 62
    7
420
    0
370
   50
100
AcDbVertex
100
AcDb2dVertex
 10
-88.21866283398175
 20
-147.3713163092253
 30
0
  0
VERTEX
  5
1DA
100
AcDbEntity
  8
s005-#def-solid-edge
  6
CONTINUOUS
 62
    7
420
    0
370
   50
100
AcDbVertex
100
AcDb2dVertex
 10
-88.27201489338975
 20
-147.4630363264654
 30
0
  0
VERTEX
  5
1DB
100
AcDbEntity
  8
s005-#def-solid-edge
  6
CONTINUOUS
 62
    7
420
    0
370
   50
100
AcDbVertex
100
AcDb2dVertex
 10
-88.30481091826651
 20
-147.5639492818174
 30
0
  0
VERTEX
  5
1DC
100
AcDbEntity
  8
s005-#def-solid-edge
  6
CONTINUOUS
 62
    7
420
    0
370
   50
100
AcDbVertex
100
AcDb2dVertex
 10
-88.31557942880208
 20
-147.6671604716973
 30
0
  0
VERTEX
  5
1DD
100
AcDbEntity
  8
s005-#def-solid-edge
  6
CONTINUOUS
 62
    7
420
    0
370
   50
100
AcDbVertex
100
AcDb2dVertex
 10
-88.31557942880208
 20
-149.8491264829474
 30
0
  0
VERTEX
  5
1DE
100
AcDbEntity
  8
s005-#def-solid-edge
  6
CONTINUOUS
 62
    7
420
    0
370
   50
100
AcDbVertex
100
AcDb2dVertex
 10
-88.30481091826638
 20
-149.952337672828
 30
0
  0
VERTEX
  5
1DF
100
AcDbEntity
  8
s005-#def-solid-edge
  6
CONTINUOUS
 62
    7
420
    0
370
   50
100
AcDbVertex
100
AcDb2dVertex
 10
-88.27201489338974
 20
-150.0532506281794
 30
0
  0
VERTEX
  5
1E0
100
AcDbEntity
  8
s005-#def-solid-edge
  6
CONTINUOUS
 62
    7
420
    0
370
   50
100
AcDbVertex
100
AcDb2dVertex
 10
-88.21866283398178
 20
-150.1449706454194
 30
0
  0
VERTEX
  5
1E1
100
AcDbEntity
  8
s005-#def-solid-edge
  6
CONTINUOUS
 62
    7
420
    0
370
   50
100
AcDbVertex
100
AcDb2dVertex
 10
-88.14891276213544
 20
-150.2218044791974
 30
0
  0
VERTEX
  5
1E2
100
AcDbEntity
  8
s005-#def-solid-edge
  6
CONTINUOUS
 62
    7
420
    0
370
   50
100
AcDbVertex
100
AcDb2dVertex
 10
-88.10578998707038
 20
-150.2721714576349
 30
0
  0
VERTEX
  5
1E3
100
AcDbEntity
  8
s005-#def-solid-edge
  6
CONTINUOUS
 62
    7
420
    0
370
   50
100
AcDbVertex
100
AcDb2dVertex
 10
-88.07666514438156
 20
-150.3345230677893
 30
0
  0
VERTEX
  5
1E4
100
AcDbEntity
  8
s005-#def-solid-edge
  6
CONTINUOUS
 62
    7
420
    0
370
   50
100
AcDbVertex
100
AcDb2dVertex
 10
-88.06564419310232
 20
-150.4024533142593
 30
0
  0
VERTEX
  5
1E5
100
AcDbEntity
  8
s005-#def-solid-edge
  6
CONTINUOUS
 62
    7
420
    0
370
   50
100
AcDbVertex
100
AcDb2dVertex
 10
-88.07293890213489
 20
-150.4683562236363
 30
0
  0
VERTEX
  5
1E6
100
AcDbEntity
  8
s005-#def-solid-edge
  6
CONTINUOUS
 62
    7
420
    0
370
   50
100
AcDbVertex
100
AcDb2dVertex
 10
-88.09730155239214
 20
-150.5300236179113
 30
0
  0
VERTEX
  5
1E7
100
AcDbEntity
  8
s005-#def-solid-edge
  6
CONTINUOUS
 62
    7
420
    0
370
   50
100
AcDbVertex
100
AcDb2dVertex
 10
-88.13880273350546
 20
-150.584920172619
 30
0
  0
VERTEX
  5
1E8
100
AcDbEntity
  8
s005-#def-solid-edge
  6
CONTINUOUS
 62
    7
420
    0
370
   50
100
AcDbVertex
100
AcDb2dVertex
 10
-88.19369928821318
 20
-150.6264213537323
 30
0
  0
VERTEX
  5
1E9
100
AcDbEntity
  8
s005-#def-solid-edge
  6
CONTINUOUS
 62
    7
420
    0
370
   50
100
AcDbVertex
100
AcDb2dVertex
 10
-88.25536668248814
 20
-150.6507840039896
 30
0
  0
VERTEX
  5
1EA
100
AcDbEntity
  8
s005-#def-solid-edge
  6
CONTINUOUS
 62
    7
420
    0
370
   50
100
AcDbVertex
100
AcDb2dVertex
 10
-88.3212695918652
 20
-150.6580787130222
 30
0
  0
VERTEX
  5
1EB
100
AcDbEntity
  8
s005-#def-solid-edge
  6
CONTINUOUS
 62
    7
420
    0
370
   50
100
AcDbVertex
100
AcDb2dVertex
 10
-88.38919983833523
 20
-150.6470577617429
 30
0
  0
VERTEX
  5
1EC
100
AcDbEntity
  8
s005-#def-solid-edge
  6
CONTINUOUS
 62
    7
420
    0
370
   50
100
AcDbVertex
100
AcDb2dVertex
 10
-88.45155144850236
 20
-150.6179329190458
 30
0
  0
VERTEX
  5
1ED
100
AcDbEntity
  8
s005-#def-solid-edge
  6
CONTINUOUS
 62
    7
420
    0
370
   50
100
AcDbVertex
100
AcDb2dVertex
 10
-88.50191842692709
 20
-150.5748101439891
 30
0
  0
VERTEX
  5
1EE
100
AcDbEntity
  8
s005-#def-solid-edge
  6
CONTINUOUS
 62
    7
420
    0
370
   50
100
AcDbVertex
100
AcDb2dVertex
 10
-88.57875226070553
 20
-150.5050600721424
 30
0
  0
VERTEX
  5
1EF
100
AcDbEntity
  8
s005-#def-solid-edge
  6
CONTINUOUS
 62
    7
420
    0
370
   50
100
AcDbVertex
100
AcDb2dVertex
 10
-88.67047227794509
 20
-150.4517080127348
 30
0
  0
VERTEX
  5
1F0
100
AcDbEntity
  8
s005-#def-solid-edge
  6
CONTINUOUS
 62
    7
420
    0
370
   50
100
AcDbVertex
100
AcDb2dVertex
 10
-88.77138523329711
 20
-150.418911987858
 30
0
  0
VERTEX
  5
1F1
100
AcDbEntity
  8
s005-#def-solid-edge
  6
CONTINUOUS
 62
    7
420
    0
370
   50
100
AcDbVertex
100
AcDb2dVertex
 10
-88.87459642317705
 20
-150.4081434773224
 30
0
  0
SEQEND
  5
1F2
100
AcDbEntity
  8
s005-#def-solid-edge
  6
CONTINUOUS
 62
    7
420
    0
370
   50
  0
POLYLINE
  5
1F3
100
AcDbEntity
  8
s005-#def-solid-edge
  6
CONTINUOUS
 62
    7
420
    0
370
   50
100
AcDb2dPolyline
 10
0
 20
0
 30
0
 70
    0
  0
VERTEX
  5
1F4
100
AcDbEntity
  8
s005-#def-solid-edge
  6
CONTINUOUS
 62
    7
420
    0
370
   50
100
AcDbVertex
100
AcDb2dVertex
 10
-228.685859308912
 20
-150.4081434773224
 30
0
  0
VERTEX
  5
1F5
100
AcDbEntity
  8
s005-#def-solid-edge
  6
CONTINUOUS
 62
    7
420
    0
370
   50
100
AcDbVertex
100
AcDb2dVertex
 10
-247.5678253201621
 20
-150.4081434773224
 30
0
  0
VERTEX
  5
1F6
100
AcDbEntity
  8
s005-#def-solid-edge
  6
CONTINUOUS
 62
    7
420
    0
370
   50
100
AcDbVertex
100
AcDb2dVertex
 10
-247.671036510042
 20
-150.418911987858
 30
0
  0
VERTEX
  5
1F7
100
AcDbEntity
  8
s005-#def-solid-edge
  6
CONTINUOUS
 62
    7
420
    0
370
   50
100
AcDbVertex
100
AcDb2dVertex
 10
-247.771949465394
 20
-150.4517080127347
 30
0
  0
VERTEX
  5
1F8
100
AcDbEntity
  8
s005-#def-solid-edge
  6
CONTINUOUS
 62
    7
420
    0
370
   50
100
AcDbVertex
100
AcDb2dVertex
 10
-247.863669482634
 20
-150.5050600721427
 30
0
  0
VERTEX
  5
1F9
100
AcDbEntity
  8
s005-#def-solid-edge
  6
CONTINUOUS
 62
    7
420
    0
370
   50
100
AcDbVertex
100
AcDb2dVertex
 10
-247.940503316412
 20
-150.5748101439891
 30
0
  0
VERTEX
  5
1FA
100
AcDbEntity
  8
s005-#def-solid-edge
  6
CONTINUOUS
 62
    7
420
    0
370
   50
100
AcDbVertex
100
AcDb2dVertex
 10
-247.9908702948367
 20
-150.6179329190458
 30
0
  0
VERTEX
  5
1FB
100
AcDbEntity
  8
s005-#def-solid-edge
  6
CONTINUOUS
 62
    7
420
    0
370
   50
100
AcDbVertex
100
AcDb2dVertex
 10
-248.053221905004
 20
-150.6470577617429
 30
0
  0
VERTEX
  5
1FC
100
AcDbEntity
  8
s005-#def-solid-edge
  6
CONTINUOUS
 62
    7
420
    0
370
   50
100
AcDbVertex
100
AcDb2dVertex
 10
-248.1211521514739
 20
-150.6580787130222
 30
0
  0
VERTEX
  5
1FD
100
AcDbEntity
  8
s005-#def-solid-edge
  6
CONTINUOUS
 62
    7
420
    0
370
   50
100
AcDbVertex
100
AcDb2dVertex
 10
-248.1870550608509
 20
-150.6507840039896
 30
0
  0
VERTEX
  5
1FE
100
AcDbEntity
  8
s005-#def-solid-edge
  6
CONTINUOUS
 62
    7
420
    0
370
   50
100
AcDbVertex
100
AcDb2dVertex
 10
-248.2487224551393
 20
-150.6264213537249
 30
0
  0
VERTEX
  5
1FF
100
AcDbEntity
  8
s005-#def-solid-edge
  6
CONTINUOUS
 62
    7
420
    0
370
   50
100
AcDbVertex
100
AcDb2dVertex
 10
-248.3036190098337
 20
-150.584920172619
 30
0
  0
VERTEX
  5
200
100
AcDbEntity
  8
s005-#def-solid-edge
  6
CONTINUOUS
 62
    7
420
    0
370
   50
100
AcDbVertex
100
AcDb2dVertex
 10
-248.3451201909469
 20
-150.5300236179113
 30
0
  0
VERTEX
  5
201
100
AcDbEntity
  8
s005-#def-solid-edge
  6
CONTINUOUS
 62
    7
420
    0
370
   50
100
AcDbVertex
100
AcDb2dVertex
 10
-248.3694828412042
 20
-150.4683562236363
 30
0
  0
VERTEX
  5
202
100
AcDbEntity
  8
s005-#def-solid-edge
  6
CONTINUOUS
 62
    7
420
    0
370
   50
100
AcDbVertex
100
AcDb2dVertex
 10
-248.3767775502365
 20
-150.402453314244
 30
0
  0
VERTEX
  5
203
100
AcDbEntity
  8
s005-#def-solid-edge
  6
CONTINUOUS
 62
    7
420
    0
370
   50
100
AcDbVertex
100
AcDb2dVertex
 10
-248.3657565989575
 20
-150.3345230677893
 30
0
  0
VERTEX
  5
204
100
AcDbEntity
  8
s005-#def-solid-edge
  6
CONTINUOUS
 62
    7
420
    0
370
   50
100
AcDbVertex
100
AcDb2dVertex
 10
-248.3366317562604
 20
-150.2721714576221
 30
0
  0
VERTEX
  5
205
100
AcDbEntity
  8
s005-#def-solid-edge
  6
CONTINUOUS
 62
    7
420
    0
370
   50
100
AcDbVertex
100
AcDb2dVertex
 10
-248.2935089812037
 20
-150.2218044791974
 30
0
  0
VERTEX
  5
206
100
AcDbEntity
  8
s005-#def-solid-edge
  6
CONTINUOUS
 62
    7
420
    0
370
   50
100
AcDbVertex
100
AcDb2dVertex
 10
-248.223758909357
 20
-150.1449706454189
 30
0
  0
VERTEX
  5
207
100
AcDbEntity
  8
s005-#def-solid-edge
  6
CONTINUOUS
 62
    7
420
    0
370
   50
100
AcDbVertex
100
AcDb2dVertex
 10
-248.1704068499493
 20
-150.0532506281793
 30
0
  0
VERTEX
  5
208
100
AcDbEntity
  8
s005-#def-solid-edge
  6
CONTINUOUS
 62
    7
420
    0
370
   50
100
AcDbVertex
100
AcDb2dVertex
 10
-248.1376108250726
 20
-149.9523376728274
 30
0
  0
VERTEX
  5
209
100
AcDbEntity
  8
s005-#def-solid-edge
  6
CONTINUOUS
 62
    7
420
    0
370
   50
100
AcDbVertex
100
AcDb2dVertex
 10
-248.126842314537
 20
-149.8491264829474
 30
0
  0
VERTEX
  5
20A
100
AcDbEntity
  8
s005-#def-solid-edge
  6
CONTINUOUS
 62
    7
420
    0
370
   50
100
AcDbVertex
100
AcDb2dVertex
 10
-248.126842314537
 20
-147.6671604716973
 30
0
  0
VERTEX
  5
20B
100
AcDbEntity
  8
s005-#def-solid-edge
  6
CONTINUOUS
 62
    7
420
    0
370
   50
100
AcDbVertex
100
AcDb2dVertex
 10
-248.1376108250726
 20
-147.5639492818174
 30
0
  0
VERTEX
  5
20C
100
AcDbEntity
  8
s005-#def-solid-edge
  6
CONTINUOUS
 62
    7
420
    0
370
   50
100
AcDbVertex
100
AcDb2dVertex
 10
-248.1704068499494
 20
-147.4630363264654
 30
0
  0
VERTEX
  5
20D
100
AcDbEntity
  8
s005-#def-solid-edge
  6
CONTINUOUS
 62
    7
420
    0
370
   50
100
AcDbVertex
100
AcDb2dVertex
 10
-248.2237589093573
 20
-147.3713163092253
 30
0
  0
VERTEX
  5
20E
100
AcDbEntity
  8
s005-#def-solid-edge
  6
CONTINUOUS
 62
    7
420
    0
370
   50
100
AcDbVertex
100
AcDb2dVertex
 10
-248.2935089812037
 20
-147.2944824754474
 30
0
  0
VERTEX
  5
20F
100
AcDbEntity
  8
s005-#def-solid-edge
  6
CONTINUOUS
 62
    7
420
    0
370
   50
100
AcDbVertex
100
AcDb2dVertex
 10
-248.3366317562604
 20
-147.2441154970227
 30
0
  0
VERTEX
  5
210
100
AcDbEntity
  8
s005-#def-solid-edge
  6
CONTINUOUS
 62
    7
420
    0
370
   50
100
AcDbVertex
100
AcDb2dVertex
 10
-248.3657565989576
 20
-147.1817638868555
 30
0
  0
VERTEX
  5
211
100
AcDbEntity
  8
s005-#def-solid-edge
  6
CONTINUOUS
 62
    7
420
    0
370
   50
100
AcDbVertex
100
AcDb2dVertex
 10
-248.3767775502368
 20
-147.1138336403855
 30
0
  0
VERTEX
  5
212
100
AcDbEntity
  8
s005-#def-solid-edge
  6
CONTINUOUS
 62
    7
420
    0
370
   50
100
AcDbVertex
100
AcDb2dVertex
 10
-248.3694828412042
 20
-147.0479307310084
 30
0
  0
VERTEX
  5
213
100
AcDbEntity
  8
s005-#def-solid-edge
  6
CONTINUOUS
 62
    7
420
    0
370
   50
100
AcDbVertex
100
AcDb2dVertex
 10
-248.3451201909469
 20
-146.9862633367335
 30
0
  0
VERTEX
  5
214
100
AcDbEntity
  8
s005-#def-solid-edge
  6
CONTINUOUS
 62
    7
420
    0
370
   50
100
AcDbVertex
100
AcDb2dVertex
 10
-248.3036190098337
 20
-146.9313667820257
 30
0
  0
VERTEX
  5
215
100
AcDbEntity
  8
s005-#def-solid-edge
  6
CONTINUOUS
 62
    7
420
    0
370
   50
100
AcDbVertex
100
AcDb2dVertex
 10
-248.2487224551259
 20
-146.8898656009125
 30
0
  0
VERTEX
  5
216
100
AcDbEntity
  8
s005-#def-solid-edge
  6
CONTINUOUS
 62
    7
420
    0
370
   50
100
AcDbVertex
100
AcDb2dVertex
 10
-248.1870550608509
 20
-146.8655029506552
 30
0
  0
VERTEX
  5
217
100
AcDbEntity
  8
s005-#def-solid-edge
  6
CONTINUOUS
 62
    7
420
    0
370
   50
100
AcDbVertex
100
AcDb2dVertex
 10
-248.1211521514739
 20
-146.8582082416226
 30
0
  0
VERTEX
  5
218
100
AcDbEntity
  8
s005-#def-solid-edge
  6
CONTINUOUS
 62
    7
420
    0
370
   50
100
AcDbVertex
100
AcDb2dVertex
 10
-248.0532219050039
 20
-146.8692291929018
 30
0
  0
VERTEX
  5
219
100
AcDbEntity
  8
s005-#def-solid-edge
  6
CONTINUOUS
 62
    7
420
    0
370
   50
100
AcDbVertex
100
AcDb2dVertex
 10
-247.9908702948367
 20
-146.898354035599
 30
0
  0
VERTEX
  5
21A
100
AcDbEntity
  8
s005-#def-solid-edge
  6
CONTINUOUS
 62
    7
420
    0
370
   50
100
AcDbVertex
100
AcDb2dVertex
 10
-247.940503316412
 20
-146.9414768106557
 30
0
  0
VERTEX
  5
21B
100
AcDbEntity
  8
s005-#def-solid-edge
  6
CONTINUOUS
 62
    7
420
    0
370
   50
100
AcDbVertex
100
AcDb2dVertex
 10
-247.8636694826341
 20
-147.0112268825021
 30
0
  0
VERTEX
  5
21C
100
AcDbEntity
  8
s005-#def-solid-edge
  6
CONTINUOUS
 62
    7
420
    0
370
   50
100
AcDbVertex
100
AcDb2dVertex
 10
-247.771949465394
 20
-147.06457894191
 30
0
  0
VERTEX
  5
21D
100
AcDbEntity
  8
s005-#def-solid-edge
  6
CONTINUOUS
 62
    7
420
    0
370
   50
100
AcDbVertex
100
AcDb2dVertex
 10
-247.671036510042
 20
-147.0973749667868
 30
0
  0
VERTEX
  5
21E
100
AcDbEntity
  8
s005-#def-solid-edge
  6
CONTINUOUS
 62
    7
420
    0
370
   50
100
AcDbVertex
100
AcDb2dVertex
 10
-247.5678253201621
 20
-147.1081434773224
 30
0
  0
VERTEX
  5
21F
100
AcDbEntity
  8
s005-#def-solid-edge
  6
CONTINUOUS
 62
    7
420
    0
370
   50
100
AcDbVertex
100
AcDb2dVertex
 10
-228.6858593089119
 20
-147.1081434773224
 30
0
  0
VERTEX
  5
220
100
AcDbEntity
  8
s005-#def-solid-edge
  6
CONTINUOUS
 62
    7
420
    0
370
   50
100
AcDbVertex
100
AcDb2dVertex
 10
-228.582648119032
 20
-147.0973749667868
 30
0
  0
VERTEX
  5
221
100
AcDbEntity
  8
s005-#def-solid-edge
  6
CONTINUOUS
 62
    7
420
    0
370
   50
100
AcDbVertex
100
AcDb2dVertex
 10
-228.4817351636801
 20
-147.06457894191
 30
0
  0
VERTEX
  5
222
100
AcDbEntity
  8
s005-#def-solid-edge
  6
CONTINUOUS
 62
    7
420
    0
370
   50
100
AcDbVertex
100
AcDb2dVertex
 10
-228.39001514644
 20
-147.0112268825021
 30
0
  0
VERTEX
  5
223
100
AcDbEntity
  8
s005-#def-solid-edge
  6
CONTINUOUS
 62
    7
420
    0
370
   50
100
AcDbVertex
100
AcDb2dVertex
 10
-228.313181312662
 20
-146.9414768106557
 30
0
  0
VERTEX
  5
224
100
AcDbEntity
  8
s005-#def-solid-edge
  6
CONTINUOUS
 62
    7
420
    0
370
   50
100
AcDbVertex
100
AcDb2dVertex
 10
-228.2628143342374
 20
-146.898354035599
 30
0
  0
VERTEX
  5
225
100
AcDbEntity
  8
s005-#def-solid-edge
  6
CONTINUOUS
 62
    7
420
    0
370
   50
100
AcDbVertex
100
AcDb2dVertex
 10
-228.2004627240701
 20
-146.8692291929019
 30
0
  0
VERTEX
  5
226
100
AcDbEntity
  8
s005-#def-solid-edge
  6
CONTINUOUS
 62
    7
420
    0
370
   50
100
AcDbVertex
100
AcDb2dVertex
 10
-228.1325324776001
 20
-146.8582082416226
 30
0
  0
VERTEX
  5
227
100
AcDbEntity
  8
s005-#def-solid-edge
  6
CONTINUOUS
 62
    7
420
    0
370
   50
100
AcDbVertex
100
AcDb2dVertex
 10
-228.0666295682231
 20
-146.8655029506552
 30
0
  0
VERTEX
  5
228
100
AcDbEntity
  8
s005-#def-solid-edge
  6
CONTINUOUS
 62
    7
420
    0
370
   50
100
AcDbVertex
100
AcDb2dVertex
 10
-228.0049621739481
 20
-146.8898656009125
 30
0
  0
VERTEX
  5
229
100
AcDbEntity
  8
s005-#def-solid-edge
  6
CONTINUOUS
 62
    7
420
    0
370
   50
100
AcDbVertex
100
AcDb2dVertex
 10
-227.9500656192404
 20
-146.9313667820257
 30
0
  0
VERTEX
  5
22A
100
AcDbEntity
  8
s005-#def-solid-edge
  6
CONTINUOUS
 62
    7
420
    0
370
   50
100
AcDbVertex
100
AcDb2dVertex
 10
-227.9085644381271
 20
-146.9862633367335
 30
0
  0
VERTEX
  5
22B
100
AcDbEntity
  8
s005-#def-solid-edge
  6
CONTINUOUS
 62
    7
420
    0
370
   50
100
AcDbVertex
100
AcDb2dVertex
 10
-227.8842017878698
 20
-147.0479307310085
 30
0
  0
VERTEX
  5
22C
100
AcDbEntity
  8
s005-#def-solid-edge
  6
CONTINUOUS
 62
    7
420
    0
370
   50
100
AcDbVertex
100
AcDb2dVertex
 10
-227.8769070788372
 20
-147.1138336403855
 30
0
  0
VERTEX
  5
22D
100
AcDbEntity
  8
s005-#def-solid-edge
  6
CONTINUOUS
 62
    7
420
    0
370
   50
100
AcDbVertex
100
AcDb2dVertex
 10
-227.8879280301165
 20
-147.1817638868555
 30
0
  0
VERTEX
  5
22E
100
AcDbEntity
  8
s005-#def-solid-edge
  6
CONTINUOUS
 62
    7
420
    0
370
   50
100
AcDbVertex
100
AcDb2dVertex
 10
-227.9170528728136
 20
-147.2441154970226
 30
0
  0
VERTEX
  5
22F
100
AcDbEntity
  8
s005-#def-solid-edge
  6
CONTINUOUS
 62
    7
420
    0
370
   50
100
AcDbVertex
100
AcDb2dVertex
 10
-227.9601756478704
 20
-147.2944824754474
 30
0
  0
VERTEX
  5
230
100
AcDbEntity
  8
s005-#def-solid-edge
  6
CONTINUOUS
 62
    7
420
    0
370
   50
100
AcDbVertex
100
AcDb2dVertex
 10
-228.0299257197167
 20
-147.3713163092253
 30
0
  0
VERTEX
  5
231
100
AcDbEntity
  8
s005-#def-solid-edge
  6
CONTINUOUS
 62
    7
420
    0
370
   50
100
AcDbVertex
100
AcDb2dVertex
 10
-228.0832777791246
 20
-147.4630363264654
 30
0
  0
VERTEX
  5
232
100
AcDbEntity
  8
s005-#def-solid-edge
  6
CONTINUOUS
 62
    7
420
    0
370
   50
100
AcDbVertex
100
AcDb2dVertex
 10
-228.1160738040014
 20
-147.5639492818174
 30
0
  0
VERTEX
  5
233
100
AcDbEntity
  8
s005-#def-solid-edge
  6
CONTINUOUS
 62
    7
420
    0
370
   50
100
AcDbVertex
100
AcDb2dVertex
 10
-228.126842314537
 20
-147.6671604716973
 30
0
  0
VERTEX
  5
234
100
AcDbEntity
  8
s005-#def-solid-edge
  6
CONTINUOUS
 62
    7
420
    0
370
   50
100
AcDbVertex
100
AcDb2dVertex
 10
-228.126842314537
 20
-149.8491264829474
 30
0
  0
VERTEX
  5
235
100
AcDbEntity
  8
s005-#def-solid-edge
  6
CONTINUOUS
 62
    7
420
    0
370
   50
100
AcDbVertex
100
AcDb2dVertex
 10
-228.1160738040014
 20
-149.9523376728274
 30
0
  0
VERTEX
  5
236
100
AcDbEntity
  8
s005-#def-solid-edge
  6
CONTINUOUS
 62
    7
420
    0
370
   50
100
AcDbVertex
100
AcDb2dVertex
 10
-228.0832777791246
 20
-150.0532506281794
 30
0
  0
VERTEX
  5
237
100
AcDbEntity
  8
s005-#def-solid-edge
  6
CONTINUOUS
 62
    7
420
    0
370
   50
100
AcDbVertex
100
AcDb2dVertex
 10
-228.0299257197167
 20
-150.1449706454194
 30
0
  0
VERTEX
  5
238
100
AcDbEntity
  8
s005-#def-solid-edge
  6
CONTINUOUS
 62
    7
420
    0
370
   50
100
AcDbVertex
100
AcDb2dVertex
 10
-227.9601756478704
 20
-150.2218044791974
 30
0
  0
VERTEX
  5
239
100
AcDbEntity
  8
s005-#def-solid-edge
  6
CONTINUOUS
 62
    7
420
    0
370
   50
100
AcDbVertex
100
AcDb2dVertex
 10
-227.9170528728136
 20
-150.2721714576221
 30
0
  0
VERTEX
  5
23A
100
AcDbEntity
  8
s005-#def-solid-edge
  6
CONTINUOUS
 62
    7
420
    0
370
   50
100
AcDbVertex
100
AcDb2dVertex
 10
-227.8879280301165
 20
-150.3345230677893
 30
0
  0
VERTEX
  5
23B
100
AcDbEntity
  8
s005-#def-solid-edge
  6
CONTINUOUS
 62
    7
420
    0
370
   50
100
AcDbVertex
100
AcDb2dVertex
 10
-227.8769070788372
 20
-150.4024533142593
 30
0
  0
VERTEX
  5
23C
100
AcDbEntity
  8
s005-#def-solid-edge
  6
CONTINUOUS
 62
    7
420
    0
370
   50
100
AcDbVertex
100
AcDb2dVertex
 10
-227.8842017878698
 20
-150.4683562236363
 30
0
  0
VERTEX
  5
23D
100
AcDbEntity
  8
s005-#def-solid-edge
  6
CONTINUOUS
 62
    7
420
    0
370
   50
100
AcDbVertex
100
AcDb2dVertex
 10
-227.9085644381271
 20
-150.5300236179113
 30
0
  0
VERTEX
  5
23E
100
AcDbEntity
  8
s005-#def-solid-edge
  6
CONTINUOUS
 62
    7
420
    0
370
   50
100
AcDbVertex
100
AcDb2dVertex
 10
-227.9500656192404
 20
-150.584920172619
 30
0
  0
VERTEX
  5
23F
100
AcDbEntity
  8
s005-#def-solid-edge
  6
CONTINUOUS
 62
    7
420
    0
370
   50
100
AcDbVertex
100
AcDb2dVertex
 10
-228.0049621739481
 20
-150.6264213537323
 30
0
  0
VERTEX
  5
240
100
AcDbEntity
  8
s005-#def-solid-edge
  6
CONTINUOUS
 62
    7
420
    0
370
   50
100
AcDbVertex
100
AcDb2dVertex
 10
-228.0666295682231
 20
-150.6507840039896
 30
0
  0
VERTEX
  5
241
100
AcDbEntity
  8
s005-#def-solid-edge
  6
CONTINUOUS
 62
    7
420
    0
370
   50
100
AcDbVertex
100
AcDb2dVertex
 10
-228.1325324776001
 20
-150.6580787130222
 30
0
  0
VERTEX
  5
242
100
AcDbEntity
  8
s005-#def-solid-edge
  6
CONTINUOUS
 62
    7
420
    0
370
   50
100
AcDbVertex
100
AcDb2dVertex
 10
-228.2004627240701
 20
-150.6470577617429
 30
0
  0
VERTEX
  5
243
100
AcDbEntity
  8
s005-#def-solid-edge
  6
CONTINUOUS
 62
    7
420
    0
370
   50
100
AcDbVertex
100
AcDb2dVertex
 10
-228.2628143342372
 20
-150.6179329190458
 30
0
  0
VERTEX
  5
244
100
AcDbEntity
  8
s005-#def-solid-edge
  6
CONTINUOUS
 62
    7
420
    0
370
   50
100
AcDbVertex
100
AcDb2dVertex
 10
-228.313181312662
 20
-150.5748101439891
 30
0
  0
VERTEX
  5
245
100
AcDbEntity
  8
s005-#def-solid-edge
  6
CONTINUOUS
 62
    7
420
    0
370
   50
100
AcDbVertex
100
AcDb2dVertex
 10
-228.3900151464399
 20
-150.5050600721427
 30
0
  0
VERTEX
  5
246
100
AcDbEntity
  8
s005-#def-solid-edge
  6
CONTINUOUS
 62
    7
420
    0
370
   50
100
AcDbVertex
100
AcDb2dVertex
 10
-228.48173516368
 20
-150.4517080127348
 30
0
  0
VERTEX
  5
247
100
AcDbEntity
  8
s005-#def-solid-edge
  6
CONTINUOUS
 62
    7
420
    0
370
   50
100
AcDbVertex
100
AcDb2dVertex
 10
-228.582648119032
 20
-150.418911987858
 30
0
  0
VERTEX
  5
248
100
AcDbEntity
  8
s005-#def-solid-edge
  6
CONTINUOUS
 62
    7
420
    0
370
   50
100
AcDbVertex
100
AcDb2dVertex
 10
-228.685859308912
 20
-150.4081434773224
 30
0
  0
SEQEND
  5
249
100
AcDbEntity
  8
s005-#def-solid-edge
  6
CONTINUOUS
 62
    7
420
    0
370
   50
  0
POLYLINE
  5
24A
100
AcDbEntity
  8
s005-#def-solid-edge
  6
CONTINUOUS
 62
    7
420
    0
370
   50
100
AcDb2dPolyline
 10
0
 20
0
 30
0
 70
    0
  0
VERTEX
  5
24B
100
AcDbEntity
  8
s005-#def-solid-edge
  6
CONTINUOUS
 62
    7
420
    0
370
   50
100
AcDbVertex
100
AcDb2dVertex
 10
137.4651813628535
 20
-112.0299303808082
 30
0
  0
VERTEX
  5
24C
100
AcDbEntity
  8
s005-#def-solid-edge
  6
CONTINUOUS
 62
    7
420
    0
370
   50
100
AcDbVertex
100
AcDb2dVertex
 10
137.623157685463
 20
-112.8581434773224
 30
0
  0
VERTEX
  5
24D
100
AcDbEntity
  8
s005-#def-solid-edge
  6
CONTINUOUS
 62
    7
420
    0
370
   50
100
AcDbVertex
100
AcDb2dVertex
 10
137.4651813628534
 20
-113.6863565738366
 30
0
  0
VERTEX
  5
24E
100
AcDbEntity
  8
s005-#def-solid-edge
  6
CONTINUOUS
 62
    7
420
    0
370
   50
100
AcDbVertex
100
AcDb2dVertex
 10
136.9641479431327
 20
-114.4491337349921
 30
0
  0
VERTEX
  5
24F
100
AcDbEntity
  8
s005-#def-solid-edge
  6
CONTINUOUS
 62
    7
420
    0
370
   50
100
AcDbVertex
100
AcDb2dVertex
 10
136.2013707821426
 20
-114.9501671546474
 30
0
  0
VERTEX
  5
250
100
AcDbEntity
  8
s005-#def-solid-edge
  6
CONTINUOUS
 62
    7
420
    0
370
   50
100
AcDbVertex
100
AcDb2dVertex
 10
135.373157685463
 20
-115.1081434773224
 30
0
  0
VERTEX
  5
251
100
AcDbEntity
  8
s005-#def-solid-edge
  6
CONTINUOUS
 62
    7
420
    0
370
   50
100
AcDbVertex
100
AcDb2dVertex
 10
134.5449445889487
 20
-114.9501671547129
 30
0
  0
VERTEX
  5
252
100
AcDbEntity
  8
s005-#def-solid-edge
  6
CONTINUOUS
 62
    7
420
    0
370
   50
100
AcDbVertex
100
AcDb2dVertex
 10
133.7821674277933
 20
-114.4491337349921
 30
0
  0
VERTEX
  5
253
100
AcDbEntity
  8
s005-#def-solid-edge
  6
CONTINUOUS
 62
    7
420
    0
370
   50
100
AcDbVertex
100
AcDb2dVertex
 10
133.2811340080725
 20
-113.6863565738366
 30
0
  0
VERTEX
  5
254
100
AcDbEntity
  8
s005-#def-solid-edge
  6
CONTINUOUS
 62
    7
420
    0
370
   50
100
AcDbVertex
100
AcDb2dVertex
 10
133.123157685463
 20
-112.8581434773224
 30
0
  0
VERTEX
  5
255
100
AcDbEntity
  8
s005-#def-solid-edge
  6
CONTINUOUS
 62
    7
420
    0
370
   50
100
AcDbVertex
100
AcDb2dVertex
 10
133.2811340080725
 20
-112.0299303808082
 30
0
  0
VERTEX
  5
256
100
AcDbEntity
  8
s005-#def-solid-edge
  6
CONTINUOUS
 62
    7
420
    0
370
   50
100
AcDbVertex
100
AcDb2dVertex
 10
133.7821674277933
 20
-111.2671532196527
 30
0
  0
VERTEX
  5
257
100
AcDbEntity
  8
s005-#def-solid-edge
  6
CONTINUOUS
 62
    7
420
    0
370
   50
100
AcDbVertex
100
AcDb2dVertex
 10
134.5449445889488
 20
-110.7661197999319
 30
0
  0
VERTEX
  5
258
100
AcDbEntity
  8
s005-#def-solid-edge
  6
CONTINUOUS
 62
    7
420
    0
370
   50
100
AcDbVertex
100
AcDb2dVertex
 10
135.373157685463
 20
-110.6081434773224
 30
0
  0
VERTEX
  5
259
100
AcDbEntity
  8
s005-#def-solid-edge
  6
CONTINUOUS
 62
    7
420
    0
370
   50
100
AcDbVertex
100
AcDb2dVertex
 10
136.2013707819772
 20
-110.7661197999319
 30
0
  0
VERTEX
  5
25A
100
AcDbEntity
  8
s005-#def-solid-edge
  6
CONTINUOUS
 62
    7
420
    0
370
   50
100
AcDbVertex
100
AcDb2dVertex
 10
136.9641479431327
 20
-111.2671532196527
 30
0
  0
VERTEX
  5
25B
100
AcDbEntity
  8
s005-#def-solid-edge
  6
CONTINUOUS
 62
    7
420
    0
370
   50
100
AcDbVertex
100
AcDb2dVertex
 10
137.4651813628535
 20
-112.0299303808082
 30
0
  0
SEQEND
  5
25C
100
AcDbEntity
  8
s005-#def-solid-edge
  6
CONTINUOUS
 62
    7
420
    0
370
   50
  0
POLYLINE
  5
25D
100
AcDbEntity
  8
s005-#def-solid-edge
  6
CONTINUOUS
 62
    7
420
    0
370
   50
100
AcDb2dPolyline
 10
0
 20
0
 30
0
 70
    0
  0
VERTEX
  5
25E
100
AcDbEntity
  8
s005-#def-solid-edge
  6
CONTINUOUS
 62
    7
420
    0
370
   50
100
AcDbVertex
100
AcDb2dVertex
 10
-285.626842314537
 20
-110.6081434773224
 30
0
  0
VERTEX
  5
25F
100
AcDbEntity
  8
s005-#def-solid-edge
  6
CONTINUOUS
 62
    7
420
    0
370
   50
100
AcDbVertex
100
AcDb2dVertex
 10
-284.7986292180228
 20
-110.7661197999319
 30
0
  0
VERTEX
  5
260
100
AcDbEntity
  8
s005-#def-solid-edge
  6
CONTINUOUS
 62
    7
420
    0
370
   50
100
AcDbVertex
100
AcDb2dVertex
 10
-284.0358520568673
 20
-111.2671532196527
 30
0
  0
VERTEX
  5
261
100
AcDbEntity
  8
s005-#def-solid-edge
  6
CONTINUOUS
 62
    7
420
    0
370
   50
100
AcDbVertex
100
AcDb2dVertex
 10
-283.5348186371466
 20
-112.0299303808082
 30
0
  0
VERTEX
  5
262
100
AcDbEntity
  8
s005-#def-solid-edge
  6
CONTINUOUS
 62
    7
420
    0
370
   50
100
AcDbVertex
100
AcDb2dVertex
 10
-283.376842314537
 20
-112.8581434773224
 30
0
  0
VERTEX
  5
263
100
AcDbEntity
  8
s005-#def-solid-edge
  6
CONTINUOUS
 62
    7
420
    0
370
   50
100
AcDbVertex
100
AcDb2dVertex
 10
-283.5348186371465
 20
-113.6863565738366
 30
0
  0
VERTEX
  5
264
100
AcDbEntity
  8
s005-#def-solid-edge
  6
CONTINUOUS
 62
    7
420
    0
370
   50
100
AcDbVertex
100
AcDb2dVertex
 10
-284.0358520568673
 20
-114.4491337349921
 30
0
  0
VERTEX
  5
265
100
AcDbEntity
  8
s005-#def-solid-edge
  6
CONTINUOUS
 62
    7
420
    0
370
   50
100
AcDbVertex
100
AcDb2dVertex
 10
-284.7986292180228
 20
-114.9501671547129
 30
0
  0
VERTEX
  5
266
100
AcDbEntity
  8
s005-#def-solid-edge
  6
CONTINUOUS
 62
    7
420
    0
370
   50
100
AcDbVertex
100
AcDb2dVertex
 10
-285.626842314537
 20
-115.1081434773224
 30
0
  0
VERTEX
  5
267
100
AcDbEntity
  8
s005-#def-solid-edge
  6
CONTINUOUS
 62
    7
420
    0
370
   50
100
AcDbVertex
100
AcDb2dVertex
 10
-286.4550554110513
 20
-114.9501671547129
 30
0
  0
VERTEX
  5
268
100
AcDbEntity
  8
s005-#def-solid-edge
  6
CONTINUOUS
 62
    7
420
    0
370
   50
100
AcDbVertex
100
AcDb2dVertex
 10
-287.2178325722068
 20
-114.4491337349921
 30
0
  0
VERTEX
  5
269
100
AcDbEntity
  8
s005-#def-solid-edge
  6
CONTINUOUS
 62
    7
420
    0
370
   50
100
AcDbVertex
100
AcDb2dVertex
 10
-287.718865991862
 20
-113.686356574002
 30
0
  0
VERTEX
  5
26A
100
AcDbEntity
  8
s005-#def-solid-edge
  6
CONTINUOUS
 62
    7
420
    0
370
   50
100
AcDbVertex
100
AcDb2dVertex
 10
-287.876842314537
 20
-112.8581434773224
 30
0
  0
VERTEX
  5
26B
100
AcDbEntity
  8
s005-#def-solid-edge
  6
CONTINUOUS
 62
    7
420
    0
370
   50
100
AcDbVertex
100
AcDb2dVertex
 10
-287.7188659919275
 20
-112.0299303808082
 30
0
  0
VERTEX
  5
26C
100
AcDbEntity
  8
s005-#def-solid-edge
  6
CONTINUOUS
 62
    7
420
    0
370
   50
100
AcDbVertex
100
AcDb2dVertex
 10
-287.2178325722068
 20
-111.2671532196527
 30
0
  0
VERTEX
  5
26D
100
AcDbEntity
  8
s005-#def-solid-edge
  6
CONTINUOUS
 62
    7
420
    0
370
   50
100
AcDbVertex
100
AcDb2dVertex
 10
-286.4550554112167
 20
-110.7661197999974
 30
0
  0
VERTEX
  5
26E
100
AcDbEntity
  8
s005-#def-solid-edge
  6
CONTINUOUS
 62
    7
420
    0
370
   50
100
AcDbVertex
100
AcDb2dVertex
 10
-285.626842314537
 20
-110.6081434773224
 30
0
  0
SEQEND
  5
26F
100
AcDbEntity
  8
s005-#def-solid-edge
  6
CONTINUOUS
 62
    7
420
    0
370
   50
  0
POLYLINE
  5
270
100
AcDbEntity
  8
s005-#def-solid-edge
  6
CONTINUOUS
 62
    7
420
    0
370
   50
100
AcDb2dPolyline
 10
0
 20
0
 30
0
 70
    0
  0
VERTEX
  5
271
100
AcDbEntity
  8
s005-#def-solid-edge
  6
CONTINUOUS
 62
    7
420
    0
370
   50
100
AcDbVertex
100
AcDb2dVertex
 10
137.4651813628535
 20
-137.0299303808082
 30
0
  0
VERTEX
  5
272
100
AcDbEntity
  8
s005-#def-solid-edge
  6
CONTINUOUS
 62
    7
420
    0
370
   50
100
AcDbVertex
100
AcDb2dVertex
 10
137.623157685463
 20
-137.8581434773224
 30
0
  0
VERTEX
  5
273
100
AcDbEntity
  8
s005-#def-solid-edge
  6
CONTINUOUS
 62
    7
420
    0
370
   50
100
AcDbVertex
100
AcDb2dVertex
 10
137.4651813628534
 20
-138.6863565738366
 30
0
  0
VERTEX
  5
274
100
AcDbEntity
  8
s005-#def-solid-edge
  6
CONTINUOUS
 62
    7
420
    0
370
   50
100
AcDbVertex
100
AcDb2dVertex
 10
136.9641479431328
 20
-139.4491337349921
 30
0
  0
VERTEX
  5
275
100
AcDbEntity
  8
s005-#def-solid-edge
  6
CONTINUOUS
 62
    7
420
    0
370
   50
100
AcDbVertex
100
AcDb2dVertex
 10
136.2013707819772
 20
-139.9501671547129
 30
0
  0
VERTEX
  5
276
100
AcDbEntity
  8
s005-#def-solid-edge
  6
CONTINUOUS
 62
    7
420
    0
370
   50
100
AcDbVertex
100
AcDb2dVertex
 10
135.373157685463
 20
-140.1081434773224
 30
0
  0
VERTEX
  5
277
100
AcDbEntity
  8
s005-#def-solid-edge
  6
CONTINUOUS
 62
    7
420
    0
370
   50
100
AcDbVertex
100
AcDb2dVertex
 10
134.5449445889487
 20
-139.9501671547129
 30
0
  0
VERTEX
  5
278
100
AcDbEntity
  8
s005-#def-solid-edge
  6
CONTINUOUS
 62
    7
420
    0
370
   50
100
AcDbVertex
100
AcDb2dVertex
 10
133.7821674277933
 20
-139.4491337349921
 30
0
  0
VERTEX
  5
279
100
AcDbEntity
  8
s005-#def-solid-edge
  6
CONTINUOUS
 62
    7
420
    0
370
   50
100
AcDbVertex
100
AcDb2dVertex
 10
133.2811340080725
 20
-138.6863565738366
 30
0
  0
VERTEX
  5
27A
100
AcDbEntity
  8
s005-#def-solid-edge
  6
CONTINUOUS
 62
    7
420
    0
370
   50
100
AcDbVertex
100
AcDb2dVertex
 10
133.123157685463
 20
-137.8581434773224
 30
0
  0
VERTEX
  5
27B
100
AcDbEntity
  8
s005-#def-solid-edge
  6
CONTINUOUS
 62
    7
420
    0
370
   50
100
AcDbVertex
100
AcDb2dVertex
 10
133.2811340080725
 20
-137.0299303808082
 30
0
  0
VERTEX
  5
27C
100
AcDbEntity
  8
s005-#def-solid-edge
  6
CONTINUOUS
 62
    7
420
    0
370
   50
100
AcDbVertex
100
AcDb2dVertex
 10
133.7821674277933
 20
-136.2671532196527
 30
0
  0
VERTEX
  5
27D
100
AcDbEntity
  8
s005-#def-solid-edge
  6
CONTINUOUS
 62
    7
420
    0
370
   50
100
AcDbVertex
100
AcDb2dVertex
 10
134.5449445889487
 20
-135.7661197999319
 30
0
  0
VERTEX
  5
27E
100
AcDbEntity
  8
s005-#def-solid-edge
  6
CONTINUOUS
 62
    7
420
    0
370
   50
100
AcDbVertex
100
AcDb2dVertex
 10
135.373157685463
 20
-135.6081434773224
 30
0
  0
VERTEX
  5
27F
100
AcDbEntity
  8
s005-#def-solid-edge
  6
CONTINUOUS
 62
    7
420
    0
370
   50
100
AcDbVertex
100
AcDb2dVertex
 10
136.2013707819772
 20
-135.7661197999319
 30
0
  0
VERTEX
  5
280
100
AcDbEntity
  8
s005-#def-solid-edge
  6
CONTINUOUS
 62
    7
420
    0
370
   50
100
AcDbVertex
100
AcDb2dVertex
 10
136.9641479431327
 20
-136.2671532196527
 30
0
  0
VERTEX
  5
281
100
AcDbEntity
  8
s005-#def-solid-edge
  6
CONTINUOUS
 62
    7
420
    0
370
   50
100
AcDbVertex
100
AcDb2dVertex
 10
137.4651813628535
 20
-137.0299303808082
 30
0
  0
SEQEND
  5
282
100
AcDbEntity
  8
s005-#def-solid-edge
  6
CONTINUOUS
 62
    7
420
    0
370
   50
  0
POLYLINE
  5
283
100
AcDbEntity
  8
s005-#def-solid-edge
  6
CONTINUOUS
 62
    7
420
    0
370
   50
100
AcDb2dPolyline
 10
0
 20
0
 30
0
 70
    0
  0
VERTEX
  5
284
100
AcDbEntity
  8
s005-#def-solid-edge
  6
CONTINUOUS
 62
    7
420
    0
370
   50
100
AcDbVertex
100
AcDb2dVertex
 10
4.886238998624719
 20
-146.8582082416226
 30
0
  0
VERTEX
  5
285
100
AcDbEntity
  8
s005-#def-solid-edge
  6
CONTINUOUS
 62
    7
420
    0
370
   50
100
AcDbVertex
100
AcDb2dVertex
 10
4.952141908001806
 20
-146.8655029506552
 30
0
  0
VERTEX
  5
286
100
AcDbEntity
  8
s005-#def-solid-edge
  6
CONTINUOUS
 62
    7
420
    0
370
   50
100
AcDbVertex
100
AcDb2dVertex
 10
5.013809302276755
 20
-146.8898656009125
 30
0
  0
VERTEX
  5
287
100
AcDbEntity
  8
s005-#def-solid-edge
  6
CONTINUOUS
 62
    7
420
    0
370
   50
100
AcDbVertex
100
AcDb2dVertex
 10
5.068705856984494
 20
-146.9313667820257
 30
0
  0
VERTEX
  5
288
100
AcDbEntity
  8
s005-#def-solid-edge
  6
CONTINUOUS
 62
    7
420
    0
370
   50
100
AcDbVertex
100
AcDb2dVertex
 10
5.110207038097769
 20
-146.9862633367335
 30
0
  0
VERTEX
  5
289
100
AcDbEntity
  8
s005-#def-solid-edge
  6
CONTINUOUS
 62
    7
420
    0
370
   50
100
AcDbVertex
100
AcDb2dVertex
 10
5.134569688355029
 20
-147.0479307310085
 30
0
  0
VERTEX
  5
28A
100
AcDbEntity
  8
s005-#def-solid-edge
  6
CONTINUOUS
 62
    7
420
    0
370
   50
100
AcDbVertex
100
AcDb2dVertex
 10
5.14186439738765
 20
-147.1138336403855
 30
0
  0
VERTEX
  5
28B
100
AcDbEntity
  8
s005-#def-solid-edge
  6
CONTINUOUS
 62
    7
420
    0
370
   50
100
AcDbVertex
100
AcDb2dVertex
 10
5.130843446108344
 20
-147.1817638868555
 30
0
  0
VERTEX
  5
28C
100
AcDbEntity
  8
s005-#def-solid-edge
  6
CONTINUOUS
 62
    7
420
    0
370
   50
100
AcDbVertex
100
AcDb2dVertex
 10
5.1017186034113
 20
-147.2441154970226
 30
0
  0
VERTEX
  5
28D
100
AcDbEntity
  8
s005-#def-solid-edge
  6
CONTINUOUS
 62
    7
420
    0
370
   50
100
AcDbVertex
100
AcDb2dVertex
 10
5.058595828354527
 20
-147.2944824754474
 30
0
  0
VERTEX
  5
28E
100
AcDbEntity
  8
s005-#def-solid-edge
  6
CONTINUOUS
 62
    7
420
    0
370
   50
100
AcDbVertex
100
AcDb2dVertex
 10
4.988845756507814
 20
-147.3713163092258
 30
0
  0
VERTEX
  5
28F
100
AcDbEntity
  8
s005-#def-solid-edge
  6
CONTINUOUS
 62
    7
420
    0
370
   50
100
AcDbVertex
100
AcDb2dVertex
 10
4.935493697100227
 20
-147.4630363264654
 30
0
  0
VERTEX
  5
290
100
AcDbEntity
  8
s005-#def-solid-edge
  6
CONTINUOUS
 62
    7
420
    0
370
   50
100
AcDbVertex
100
AcDb2dVertex
 10
4.902697672223454
 20
-147.5639492818174
 30
0
  0
VERTEX
  5
291
100
AcDbEntity
  8
s005-#def-solid-edge
  6
CONTINUOUS
 62
    7
420
    0
370
   50
100
AcDbVertex
100
AcDb2dVertex
 10
4.891929161687884
 20
-147.6671604716973
 30
0
  0
VERTEX
  5
292
100
AcDbEntity
  8
s005-#def-solid-edge
  6
CONTINUOUS
 62
    7
420
    0
370
   50
100
AcDbVertex
100
AcDb2dVertex
 10
4.89192916168787
 20
-149.8491264829474
 30
0
  0
VERTEX
  5
293
100
AcDbEntity
  8
s005-#def-solid-edge
  6
CONTINUOUS
 62
    7
420
    0
370
   50
100
AcDbVertex
100
AcDb2dVertex
 10
4.902697672223582
 20
-149.952337672828
 30
0
  0
VERTEX
  5
294
100
AcDbEntity
  8
s005-#def-solid-edge
  6
CONTINUOUS
 62
    7
420
    0
370
   50
100
AcDbVertex
100
AcDb2dVertex
 10
4.935493697100213
 20
-150.0532506281794
 30
0
  0
VERTEX
  5
295
100
AcDbEntity
  8
s005-#def-solid-edge
  6
CONTINUOUS
 62
    7
420
    0
370
   50
100
AcDbVertex
100
AcDb2dVertex
 10
4.988845756508184
 20
-150.1449706454194
 30
0
  0
VERTEX
  5
296
100
AcDbEntity
  8
s005-#def-solid-edge
  6
CONTINUOUS
 62
    7
420
    0
370
   50
100
AcDbVertex
100
AcDb2dVertex
 10
5.058595828354555
 20
-150.2218044791974
 30
0
  0
VERTEX
  5
297
100
AcDbEntity
  8
s005-#def-solid-edge
  6
CONTINUOUS
 62
    7
420
    0
370
   50
100
AcDbVertex
100
AcDb2dVertex
 10
5.101718603411257
 20
-150.2721714576221
 30
0
  0
VERTEX
  5
298
100
AcDbEntity
  8
s005-#def-solid-edge
  6
CONTINUOUS
 62
    7
420
    0
370
   50
100
AcDbVertex
100
AcDb2dVertex
 10
5.130843446108429
 20
-150.3345230677893
 30
0
  0
VERTEX
  5
299
100
AcDbEntity
  8
s005-#def-solid-edge
  6
CONTINUOUS
 62
    7
420
    0
370
   50
100
AcDbVertex
100
AcDb2dVertex
 10
5.141864397387636
 20
-150.4024533142593
 30
0
  0
VERTEX
  5
29A
100
AcDbEntity
  8
s005-#def-solid-edge
  6
CONTINUOUS
 62
    7
420
    0
370
   50
100
AcDbVertex
100
AcDb2dVertex
 10
5.134569688355029
 20
-150.4683562236363
 30
0
  0
VERTEX
  5
29B
100
AcDbEntity
  8
s005-#def-solid-edge
  6
CONTINUOUS
 62
    7
420
    0
370
   50
100
AcDbVertex
100
AcDb2dVertex
 10
5.110207038097769
 20
-150.5300236179113
 30
0
  0
VERTEX
  5
29C
100
AcDbEntity
  8
s005-#def-solid-edge
  6
CONTINUOUS
 62
    7
420
    0
370
   50
100
AcDbVertex
100
AcDb2dVertex
 10
5.068705856984479
 20
-150.584920172619
 30
0
  0
VERTEX
  5
29D
100
AcDbEntity
  8
s005-#def-solid-edge
  6
CONTINUOUS
 62
    7
420
    0
370
   50
100
AcDbVertex
100
AcDb2dVertex
 10
5.013809302276741
 20
-150.6264213537323
 30
0
  0
VERTEX
  5
29E
100
AcDbEntity
  8
s005-#def-solid-edge
  6
CONTINUOUS
 62
    7
420
    0
370
   50
100
AcDbVertex
100
AcDb2dVertex
 10
4.952141908001778
 20
-150.6507840039896
 30
0
  0
VERTEX
  5
29F
100
AcDbEntity
  8
s005-#def-solid-edge
  6
CONTINUOUS
 62
    7
420
    0
370
   50
100
AcDbVertex
100
AcDb2dVertex
 10
4.88623899862479
 20
-150.6580787130222
 30
0
  0
VERTEX
  5
2A0
100
AcDbEntity
  8
s005-#def-solid-edge
  6
CONTINUOUS
 62
    7
420
    0
370
   50
100
AcDbVertex
100
AcDb2dVertex
 10
4.818308752154735
 20
-150.6470577617429
 30
0
  0
VERTEX
  5
2A1
100
AcDbEntity
  8
s005-#def-solid-edge
  6
CONTINUOUS
 62
    7
420
    0
370
   50
100
AcDbVertex
100
AcDb2dVertex
 10
4.755957141987608
 20
-150.6179329190458
 30
0
  0
VERTEX
  5
2A2
100
AcDbEntity
  8
s005-#def-solid-edge
  6
CONTINUOUS
 62
    7
420
    0
370
   50
100
AcDbVertex
100
AcDb2dVertex
 10
4.705590163562874
 20
-150.5748101439891
 30
0
  0
VERTEX
  5
2A3
100
AcDbEntity
  8
s005-#def-solid-edge
  6
CONTINUOUS
 62
    7
420
    0
370
   50
100
AcDbVertex
100
AcDb2dVertex
 10
4.628756329784437
 20
-150.5050600721424
 30
0
  0
VERTEX
  5
2A4
100
AcDbEntity
  8
s005-#def-solid-edge
  6
CONTINUOUS
 62
    7
420
    0
370
   50
100
AcDbVertex
100
AcDb2dVertex
 10
4.537036312544856
 20
-150.4517080127347
 30
0
  0
VERTEX
  5
2A5
100
AcDbEntity
  8
s005-#def-solid-edge
  6
CONTINUOUS
 62
    7
420
    0
370
   50
100
AcDbVertex
100
AcDb2dVertex
 10
4.436123357192855
 20
-150.418911987858
 30
0
  0
VERTEX
  5
2A6
100
AcDbEntity
  8
s005-#def-solid-edge
  6
CONTINUOUS
 62
    7
420
    0
370
   50
100
AcDbVertex
100
AcDb2dVertex
 10
4.332912167312941
 20
-150.4081434773224
 30
0
  0
VERTEX
  5
2A7
100
AcDbEntity
  8
s005-#def-solid-edge
  6
CONTINUOUS
 62
    7
420
    0
370
   50
100
AcDbVertex
100
AcDb2dVertex
 10
-14.54905384393717
 20
-150.4081434773224
 30
0
  0
VERTEX
  5
2A8
100
AcDbEntity
  8
s005-#def-solid-edge
  6
CONTINUOUS
 62
    7
420
    0
370
   50
100
AcDbVertex
100
AcDb2dVertex
 10
-14.65226503381709
 20
-150.418911987858
 30
0
  0
VERTEX
  5
2A9
100
AcDbEntity
  8
s005-#def-solid-edge
  6
CONTINUOUS
 62
    7
420
    0
370
   50
100
AcDbVertex
100
AcDb2dVertex
 10
-14.75317798916906
 20
-150.4517080127347
 30
0
  0
VERTEX
  5
2AA
100
AcDbEntity
  8
s005-#def-solid-edge
  6
CONTINUOUS
 62
    7
420
    0
370
   50
100
AcDbVertex
100
AcDb2dVertex
 10
-14.84489800640912
 20
-150.5050600721427
 30
0
  0
VERTEX
  5
2AB
100
AcDbEntity
  8
s005-#def-solid-edge
  6
CONTINUOUS
 62
    7
420
    0
370
   50
100
AcDbVertex
100
AcDb2dVertex
 10
-14.92173184018718
 20
-150.574810143989
 30
0
  0
VERTEX
  5
2AC
100
AcDbEntity
  8
s005-#def-solid-edge
  6
CONTINUOUS
 62
    7
420
    0
370
   50
100
AcDbVertex
100
AcDb2dVertex
 10
-14.97209881861185
 20
-150.6179329190458
 30
0
  0
VERTEX
  5
2AD
100
AcDbEntity
  8
s005-#def-solid-edge
  6
CONTINUOUS
 62
    7
420
    0
370
   50
100
AcDbVertex
100
AcDb2dVertex
 10
-15.03445042877907
 20
-150.6470577617429
 30
0
  0
VERTEX
  5
2AE
100
AcDbEntity
  8
s005-#def-solid-edge
  6
CONTINUOUS
 62
    7
420
    0
370
   50
100
AcDbVertex
100
AcDb2dVertex
 10
-15.10238067524901
 20
-150.6580787130222
 30
0
  0
VERTEX
  5
2AF
100
AcDbEntity
  8
s005-#def-solid-edge
  6
CONTINUOUS
 62
    7
420
    0
370
   50
100
AcDbVertex
100
AcDb2dVertex
 10
-15.16828358462607
 20
-150.6507840039896
 30
0
  0
VERTEX
  5
2B0
100
AcDbEntity
  8
s005-#def-solid-edge
  6
CONTINUOUS
 62
    7
420
    0
370
   50
100
AcDbVertex
100
AcDb2dVertex
 10
-15.22995097890109
 20
-150.6264213537323
 30
0
  0
VERTEX
  5
2B1
100
AcDbEntity
  8
s005-#def-solid-edge
  6
CONTINUOUS
 62
    7
420
    0
370
   50
100
AcDbVertex
100
AcDb2dVertex
 10
-15.28484753360876
 20
-150.584920172619
 30
0
  0
VERTEX
  5
2B2
100
AcDbEntity
  8
s005-#def-solid-edge
  6
CONTINUOUS
 62
    7
420
    0
370
   50
100
AcDbVertex
100
AcDb2dVertex
 10
-15.32634871472204
 20
-150.5300236179114
 30
0
  0
VERTEX
  5
2B3
100
AcDbEntity
  8
s005-#def-solid-edge
  6
CONTINUOUS
 62
    7
420
    0
370
   50
100
AcDbVertex
100
AcDb2dVertex
 10
-15.35071136497933
 20
-150.4683562236363
 30
0
  0
VERTEX
  5
2B4
100
AcDbEntity
  8
s005-#def-solid-edge
  6
CONTINUOUS
 62
    7
420
    0
370
   50
100
AcDbVertex
100
AcDb2dVertex
 10
-15.35800607401158
 20
-150.402453314244
 30
0
  0
VERTEX
  5
2B5
100
AcDbEntity
  8
s005-#def-solid-edge
  6
CONTINUOUS
 62
    7
420
    0
370
   50
100
AcDbVertex
100
AcDb2dVertex
 10
-15.34698512273268
 20
-150.3345230677893
 30
0
  0
VERTEX
  5
2B6
100
AcDbEntity
  8
s005-#def-solid-edge
  6
CONTINUOUS
 62
    7
420
    0
370
   50
100
AcDbVertex
100
AcDb2dVertex
 10
-15.31786028003557
 20
-150.2721714576221
 30
0
  0
VERTEX
  5
2B7
100
AcDbEntity
  8
s005-#def-solid-edge
  6
CONTINUOUS
 62
    7
420
    0
370
   50
100
AcDbVertex
100
AcDb2dVertex
 10
-15.27473750497879
 20
-150.2218044791974
 30
0
  0
VERTEX
  5
2B8
100
AcDbEntity
  8
s005-#def-solid-edge
  6
CONTINUOUS
 62
    7
420
    0
370
   50
100
AcDbVertex
100
AcDb2dVertex
 10
-15.20498743313246
 20
-150.1449706454194
 30
0
  0
VERTEX
  5
2B9
100
AcDbEntity
  8
s005-#def-solid-edge
  6
CONTINUOUS
 62
    7
420
    0
370
   50
100
AcDbVertex
100
AcDb2dVertex
 10
-15.15163537372448
 20
-150.0532506281794
 30
0
  0
VERTEX
  5
2BA
100
AcDbEntity
  8
s005-#def-solid-edge
  6
CONTINUOUS
 62
    7
420
    0
370
   50
100
AcDbVertex
100
AcDb2dVertex
 10
-15.11883934884766
 20
-149.9523376728274
 30
0
  0
VERTEX
  5
2BB
100
AcDbEntity
  8
s005-#def-solid-edge
  6
CONTINUOUS
 62
    7
420
    0
370
   50
100
AcDbVertex
100
AcDb2dVertex
 10
-15.10807083831213
 20
-149.8491264829474
 30
0
  0
VERTEX
  5
2BC
100
AcDbEntity
  8
s005-#def-solid-edge
  6
CONTINUOUS
 62
    7
420
    0
370
   50
100
AcDbVertex
100
AcDb2dVertex
 10
-15.10807083831213
 20
-147.6671604716973
 30
0
  0
VERTEX
  5
2BD
100
AcDbEntity
  8
s005-#def-solid-edge
  6
CONTINUOUS
 62
    7
420
    0
370
   50
100
AcDbVertex
100
AcDb2dVertex
 10
-15.11883934884784
 20
-147.5639492818168
 30
0
  0
VERTEX
  5
2BE
100
AcDbEntity
  8
s005-#def-solid-edge
  6
CONTINUOUS
 62
    7
420
    0
370
   50
100
AcDbVertex
100
AcDb2dVertex
 10
-15.15163537372447
 20
-147.4630363264654
 30
0
  0
VERTEX
  5
2BF
100
AcDbEntity
  8
s005-#def-solid-edge
  6
CONTINUOUS
 62
    7
420
    0
370
   50
100
AcDbVertex
100
AcDb2dVertex
 10
-15.20498743313244
 20
-147.3713163092253
 30
0
  0
VERTEX
  5
2C0
100
AcDbEntity
  8
s005-#def-solid-edge
  6
CONTINUOUS
 62
    7
420
    0
370
   50
100
AcDbVertex
100
AcDb2dVertex
 10
-15.27473750497879
 20
-147.2944824754474
 30
0
  0
VERTEX
  5
2C1
100
AcDbEntity
  8
s005-#def-solid-edge
  6
CONTINUOUS
 62
    7
420
    0
370
   50
100
AcDbVertex
100
AcDb2dVertex
 10
-15.31786028004386
 20
-147.2441154970099
 30
0
  0
VERTEX
  5
2C2
100
AcDbEntity
  8
s005-#def-solid-edge
  6
CONTINUOUS
 62
    7
420
    0
370
   50
100
AcDbVertex
100
AcDb2dVertex
 10
-15.34698512273268
 20
-147.1817638868555
 30
0
  0
VERTEX
  5
2C3
100
AcDbEntity
  8
s005-#def-solid-edge
  6
CONTINUOUS
 62
    7
420
    0
370
   50
100
AcDbVertex
100
AcDb2dVertex
 10
-15.35800607401198
 20
-147.1138336403855
 30
0
  0
VERTEX
  5
2C4
100
AcDbEntity
  8
s005-#def-solid-edge
  6
CONTINUOUS
 62
    7
420
    0
370
   50
100
AcDbVertex
100
AcDb2dVertex
 10
-15.35071136497933
 20
-147.0479307310085
 30
0
  0
VERTEX
  5
2C5
100
AcDbEntity
  8
s005-#def-solid-edge
  6
CONTINUOUS
 62
    7
420
    0
370
   50
100
AcDbVertex
100
AcDb2dVertex
 10
-15.32634871471461
 20
-146.9862633367201
 30
0
  0
VERTEX
  5
2C6
100
AcDbEntity
  8
s005-#def-solid-edge
  6
CONTINUOUS
 62
    7
420
    0
370
   50
100
AcDbVertex
100
AcDb2dVertex
 10
-15.28484753360875
 20
-146.9313667820257
 30
0
  0
VERTEX
  5
2C7
100
AcDbEntity
  8
s005-#def-solid-edge
  6
CONTINUOUS
 62
    7
420
    0
370
   50
100
AcDbVertex
100
AcDb2dVertex
 10
-15.22995097890108
 20
-146.8898656009125
 30
0
  0
VERTEX
  5
2C8
100
AcDbEntity
  8
s005-#def-solid-edge
  6
CONTINUOUS
 62
    7
420
    0
370
   50
100
AcDbVertex
100
AcDb2dVertex
 10
-15.16828358462607
 20
-146.8655029506552
 30
0
  0
VERTEX
  5
2C9
100
AcDbEntity
  8
s005-#def-solid-edge
  6
CONTINUOUS
 62
    7
420
    0
370
   50
100
AcDbVertex
100
AcDb2dVertex
 10
-15.10238067524901
 20
-146.8582082416226
 30
0
  0
VERTEX
  5
2CA
100
AcDbEntity
  8
s005-#def-solid-edge
  6
CONTINUOUS
 62
    7
420
    0
370
   50
100
AcDbVertex
100
AcDb2dVertex
 10
-15.03445042877905
 20
-146.8692291929018
 30
0
  0
VERTEX
  5
2CB
100
AcDbEntity
  8
s005-#def-solid-edge
  6
CONTINUOUS
 62
    7
420
    0
370
   50
100
AcDbVertex
100
AcDb2dVertex
 10
-14.97209881861187
 20
-146.898354035599
 30
0
  0
VERTEX
  5
2CC
100
AcDbEntity
  8
s005-#def-solid-edge
  6
CONTINUOUS
 62
    7
420
    0
370
   50
100
AcDbVertex
100
AcDb2dVertex
 10
-14.92173184018712
 20
-146.9414768106557
 30
0
  0
VERTEX
  5
2CD
100
AcDbEntity
  8
s005-#def-solid-edge
  6
CONTINUOUS
 62
    7
420
    0
370
   50
100
AcDbVertex
100
AcDb2dVertex
 10
-14.84489800640923
 20
-147.0112268825021
 30
0
  0
VERTEX
  5
2CE
100
AcDbEntity
  8
s005-#def-solid-edge
  6
CONTINUOUS
 62
    7
420
    0
370
   50
100
AcDbVertex
100
AcDb2dVertex
 10
-14.7531779891691
 20
-147.06457894191
 30
0
  0
VERTEX
  5
2CF
100
AcDbEntity
  8
s005-#def-solid-edge
  6
CONTINUOUS
 62
    7
420
    0
370
   50
100
AcDbVertex
100
AcDb2dVertex
 10
-14.65226503381707
 20
-147.0973749667868
 30
0
  0
VERTEX
  5
2D0
100
AcDbEntity
  8
s005-#def-solid-edge
  6
CONTINUOUS
 62
    7
420
    0
370
   50
100
AcDbVertex
100
AcDb2dVertex
 10
-14.54905384393717
 20
-147.1081434773224
 30
0
  0
VERTEX
  5
2D1
100
AcDbEntity
  8
s005-#def-solid-edge
  6
CONTINUOUS
 62
    7
420
    0
370
   50
100
AcDbVertex
100
AcDb2dVertex
 10
4.332912167312912
 20
-147.1081434773224
 30
0
  0
VERTEX
  5
2D2
100
AcDbEntity
  8
s005-#def-solid-edge
  6
CONTINUOUS
 62
    7
420
    0
370
   50
100
AcDbVertex
100
AcDb2dVertex
 10
4.436123357192855
 20
-147.0973749667868
 30
0
  0
VERTEX
  5
2D3
100
AcDbEntity
  8
s005-#def-solid-edge
  6
CONTINUOUS
 62
    7
420
    0
370
   50
100
AcDbVertex
100
AcDb2dVertex
 10
4.537036312544842
 20
-147.06457894191
 30
0
  0
VERTEX
  5
2D4
100
AcDbEntity
  8
s005-#def-solid-edge
  6
CONTINUOUS
 62
    7
420
    0
370
   50
100
AcDbVertex
100
AcDb2dVertex
 10
4.628756329784892
 20
-147.0112268825021
 30
0
  0
VERTEX
  5
2D5
100
AcDbEntity
  8
s005-#def-solid-edge
  6
CONTINUOUS
 62
    7
420
    0
370
   50
100
AcDbVertex
100
AcDb2dVertex
 10
4.705590163562874
 20
-146.9414768106557
 30
0
  0
VERTEX
  5
2D6
100
AcDbEntity
  8
s005-#def-solid-edge
  6
CONTINUOUS
 62
    7
420
    0
370
   50
100
AcDbVertex
100
AcDb2dVertex
 10
4.755957141987608
 20
-146.898354035599
 30
0
  0
VERTEX
  5
2D7
100
AcDbEntity
  8
s005-#def-solid-edge
  6
CONTINUOUS
 62
    7
420
    0
370
   50
100
AcDbVertex
100
AcDb2dVertex
 10
4.818308752154735
 20
-146.8692291929019
 30
0
  0
VERTEX
  5
2D8
100
AcDbEntity
  8
s005-#def-solid-edge
  6
CONTINUOUS
 62
    7
420
    0
370
   50
100
AcDbVertex
100
AcDb2dVertex
 10
4.886238998624719
 20
-146.8582082416226
 30
0
  0
SEQEND
  5
2D9
100
AcDbEntity
  8
s005-#def-solid-edge
  6
CONTINUOUS
 62
    7
420
    0
370
   50
  0
POLYLINE
  5
2DA
100
AcDbEntity
  8
s005-#def-solid-edge
  6
CONTINUOUS
 62
    7
420
    0
370
   50
100
AcDb2dPolyline
 10
0
 20
0
 30
0
 70
    0
  0
VERTEX
  5
2DB
100
AcDbEntity
  8
s005-#def-solid-edge
  6
CONTINUOUS
 62
    7
420
    0
370
   50
100
AcDbVertex
100
AcDb2dVertex
 10
-181.4628752729781
 20
-150.6507840039896
 30
0
  0
VERTEX
  5
2DC
100
AcDbEntity
  8
s005-#def-solid-edge
  6
CONTINUOUS
 62
    7
420
    0
370
   50
100
AcDbVertex
100
AcDb2dVertex
 10
-181.5287781823551
 20
-150.6580787130222
 30
0
  0
VERTEX
  5
2DD
100
AcDbEntity
  8
s005-#def-solid-edge
  6
CONTINUOUS
 62
    7
420
    0
370
   50
100
AcDbVertex
100
AcDb2dVertex
 10
-181.5967084288252
 20
-150.6470577617429
 30
0
  0
VERTEX
  5
2DE
100
AcDbEntity
  8
s005-#def-solid-edge
  6
CONTINUOUS
 62
    7
420
    0
370
   50
100
AcDbVertex
100
AcDb2dVertex
 10
-181.6590600389923
 20
-150.6179329190458
 30
0
  0
VERTEX
  5
2DF
100
AcDbEntity
  8
s005-#def-solid-edge
  6
CONTINUOUS
 62
    7
420
    0
370
   50
100
AcDbVertex
100
AcDb2dVertex
 10
-181.709427017417
 20
-150.5748101439891
 30
0
  0
VERTEX
  5
2E0
100
AcDbEntity
  8
s005-#def-solid-edge
  6
CONTINUOUS
 62
    7
420
    0
370
   50
100
AcDbVertex
100
AcDb2dVertex
 10
-181.786260851195
 20
-150.5050600721427
 30
0
  0
VERTEX
  5
2E1
100
AcDbEntity
  8
s005-#def-solid-edge
  6
CONTINUOUS
 62
    7
420
    0
370
   50
100
AcDbVertex
100
AcDb2dVertex
 10
-181.8779808684351
 20
-150.4517080127347
 30
0
  0
VERTEX
  5
2E2
100
AcDbEntity
  8
s005-#def-solid-edge
  6
CONTINUOUS
 62
    7
420
    0
370
   50
100
AcDbVertex
100
AcDb2dVertex
 10
-181.978893823787
 20
-150.418911987858
 30
0
  0
VERTEX
  5
2E3
100
AcDbEntity
  8
s005-#def-solid-edge
  6
CONTINUOUS
 62
    7
420
    0
370
   50
100
AcDbVertex
100
AcDb2dVertex
 10
-182.082105013667
 20
-150.4081434773224
 30
0
  0
VERTEX
  5
2E4
100
AcDbEntity
  8
s005-#def-solid-edge
  6
CONTINUOUS
 62
    7
420
    0
370
   50
100
AcDbVertex
100
AcDb2dVertex
 10
-200.9640710249171
 20
-150.4081434773224
 30
0
  0
VERTEX
  5
2E5
100
AcDbEntity
  8
s005-#def-solid-edge
  6
CONTINUOUS
 62
    7
420
    0
370
   50
100
AcDbVertex
100
AcDb2dVertex
 10
-201.0672822147976
 20
-150.4189119878581
 30
0
  0
VERTEX
  5
2E6
100
AcDbEntity
  8
s005-#def-solid-edge
  6
CONTINUOUS
 62
    7
420
    0
370
   50
100
AcDbVertex
100
AcDb2dVertex
 10
-201.168195170149
 20
-150.4517080127347
 30
0
  0
VERTEX
  5
2E7
100
AcDbEntity
  8
s005-#def-solid-edge
  6
CONTINUOUS
 62
    7
420
    0
370
   50
100
AcDbVertex
100
AcDb2dVertex
 10
-201.2599151873891
 20
-150.5050600721427
 30
0
  0
VERTEX
  5
2E8
100
AcDbEntity
  8
s005-#def-solid-edge
  6
CONTINUOUS
 62
    7
420
    0
370
   50
100
AcDbVertex
100
AcDb2dVertex
 10
-201.3367490211671
 20
-150.574810143989
 30
0
  0
VERTEX
  5
2E9
100
AcDbEntity
  8
s005-#def-solid-edge
  6
CONTINUOUS
 62
    7
420
    0
370
   50
100
AcDbVertex
100
AcDb2dVertex
 10
-201.3871159995917
 20
-150.6179329190458
 30
0
  0
VERTEX
  5
2EA
100
AcDbEntity
  8
s005-#def-solid-edge
  6
CONTINUOUS
 62
    7
420
    0
370
   50
100
AcDbVertex
100
AcDb2dVertex
 10
-201.449467609759
 20
-150.6470577617429
 30
0
  0
VERTEX
  5
2EB
100
AcDbEntity
  8
s005-#def-solid-edge
  6
CONTINUOUS
 62
    7
420
    0
370
   50
100
AcDbVertex
100
AcDb2dVertex
 10
-201.5173978562289
 20
-150.6580787130222
 30
0
  0
VERTEX
  5
2EC
100
AcDbEntity
  8
s005-#def-solid-edge
  6
CONTINUOUS
 62
    7
420
    0
370
   50
100
AcDbVertex
100
AcDb2dVertex
 10
-201.5833007656059
 20
-150.6507840039896
 30
0
  0
VERTEX
  5
2ED
100
AcDbEntity
  8
s005-#def-solid-edge
  6
CONTINUOUS
 62
    7
420
    0
370
   50
100
AcDbVertex
100
AcDb2dVertex
 10
-201.6449681598809
 20
-150.6264213537323
 30
0
  0
VERTEX
  5
2EE
100
AcDbEntity
  8
s005-#def-solid-edge
  6
CONTINUOUS
 62
    7
420
    0
370
   50
100
AcDbVertex
100
AcDb2dVertex
 10
-201.6998647145887
 20
-150.584920172619
 30
0
  0
VERTEX
  5
2EF
100
AcDbEntity
  8
s005-#def-solid-edge
  6
CONTINUOUS
 62
    7
420
    0
370
   50
100
AcDbVertex
100
AcDb2dVertex
 10
-201.741365895702
 20
-150.5300236179114
 30
0
  0
VERTEX
  5
2F0
100
AcDbEntity
  8
s005-#def-solid-edge
  6
CONTINUOUS
 62
    7
420
    0
370
   50
100
AcDbVertex
100
AcDb2dVertex
 10
-201.7657285459592
 20
-150.4683562236363
 30
0
  0
VERTEX
  5
2F1
100
AcDbEntity
  8
s005-#def-solid-edge
  6
CONTINUOUS
 62
    7
420
    0
370
   50
100
AcDbVertex
100
AcDb2dVertex
 10
-201.7730232549915
 20
-150.402453314244
 30
0
  0
VERTEX
  5
2F2
100
AcDbEntity
  8
s005-#def-solid-edge
  6
CONTINUOUS
 62
    7
420
    0
370
   50
100
AcDbVertex
100
AcDb2dVertex
 10
-201.7620023037126
 20
-150.3345230677893
 30
0
  0
VERTEX
  5
2F3
100
AcDbEntity
  8
s005-#def-solid-edge
  6
CONTINUOUS
 62
    7
420
    0
370
   50
100
AcDbVertex
100
AcDb2dVertex
 10
-201.7328774610154
 20
-150.2721714576221
 30
0
  0
VERTEX
  5
2F4
100
AcDbEntity
  8
s005-#def-solid-edge
  6
CONTINUOUS
 62
    7
420
    0
370
   50
100
AcDbVertex
100
AcDb2dVertex
 10
-201.6897546859587
 20
-150.2218044791974
 30
0
  0
VERTEX
  5
2F5
100
AcDbEntity
  8
s005-#def-solid-edge
  6
CONTINUOUS
 62
    7
420
    0
370
   50
100
AcDbVertex
100
AcDb2dVertex
 10
-201.6200046141124
 20
-150.1449706454194
 30
0
  0
VERTEX
  5
2F6
100
AcDbEntity
  8
s005-#def-solid-edge
  6
CONTINUOUS
 62
    7
420
    0
370
   50
100
AcDbVertex
100
AcDb2dVertex
 10
-201.5666525547044
 20
-150.0532506281794
 30
0
  0
VERTEX
  5
2F7
100
AcDbEntity
  8
s005-#def-solid-edge
  6
CONTINUOUS
 62
    7
420
    0
370
   50
100
AcDbVertex
100
AcDb2dVertex
 10
-201.5338565298276
 20
-149.9523376728274
 30
0
  0
VERTEX
  5
2F8
100
AcDbEntity
  8
s005-#def-solid-edge
  6
CONTINUOUS
 62
    7
420
    0
370
   50
100
AcDbVertex
100
AcDb2dVertex
 10
-201.5230880192921
 20
-149.8491264829474
 30
0
  0
VERTEX
  5
2F9
100
AcDbEntity
  8
s005-#def-solid-edge
  6
CONTINUOUS
 62
    7
420
    0
370
   50
100
AcDbVertex
100
AcDb2dVertex
 10
-201.523088019292
 20
-147.6671604716973
 30
0
  0
VERTEX
  5
2FA
100
AcDbEntity
  8
s005-#def-solid-edge
  6
CONTINUOUS
 62
    7
420
    0
370
   50
100
AcDbVertex
100
AcDb2dVertex
 10
-201.5338565298278
 20
-147.5639492818168
 30
0
  0
VERTEX
  5
2FB
100
AcDbEntity
  8
s005-#def-solid-edge
  6
CONTINUOUS
 62
    7
420
    0
370
   50
100
AcDbVertex
100
AcDb2dVertex
 10
-201.5666525547044
 20
-147.4630363264654
 30
0
  0
VERTEX
  5
2FC
100
AcDbEntity
  8
s005-#def-solid-edge
  6
CONTINUOUS
 62
    7
420
    0
370
   50
100
AcDbVertex
100
AcDb2dVertex
 10
-201.6200046141124
 20
-147.3713163092253
 30
0
  0
VERTEX
  5
2FD
100
AcDbEntity
  8
s005-#def-solid-edge
  6
CONTINUOUS
 62
    7
420
    0
370
   50
100
AcDbVertex
100
AcDb2dVertex
 10
-201.6897546859587
 20
-147.2944824754474
 30
0
  0
VERTEX
  5
2FE
100
AcDbEntity
  8
s005-#def-solid-edge
  6
CONTINUOUS
 62
    7
420
    0
370
   50
100
AcDbVertex
100
AcDb2dVertex
 10
-201.7328774610237
 20
-147.2441154970099
 30
0
  0
VERTEX
  5
2FF
100
AcDbEntity
  8
s005-#def-solid-edge
  6
CONTINUOUS
 62
    7
420
    0
370
   50
100
AcDbVertex
100
AcDb2dVertex
 10
-201.7620023037126
 20
-147.1817638868555
 30
0
  0
VERTEX
  5
300
100
AcDbEntity
  8
s005-#def-solid-edge
  6
CONTINUOUS
 62
    7
420
    0
370
   50
100
AcDbVertex
100
AcDb2dVertex
 10
-201.7730232549918
 20
-147.1138336403855
 30
0
  0
VERTEX
  5
301
100
AcDbEntity
  8
s005-#def-solid-edge
  6
CONTINUOUS
 62
    7
420
    0
370
   50
100
AcDbVertex
100
AcDb2dVertex
 10
-201.7657285459592
 20
-147.0479307310085
 30
0
  0
VERTEX
  5
302
100
AcDbEntity
  8
s005-#def-solid-edge
  6
CONTINUOUS
 62
    7
420
    0
370
   50
100
AcDbVertex
100
AcDb2dVertex
 10
-201.7413658956945
 20
-146.9862633367201
 30
0
  0
VERTEX
  5
303
100
AcDbEntity
  8
s005-#def-solid-edge
  6
CONTINUOUS
 62
    7
420
    0
370
   50
100
AcDbVertex
100
AcDb2dVertex
 10
-201.6998647145887
 20
-146.9313667820257
 30
0
  0
VERTEX
  5
304
100
AcDbEntity
  8
s005-#def-solid-edge
  6
CONTINUOUS
 62
    7
420
    0
370
   50
100
AcDbVertex
100
AcDb2dVertex
 10
-201.644968159881
 20
-146.8898656009125
 30
0
  0
VERTEX
  5
305
100
AcDbEntity
  8
s005-#def-solid-edge
  6
CONTINUOUS
 62
    7
420
    0
370
   50
100
AcDbVertex
100
AcDb2dVertex
 10
-201.5833007656059
 20
-146.8655029506552
 30
0
  0
VERTEX
  5
306
100
AcDbEntity
  8
s005-#def-solid-edge
  6
CONTINUOUS
 62
    7
420
    0
370
   50
100
AcDbVertex
100
AcDb2dVertex
 10
-201.5173978562289
 20
-146.8582082416226
 30
0
  0
VERTEX
  5
307
100
AcDbEntity
  8
s005-#def-solid-edge
  6
CONTINUOUS
 62
    7
420
    0
370
   50
100
AcDbVertex
100
AcDb2dVertex
 10
-201.4494676097589
 20
-146.8692291929018
 30
0
  0
VERTEX
  5
308
100
AcDbEntity
  8
s005-#def-solid-edge
  6
CONTINUOUS
 62
    7
420
    0
370
   50
100
AcDbVertex
100
AcDb2dVertex
 10
-201.3871159995917
 20
-146.898354035599
 30
0
  0
VERTEX
  5
309
100
AcDbEntity
  8
s005-#def-solid-edge
  6
CONTINUOUS
 62
    7
420
    0
370
   50
100
AcDbVertex
100
AcDb2dVertex
 10
-201.336749021167
 20
-146.9414768106557
 30
0
  0
VERTEX
  5
30A
100
AcDbEntity
  8
s005-#def-solid-edge
  6
CONTINUOUS
 62
    7
420
    0
370
   50
100
AcDbVertex
100
AcDb2dVertex
 10
-201.2599151873886
 20
-147.0112268825024
 30
0
  0
VERTEX
  5
30B
100
AcDbEntity
  8
s005-#def-solid-edge
  6
CONTINUOUS
 62
    7
420
    0
370
   50
100
AcDbVertex
100
AcDb2dVertex
 10
-201.168195170149
 20
-147.06457894191
 30
0
  0
VERTEX
  5
30C
100
AcDbEntity
  8
s005-#def-solid-edge
  6
CONTINUOUS
 62
    7
420
    0
370
   50
100
AcDbVertex
100
AcDb2dVertex
 10
-201.067282214797
 20
-147.0973749667868
 30
0
  0
VERTEX
  5
30D
100
AcDbEntity
  8
s005-#def-solid-edge
  6
CONTINUOUS
 62
    7
420
    0
370
   50
100
AcDbVertex
100
AcDb2dVertex
 10
-200.9640710249171
 20
-147.1081434773224
 30
0
  0
VERTEX
  5
30E
100
AcDbEntity
  8
s005-#def-solid-edge
  6
CONTINUOUS
 62
    7
420
    0
370
   50
100
AcDbVertex
100
AcDb2dVertex
 10
-182.082105013667
 20
-147.1081434773224
 30
0
  0
VERTEX
  5
30F
100
AcDbEntity
  8
s005-#def-solid-edge
  6
CONTINUOUS
 62
    7
420
    0
370
   50
100
AcDbVertex
100
AcDb2dVertex
 10
-181.978893823787
 20
-147.0973749667868
 30
0
  0
VERTEX
  5
310
100
AcDbEntity
  8
s005-#def-solid-edge
  6
CONTINUOUS
 62
    7
420
    0
370
   50
100
AcDbVertex
100
AcDb2dVertex
 10
-181.8779808684351
 20
-147.06457894191
 30
0
  0
VERTEX
  5
311
100
AcDbEntity
  8
s005-#def-solid-edge
  6
CONTINUOUS
 62
    7
420
    0
370
   50
100
AcDbVertex
100
AcDb2dVertex
 10
-181.786260851195
 20
-147.0112268825021
 30
0
  0
VERTEX
  5
312
100
AcDbEntity
  8
s005-#def-solid-edge
  6
CONTINUOUS
 62
    7
420
    0
370
   50
100
AcDbVertex
100
AcDb2dVertex
 10
-181.709427017417
 20
-146.9414768106557
 30
0
  0
VERTEX
  5
313
100
AcDbEntity
  8
s005-#def-solid-edge
  6
CONTINUOUS
 62
    7
420
    0
370
   50
100
AcDbVertex
100
AcDb2dVertex
 10
-181.6590600389924
 20
-146.898354035599
 30
0
  0
VERTEX
  5
314
100
AcDbEntity
  8
s005-#def-solid-edge
  6
CONTINUOUS
 62
    7
420
    0
370
   50
100
AcDbVertex
100
AcDb2dVertex
 10
-181.5967084288252
 20
-146.8692291929019
 30
0
  0
VERTEX
  5
315
100
AcDbEntity
  8
s005-#def-solid-edge
  6
CONTINUOUS
 62
    7
420
    0
370
   50
100
AcDbVertex
100
AcDb2dVertex
 10
-181.5287781823552
 20
-146.8582082416226
 30
0
  0
VERTEX
  5
316
100
AcDbEntity
  8
s005-#def-solid-edge
  6
CONTINUOUS
 62
    7
420
    0
370
   50
100
AcDbVertex
100
AcDb2dVertex
 10
-181.4628752729781
 20
-146.8655029506552
 30
0
  0
VERTEX
  5
317
100
AcDbEntity
  8
s005-#def-solid-edge
  6
CONTINUOUS
 62
    7
420
    0
370
   50
100
AcDbVertex
100
AcDb2dVertex
 10
-181.4012078787031
 20
-146.8898656009125
 30
0
  0
VERTEX
  5
318
100
AcDbEntity
  8
s005-#def-solid-edge
  6
CONTINUOUS
 62
    7
420
    0
370
   50
100
AcDbVertex
100
AcDb2dVertex
 10
-181.3463113239954
 20
-146.9313667820257
 30
0
  0
VERTEX
  5
319
100
AcDbEntity
  8
s005-#def-solid-edge
  6
CONTINUOUS
 62
    7
420
    0
370
   50
100
AcDbVertex
100
AcDb2dVertex
 10
-181.3048101428821
 20
-146.9862633367335
 30
0
  0
VERTEX
  5
31A
100
AcDbEntity
  8
s005-#def-solid-edge
  6
CONTINUOUS
 62
    7
420
    0
370
   50
100
AcDbVertex
100
AcDb2dVertex
 10
-181.2804474926248
 20
-147.0479307310085
 30
0
  0
VERTEX
  5
31B
100
AcDbEntity
  8
s005-#def-solid-edge
  6
CONTINUOUS
 62
    7
420
    0
370
   50
100
AcDbVertex
100
AcDb2dVertex
 10
-181.2731527835923
 20
-147.1138336403855
 30
0
  0
VERTEX
  5
31C
100
AcDbEntity
  8
s005-#def-solid-edge
  6
CONTINUOUS
 62
    7
420
    0
370
   50
100
AcDbVertex
100
AcDb2dVertex
 10
-181.2841737348716
 20
-147.1817638868555
 30
0
  0
VERTEX
  5
31D
100
AcDbEntity
  8
s005-#def-solid-edge
  6
CONTINUOUS
 62
    7
420
    0
370
   50
100
AcDbVertex
100
AcDb2dVertex
 10
-181.3132985775686
 20
-147.2441154970226
 30
0
  0
VERTEX
  5
31E
100
AcDbEntity
  8
s005-#def-solid-edge
  6
CONTINUOUS
 62
    7
420
    0
370
   50
100
AcDbVertex
100
AcDb2dVertex
 10
-181.3564213526254
 20
-147.2944824754474
 30
0
  0
VERTEX
  5
31F
100
AcDbEntity
  8
s005-#def-solid-edge
  6
CONTINUOUS
 62
    7
420
    0
370
   50
100
AcDbVertex
100
AcDb2dVertex
 10
-181.4261714244721
 20
-147.3713163092258
 30
0
  0
VERTEX
  5
320
100
AcDbEntity
  8
s005-#def-solid-edge
  6
CONTINUOUS
 62
    7
420
    0
370
   50
100
AcDbVertex
100
AcDb2dVertex
 10
-181.4795234838797
 20
-147.4630363264654
 30
0
  0
VERTEX
  5
321
100
AcDbEntity
  8
s005-#def-solid-edge
  6
CONTINUOUS
 62
    7
420
    0
370
   50
100
AcDbVertex
100
AcDb2dVertex
 10
-181.5123195087564
 20
-147.5639492818174
 30
0
  0
VERTEX
  5
322
100
AcDbEntity
  8
s005-#def-solid-edge
  6
CONTINUOUS
 62
    7
420
    0
370
   50
100
AcDbVertex
100
AcDb2dVertex
 10
-181.523088019292
 20
-147.6671604716973
 30
0
  0
VERTEX
  5
323
100
AcDbEntity
  8
s005-#def-solid-edge
  6
CONTINUOUS
 62
    7
420
    0
370
   50
100
AcDbVertex
100
AcDb2dVertex
 10
-181.523088019292
 20
-149.8491264829474
 30
0
  0
VERTEX
  5
324
100
AcDbEntity
  8
s005-#def-solid-edge
  6
CONTINUOUS
 62
    7
420
    0
370
   50
100
AcDbVertex
100
AcDb2dVertex
 10
-181.5123195087565
 20
-149.9523376728274
 30
0
  0
VERTEX
  5
325
100
AcDbEntity
  8
s005-#def-solid-edge
  6
CONTINUOUS
 62
    7
420
    0
370
   50
100
AcDbVertex
100
AcDb2dVertex
 10
-181.4795234838796
 20
-150.0532506281794
 30
0
  0
VERTEX
  5
326
100
AcDbEntity
  8
s005-#def-solid-edge
  6
CONTINUOUS
 62
    7
420
    0
370
   50
100
AcDbVertex
100
AcDb2dVertex
 10
-181.4261714244717
 20
-150.1449706454194
 30
0
  0
VERTEX
  5
327
100
AcDbEntity
  8
s005-#def-solid-edge
  6
CONTINUOUS
 62
    7
420
    0
370
   50
100
AcDbVertex
100
AcDb2dVertex
 10
-181.3564213526254
 20
-150.2218044791974
 30
0
  0
VERTEX
  5
328
100
AcDbEntity
  8
s005-#def-solid-edge
  6
CONTINUOUS
 62
    7
420
    0
370
   50
100
AcDbVertex
100
AcDb2dVertex
 10
-181.3132985775603
 20
-150.2721714576349
 30
0
  0
VERTEX
  5
329
100
AcDbEntity
  8
s005-#def-solid-edge
  6
CONTINUOUS
 62
    7
420
    0
370
   50
100
AcDbVertex
100
AcDb2dVertex
 10
-181.2841737348715
 20
-150.3345230677893
 30
0
  0
VERTEX
  5
32A
100
AcDbEntity
  8
s005-#def-solid-edge
  6
CONTINUOUS
 62
    7
420
    0
370
   50
100
AcDbVertex
100
AcDb2dVertex
 10
-181.2731527835922
 20
-150.4024533142593
 30
0
  0
VERTEX
  5
32B
100
AcDbEntity
  8
s005-#def-solid-edge
  6
CONTINUOUS
 62
    7
420
    0
370
   50
100
AcDbVertex
100
AcDb2dVertex
 10
-181.2804474926248
 20
-150.4683562236363
 30
0
  0
VERTEX
  5
32C
100
AcDbEntity
  8
s005-#def-solid-edge
  6
CONTINUOUS
 62
    7
420
    0
370
   50
100
AcDbVertex
100
AcDb2dVertex
 10
-181.3048101428821
 20
-150.5300236179113
 30
0
  0
VERTEX
  5
32D
100
AcDbEntity
  8
s005-#def-solid-edge
  6
CONTINUOUS
 62
    7
420
    0
370
   50
100
AcDbVertex
100
AcDb2dVertex
 10
-181.3463113239954
 20
-150.584920172619
 30
0
  0
VERTEX
  5
32E
100
AcDbEntity
  8
s005-#def-solid-edge
  6
CONTINUOUS
 62
    7
420
    0
370
   50
100
AcDbVertex
100
AcDb2dVertex
 10
-181.4012078787031
 20
-150.6264213537323
 30
0
  0
VERTEX
  5
32F
100
AcDbEntity
  8
s005-#def-solid-edge
  6
CONTINUOUS
 62
    7
420
    0
370
   50
100
AcDbVertex
100
AcDb2dVertex
 10
-181.4628752729781
 20
-150.6507840039896
 30
0
  0
SEQEND
  5
330
100
AcDbEntity
  8
s005-#def-solid-edge
  6
CONTINUOUS
 62
    7
420
    0
370
   50
  0
POLYLINE
  5
331
100
AcDbEntity
  8
s005-#def-solid-edge
  6
CONTINUOUS
 62
    7
420
    0
370
   50
100
AcDb2dPolyline
 10
0
 20
0
 30
0
 70
    0
  0
VERTEX
  5
332
100
AcDbEntity
  8
s005-#def-solid-edge
  6
CONTINUOUS
 62
    7
420
    0
370
   50
100
AcDbVertex
100
AcDb2dVertex
 10
-41.5899449929682
 20
-150.6264213537323
 30
0
  0
VERTEX
  5
333
100
AcDbEntity
  8
s005-#def-solid-edge
  6
CONTINUOUS
 62
    7
420
    0
370
   50
100
AcDbVertex
100
AcDb2dVertex
 10
-41.65161238724316
 20
-150.6507840039896
 30
0
  0
VERTEX
  5
334
100
AcDbEntity
  8
s005-#def-solid-edge
  6
CONTINUOUS
 62
    7
420
    0
370
   50
100
AcDbVertex
100
AcDb2dVertex
 10
-41.71751529662021
 20
-150.6580787130222
 30
0
  0
VERTEX
  5
335
100
AcDbEntity
  8
s005-#def-solid-edge
  6
CONTINUOUS
 62
    7
420
    0
370
   50
100
AcDbVertex
100
AcDb2dVertex
 10
-41.78544554309025
 20
-150.6470577617429
 30
0
  0
VERTEX
  5
336
100
AcDbEntity
  8
s005-#def-solid-edge
  6
CONTINUOUS
 62
    7
420
    0
370
   50
100
AcDbVertex
100
AcDb2dVertex
 10
-41.84779715325737
 20
-150.6179329190458
 30
0
  0
VERTEX
  5
337
100
AcDbEntity
  8
s005-#def-solid-edge
  6
CONTINUOUS
 62
    7
420
    0
370
   50
100
AcDbVertex
100
AcDb2dVertex
 10
-41.89816413168212
 20
-150.5748101439891
 30
0
  0
VERTEX
  5
338
100
AcDbEntity
  8
s005-#def-solid-edge
  6
CONTINUOUS
 62
    7
420
    0
370
   50
100
AcDbVertex
100
AcDb2dVertex
 10
-41.97499796546001
 20
-150.5050600721427
 30
0
  0
VERTEX
  5
339
100
AcDbEntity
  8
s005-#def-solid-edge
  6
CONTINUOUS
 62
    7
420
    0
370
   50
100
AcDbVertex
100
AcDb2dVertex
 10
-42.0667179827001
 20
-150.4517080127347
 30
0
  0
VERTEX
  5
33A
100
AcDbEntity
  8
s005-#def-solid-edge
  6
CONTINUOUS
 62
    7
420
    0
370
   50
100
AcDbVertex
100
AcDb2dVertex
 10
-42.16763093805217
 20
-150.418911987858
 30
0
  0
VERTEX
  5
33B
100
AcDbEntity
  8
s005-#def-solid-edge
  6
CONTINUOUS
 62
    7
420
    0
370
   50
100
AcDbVertex
100
AcDb2dVertex
 10
-42.27084212793204
 20
-150.4081434773224
 30
0
  0
VERTEX
  5
33C
100
AcDbEntity
  8
s005-#def-solid-edge
  6
CONTINUOUS
 62
    7
420
    0
370
   50
100
AcDbVertex
100
AcDb2dVertex
 10
-61.15280813918216
 20
-150.4081434773224
 30
0
  0
VERTEX
  5
33D
100
AcDbEntity
  8
s005-#def-solid-edge
  6
CONTINUOUS
 62
    7
420
    0
370
   50
100
AcDbVertex
100
AcDb2dVertex
 10
-61.2560193290621
 20
-150.418911987858
 30
0
  0
VERTEX
  5
33E
100
AcDbEntity
  8
s005-#def-solid-edge
  6
CONTINUOUS
 62
    7
420
    0
370
   50
100
AcDbVertex
100
AcDb2dVertex
 10
-61.35693228441409
 20
-150.4517080127347
 30
0
  0
VERTEX
  5
33F
100
AcDbEntity
  8
s005-#def-solid-edge
  6
CONTINUOUS
 62
    7
420
    0
370
   50
100
AcDbVertex
100
AcDb2dVertex
 10
-61.44865230165415
 20
-150.5050600721427
 30
0
  0
VERTEX
  5
340
100
AcDbEntity
  8
s005-#def-solid-edge
  6
CONTINUOUS
 62
    7
420
    0
370
   50
100
AcDbVertex
100
AcDb2dVertex
 10
-61.52548613543215
 20
-150.574810143989
 30
0
  0
VERTEX
  5
341
100
AcDbEntity
  8
s005-#def-solid-edge
  6
CONTINUOUS
 62
    7
420
    0
370
   50
100
AcDbVertex
100
AcDb2dVertex
 10
-61.57585311385682
 20
-150.6179329190458
 30
0
  0
VERTEX
  5
342
100
AcDbEntity
  8
s005-#def-solid-edge
  6
CONTINUOUS
 62
    7
420
    0
370
   50
100
AcDbVertex
100
AcDb2dVertex
 10
-61.63820472402404
 20
-150.6470577617429
 30
0
  0
VERTEX
  5
343
100
AcDbEntity
  8
s005-#def-solid-edge
  6
CONTINUOUS
 62
    7
420
    0
370
   50
100
AcDbVertex
100
AcDb2dVertex
 10
-61.70613497049399
 20
-150.6580787130222
 30
0
  0
VERTEX
  5
344
100
AcDbEntity
  8
s005-#def-solid-edge
  6
CONTINUOUS
 62
    7
420
    0
370
   50
100
AcDbVertex
100
AcDb2dVertex
 10
-61.77203787987099
 20
-150.6507840039896
 30
0
  0
VERTEX
  5
345
100
AcDbEntity
  8
s005-#def-solid-edge
  6
CONTINUOUS
 62
    7
420
    0
370
   50
100
AcDbVertex
100
AcDb2dVertex
 10
-61.83370527414603
 20
-150.6264213537323
 30
0
  0
VERTEX
  5
346
100
AcDbEntity
  8
s005-#def-solid-edge
  6
CONTINUOUS
 62
    7
420
    0
370
   50
100
AcDbVertex
100
AcDb2dVertex
 10
-61.88860182885378
 20
-150.584920172619
 30
0
  0
VERTEX
  5
347
100
AcDbEntity
  8
s005-#def-solid-edge
  6
CONTINUOUS
 62
    7
420
    0
370
   50
100
AcDbVertex
100
AcDb2dVertex
 10
-61.93010300996701
 20
-150.5300236179114
 30
0
  0
VERTEX
  5
348
100
AcDbEntity
  8
s005-#def-solid-edge
  6
CONTINUOUS
 62
    7
420
    0
370
   50
100
AcDbVertex
100
AcDb2dVertex
 10
-61.95446566022432
 20
-150.4683562236363
 30
0
  0
VERTEX
  5
349
100
AcDbEntity
  8
s005-#def-solid-edge
  6
CONTINUOUS
 62
    7
420
    0
370
   50
100
AcDbVertex
100
AcDb2dVertex
 10
-61.96176036925657
 20
-150.402453314244
 30
0
  0
VERTEX
  5
34A
100
AcDbEntity
  8
s005-#def-solid-edge
  6
CONTINUOUS
 62
    7
420
    0
370
   50
100
AcDbVertex
100
AcDb2dVertex
 10
-61.95073941797764
 20
-150.3345230677893
 30
0
  0
VERTEX
  5
34B
100
AcDbEntity
  8
s005-#def-solid-edge
  6
CONTINUOUS
 62
    7
420
    0
370
   50
100
AcDbVertex
100
AcDb2dVertex
 10
-61.92161457528053
 20
-150.2721714576221
 30
0
  0
VERTEX
  5
34C
100
AcDbEntity
  8
s005-#def-solid-edge
  6
CONTINUOUS
 62
    7
420
    0
370
   50
100
AcDbVertex
100
AcDb2dVertex
 10
-61.87849180022377
 20
-150.2218044791974
 30
0
  0
VERTEX
  5
34D
100
AcDbEntity
  8
s005-#def-solid-edge
  6
CONTINUOUS
 62
    7
420
    0
370
   50
100
AcDbVertex
100
AcDb2dVertex
 10
-61.80874172837707
 20
-150.1449706454189
 30
0
  0
VERTEX
  5
34E
100
AcDbEntity
  8
s005-#def-solid-edge
  6
CONTINUOUS
 62
    7
420
    0
370
   50
100
AcDbVertex
100
AcDb2dVertex
 10
-61.75538966896947
 20
-150.0532506281794
 30
0
  0
VERTEX
  5
34F
100
AcDbEntity
  8
s005-#def-solid-edge
  6
CONTINUOUS
 62
    7
420
    0
370
   50
100
AcDbVertex
100
AcDb2dVertex
 10
-61.7225936440927
 20
-149.9523376728274
 30
0
  0
VERTEX
  5
350
100
AcDbEntity
  8
s005-#def-solid-edge
  6
CONTINUOUS
 62
    7
420
    0
370
   50
100
AcDbVertex
100
AcDb2dVertex
 10
-61.71182513355711
 20
-149.8491264829474
 30
0
  0
VERTEX
  5
351
100
AcDbEntity
  8
s005-#def-solid-edge
  6
CONTINUOUS
 62
    7
420
    0
370
   50
100
AcDbVertex
100
AcDb2dVertex
 10
-61.71182513355711
 20
-147.6671604716973
 30
0
  0
VERTEX
  5
352
100
AcDbEntity
  8
s005-#def-solid-edge
  6
CONTINUOUS
 62
    7
420
    0
370
   50
100
AcDbVertex
100
AcDb2dVertex
 10
-61.7225936440927
 20
-147.5639492818174
 30
0
  0
VERTEX
  5
353
100
AcDbEntity
  8
s005-#def-solid-edge
  6
CONTINUOUS
 62
    7
420
    0
370
   50
100
AcDbVertex
100
AcDb2dVertex
 10
-61.75538966896946
 20
-147.4630363264654
 30
0
  0
VERTEX
  5
354
100
AcDbEntity
  8
s005-#def-solid-edge
  6
CONTINUOUS
 62
    7
420
    0
370
   50
100
AcDbVertex
100
AcDb2dVertex
 10
-61.80874172837743
 20
-147.3713163092253
 30
0
  0
VERTEX
  5
355
100
AcDbEntity
  8
s005-#def-solid-edge
  6
CONTINUOUS
 62
    7
420
    0
370
   50
100
AcDbVertex
100
AcDb2dVertex
 10
-61.87849180022377
 20
-147.2944824754474
 30
0
  0
VERTEX
  5
356
100
AcDbEntity
  8
s005-#def-solid-edge
  6
CONTINUOUS
 62
    7
420
    0
370
   50
100
AcDbVertex
100
AcDb2dVertex
 10
-61.92161457528884
 20
-147.2441154970099
 30
0
  0
VERTEX
  5
357
100
AcDbEntity
  8
s005-#def-solid-edge
  6
CONTINUOUS
 62
    7
420
    0
370
   50
100
AcDbVertex
100
AcDb2dVertex
 10
-61.95073941797766
 20
-147.1817638868555
 30
0
  0
VERTEX
  5
358
100
AcDbEntity
  8
s005-#def-solid-edge
  6
CONTINUOUS
 62
    7
420
    0
370
   50
100
AcDbVertex
100
AcDb2dVertex
 10
-61.96176036925692
 20
-147.1138336403855
 30
0
  0
VERTEX
  5
359
100
AcDbEntity
  8
s005-#def-solid-edge
  6
CONTINUOUS
 62
    7
420
    0
370
   50
100
AcDbVertex
100
AcDb2dVertex
 10
-61.95446566022432
 20
-147.0479307310085
 30
0
  0
VERTEX
  5
35A
100
AcDbEntity
  8
s005-#def-solid-edge
  6
CONTINUOUS
 62
    7
420
    0
370
   50
100
AcDbVertex
100
AcDb2dVertex
 10
-61.93010300995959
 20
-146.9862633367201
 30
0
  0
VERTEX
  5
35B
100
AcDbEntity
  8
s005-#def-solid-edge
  6
CONTINUOUS
 62
    7
420
    0
370
   50
100
AcDbVertex
100
AcDb2dVertex
 10
-61.88860182885374
 20
-146.9313667820257
 30
0
  0
VERTEX
  5
35C
100
AcDbEntity
  8
s005-#def-solid-edge
  6
CONTINUOUS
 62
    7
420
    0
370
   50
100
AcDbVertex
100
AcDb2dVertex
 10
-61.83370527414603
 20
-146.8898656009125
 30
0
  0
VERTEX
  5
35D
100
AcDbEntity
  8
s005-#def-solid-edge
  6
CONTINUOUS
 62
    7
420
    0
370
   50
100
AcDbVertex
100
AcDb2dVertex
 10
-61.77203787987101
 20
-146.8655029506552
 30
0
  0
VERTEX
  5
35E
100
AcDbEntity
  8
s005-#def-solid-edge
  6
CONTINUOUS
 62
    7
420
    0
370
   50
100
AcDbVertex
100
AcDb2dVertex
 10
-61.70613497049401
 20
-146.8582082416226
 30
0
  0
VERTEX
  5
35F
100
AcDbEntity
  8
s005-#def-solid-edge
  6
CONTINUOUS
 62
    7
420
    0
370
   50
100
AcDbVertex
100
AcDb2dVertex
 10
-61.63820472402399
 20
-146.8692291929018
 30
0
  0
VERTEX
  5
360
100
AcDbEntity
  8
s005-#def-solid-edge
  6
CONTINUOUS
 62
    7
420
    0
370
   50
100
AcDbVertex
100
AcDb2dVertex
 10
-61.57585311385681
 20
-146.898354035599
 30
0
  0
VERTEX
  5
361
100
AcDbEntity
  8
s005-#def-solid-edge
  6
CONTINUOUS
 62
    7
420
    0
370
   50
100
AcDbVertex
100
AcDb2dVertex
 10
-61.5254861354321
 20
-146.9414768106557
 30
0
  0
VERTEX
  5
362
100
AcDbEntity
  8
s005-#def-solid-edge
  6
CONTINUOUS
 62
    7
420
    0
370
   50
100
AcDbVertex
100
AcDb2dVertex
 10
-61.44865230165414
 20
-147.0112268825021
 30
0
  0
VERTEX
  5
363
100
AcDbEntity
  8
s005-#def-solid-edge
  6
CONTINUOUS
 62
    7
420
    0
370
   50
100
AcDbVertex
100
AcDb2dVertex
 10
-61.3569322844141
 20
-147.06457894191
 30
0
  0
VERTEX
  5
364
100
AcDbEntity
  8
s005-#def-solid-edge
  6
CONTINUOUS
 62
    7
420
    0
370
   50
100
AcDbVertex
100
AcDb2dVertex
 10
-61.2560193290621
 20
-147.0973749667868
 30
0
  0
VERTEX
  5
365
100
AcDbEntity
  8
s005-#def-solid-edge
  6
CONTINUOUS
 62
    7
420
    0
370
   50
100
AcDbVertex
100
AcDb2dVertex
 10
-61.15280813918216
 20
-147.1081434773224
 30
0
  0
VERTEX
  5
366
100
AcDbEntity
  8
s005-#def-solid-edge
  6
CONTINUOUS
 62
    7
420
    0
370
   50
100
AcDbVertex
100
AcDb2dVertex
 10
-42.27084212793204
 20
-147.1081434773224
 30
0
  0
VERTEX
  5
367
100
AcDbEntity
  8
s005-#def-solid-edge
  6
CONTINUOUS
 62
    7
420
    0
370
   50
100
AcDbVertex
100
AcDb2dVertex
 10
-42.16763093805217
 20
-147.0973749667868
 30
0
  0
VERTEX
  5
368
100
AcDbEntity
  8
s005-#def-solid-edge
  6
CONTINUOUS
 62
    7
420
    0
370
   50
100
AcDbVertex
100
AcDb2dVertex
 10
-42.06671798270015
 20
-147.06457894191
 30
0
  0
VERTEX
  5
369
100
AcDbEntity
  8
s005-#def-solid-edge
  6
CONTINUOUS
 62
    7
420
    0
370
   50
100
AcDbVertex
100
AcDb2dVertex
 10
-41.9749979654601
 20
-147.0112268825021
 30
0
  0
VERTEX
  5
36A
100
AcDbEntity
  8
s005-#def-solid-edge
  6
CONTINUOUS
 62
    7
420
    0
370
   50
100
AcDbVertex
100
AcDb2dVertex
 10
-41.89816413168211
 20
-146.9414768106557
 30
0
  0
VERTEX
  5
36B
100
AcDbEntity
  8
s005-#def-solid-edge
  6
CONTINUOUS
 62
    7
420
    0
370
   50
100
AcDbVertex
100
AcDb2dVertex
 10
-41.84779715325747
 20
-146.898354035599
 30
0
  0
VERTEX
  5
36C
100
AcDbEntity
  8
s005-#def-solid-edge
  6
CONTINUOUS
 62
    7
420
    0
370
   50
100
AcDbVertex
100
AcDb2dVertex
 10
-41.78544554309026
 20
-146.8692291929019
 30
0
  0
VERTEX
  5
36D
100
AcDbEntity
  8
s005-#def-solid-edge
  6
CONTINUOUS
 62
    7
420
    0
370
   50
100
AcDbVertex
100
AcDb2dVertex
 10
-41.71751529662021
 20
-146.8582082416226
 30
0
  0
VERTEX
  5
36E
100
AcDbEntity
  8
s005-#def-solid-edge
  6
CONTINUOUS
 62
    7
420
    0
370
   50
100
AcDbVertex
100
AcDb2dVertex
 10
-41.6516123872432
 20
-146.8655029506552
 30
0
  0
VERTEX
  5
36F
100
AcDbEntity
  8
s005-#def-solid-edge
  6
CONTINUOUS
 62
    7
420
    0
370
   50
100
AcDbVertex
100
AcDb2dVertex
 10
-41.58994499296817
 20
-146.8898656009125
 30
0
  0
VERTEX
  5
370
100
AcDbEntity
  8
s005-#def-solid-edge
  6
CONTINUOUS
 62
    7
420
    0
370
   50
100
AcDbVertex
100
AcDb2dVertex
 10
-41.5350484382605
 20
-146.9313667820257
 30
0
  0
VERTEX
  5
371
100
AcDbEntity
  8
s005-#def-solid-edge
  6
CONTINUOUS
 62
    7
420
    0
370
   50
100
AcDbVertex
100
AcDb2dVertex
 10
-41.49354725714723
 20
-146.9862633367335
 30
0
  0
VERTEX
  5
372
100
AcDbEntity
  8
s005-#def-solid-edge
  6
CONTINUOUS
 62
    7
420
    0
370
   50
100
AcDbVertex
100
AcDb2dVertex
 10
-41.4691846068899
 20
-147.0479307310085
 30
0
  0
VERTEX
  5
373
100
AcDbEntity
  8
s005-#def-solid-edge
  6
CONTINUOUS
 62
    7
420
    0
370
   50
100
AcDbVertex
100
AcDb2dVertex
 10
-41.46188989785736
 20
-147.1138336403855
 30
0
  0
VERTEX
  5
374
100
AcDbEntity
  8
s005-#def-solid-edge
  6
CONTINUOUS
 62
    7
420
    0
370
   50
100
AcDbVertex
100
AcDb2dVertex
 10
-41.47291084913659
 20
-147.1817638868555
 30
0
  0
VERTEX
  5
375
100
AcDbEntity
  8
s005-#def-solid-edge
  6
CONTINUOUS
 62
    7
420
    0
370
   50
100
AcDbVertex
100
AcDb2dVertex
 10
-41.50203569183368
 20
-147.2441154970226
 30
0
  0
VERTEX
  5
376
100
AcDbEntity
  8
s005-#def-solid-edge
  6
CONTINUOUS
 62
    7
420
    0
370
   50
100
AcDbVertex
100
AcDb2dVertex
 10
-41.54515846689044
 20
-147.2944824754474
 30
0
  0
VERTEX
  5
377
100
AcDbEntity
  8
s005-#def-solid-edge
  6
CONTINUOUS
 62
    7
420
    0
370
   50
100
AcDbVertex
100
AcDb2dVertex
 10
-41.61490853873715
 20
-147.3713163092258
 30
0
  0
VERTEX
  5
378
100
AcDbEntity
  8
s005-#def-solid-edge
  6
CONTINUOUS
 62
    7
420
    0
370
   50
100
AcDbVertex
100
AcDb2dVertex
 10
-41.66826059814476
 20
-147.4630363264654
 30
0
  0
VERTEX
  5
379
100
AcDbEntity
  8
s005-#def-solid-edge
  6
CONTINUOUS
 62
    7
420
    0
370
   50
100
AcDbVertex
100
AcDb2dVertex
 10
-41.70105662302151
 20
-147.5639492818174
 30
0
  0
VERTEX
  5
37A
100
AcDbEntity
  8
s005-#def-solid-edge
  6
CONTINUOUS
 62
    7
420
    0
370
   50
100
AcDbVertex
100
AcDb2dVertex
 10
-41.71182513355707
 20
-147.6671604716973
 30
0
  0
VERTEX
  5
37B
100
AcDbEntity
  8
s005-#def-solid-edge
  6
CONTINUOUS
 62
    7
420
    0
370
   50
100
AcDbVertex
100
AcDb2dVertex
 10
-41.71182513355711
 20
-149.8491264829474
 30
0
  0
VERTEX
  5
37C
100
AcDbEntity
  8
s005-#def-solid-edge
  6
CONTINUOUS
 62
    7
420
    0
370
   50
100
AcDbVertex
100
AcDb2dVertex
 10
-41.70105662302154
 20
-149.9523376728274
 30
0
  0
VERTEX
  5
37D
100
AcDbEntity
  8
s005-#def-solid-edge
  6
CONTINUOUS
 62
    7
420
    0
370
   50
100
AcDbVertex
100
AcDb2dVertex
 10
-41.66826059814474
 20
-150.0532506281794
 30
0
  0
VERTEX
  5
37E
100
AcDbEntity
  8
s005-#def-solid-edge
  6
CONTINUOUS
 62
    7
420
    0
370
   50
100
AcDbVertex
100
AcDb2dVertex
 10
-41.61490853873676
 20
-150.1449706454194
 30
0
  0
VERTEX
  5
37F
100
AcDbEntity
  8
s005-#def-solid-edge
  6
CONTINUOUS
 62
    7
420
    0
370
   50
100
AcDbVertex
100
AcDb2dVertex
 10
-41.54515846689046
 20
-150.2218044791974
 30
0
  0
VERTEX
  5
380
100
AcDbEntity
  8
s005-#def-solid-edge
  6
CONTINUOUS
 62
    7
420
    0
370
   50
100
AcDbVertex
100
AcDb2dVertex
 10
-41.50203569183368
 20
-150.2721714576221
 30
0
  0
VERTEX
  5
381
100
AcDbEntity
  8
s005-#def-solid-edge
  6
CONTINUOUS
 62
    7
420
    0
370
   50
100
AcDbVertex
100
AcDb2dVertex
 10
-41.4729108491366
 20
-150.3345230677893
 30
0
  0
VERTEX
  5
382
100
AcDbEntity
  8
s005-#def-solid-edge
  6
CONTINUOUS
 62
    7
420
    0
370
   50
100
AcDbVertex
100
AcDb2dVertex
 10
-41.4618898978573
 20
-150.4024533142593
 30
0
  0
VERTEX
  5
383
100
AcDbEntity
  8
s005-#def-solid-edge
  6
CONTINUOUS
 62
    7
420
    0
370
   50
100
AcDbVertex
100
AcDb2dVertex
 10
-41.46918460688991
 20
-150.4683562236363
 30
0
  0
VERTEX
  5
384
100
AcDbEntity
  8
s005-#def-solid-edge
  6
CONTINUOUS
 62
    7
420
    0
370
   50
100
AcDbVertex
100
AcDb2dVertex
 10
-41.49354725714711
 20
-150.5300236179113
 30
0
  0
VERTEX
  5
385
100
AcDbEntity
  8
s005-#def-solid-edge
  6
CONTINUOUS
 62
    7
420
    0
370
   50
100
AcDbVertex
100
AcDb2dVertex
 10
-41.53504843826047
 20
-150.584920172619
 30
0
  0
VERTEX
  5
386
100
AcDbEntity
  8
s005-#def-solid-edge
  6
CONTINUOUS
 62
    7
420
    0
370
   50
100
AcDbVertex
100
AcDb2dVertex
 10
-41.5899449929682
 20
-150.6264213537323
 30
0
  0
SEQEND
  5
387
100
AcDbEntity
  8
s005-#def-solid-edge
  6
CONTINUOUS
 62
    7
420
    0
370
   50
  0
POLYLINE
  5
388
100
AcDbEntity
  8
s005-#def-solid-edge
  6
CONTINUOUS
 62
    7
420
    0
370
   50
100
AcDb2dPolyline
 10
0
 20
0
 30
0
 70
    0
  0
VERTEX
  5
389
100
AcDbEntity
  8
s005-#def-solid-edge
  6
CONTINUOUS
 62
    7
420
    0
370
   50
100
AcDbVertex
100
AcDb2dVertex
 10
-134.7010558476371
 20
-150.5300236179113
 30
0
  0
VERTEX
  5
38A
100
AcDbEntity
  8
s005-#def-solid-edge
  6
CONTINUOUS
 62
    7
420
    0
370
   50
100
AcDbVertex
100
AcDb2dVertex
 10
-134.7425570287505
 20
-150.584920172619
 30
0
  0
VERTEX
  5
38B
100
AcDbEntity
  8
s005-#def-solid-edge
  6
CONTINUOUS
 62
    7
420
    0
370
   50
100
AcDbVertex
100
AcDb2dVertex
 10
-134.7974535834581
 20
-150.6264213537323
 30
0
  0
VERTEX
  5
38C
100
AcDbEntity
  8
s005-#def-solid-edge
  6
CONTINUOUS
 62
    7
420
    0
370
   50
100
AcDbVertex
100
AcDb2dVertex
 10
-134.8591209777331
 20
-150.6507840039896
 30
0
  0
VERTEX
  5
38D
100
AcDbEntity
  8
s005-#def-solid-edge
  6
CONTINUOUS
 62
    7
420
    0
370
   50
100
AcDbVertex
100
AcDb2dVertex
 10
-134.9250238871101
 20
-150.6580787130222
 30
0
  0
VERTEX
  5
38E
100
AcDbEntity
  8
s005-#def-solid-edge
  6
CONTINUOUS
 62
    7
420
    0
370
   50
100
AcDbVertex
100
AcDb2dVertex
 10
-134.9929541335802
 20
-150.6470577617429
 30
0
  0
VERTEX
  5
38F
100
AcDbEntity
  8
s005-#def-solid-edge
  6
CONTINUOUS
 62
    7
420
    0
370
   50
100
AcDbVertex
100
AcDb2dVertex
 10
-135.0553057437473
 20
-150.6179329190458
 30
0
  0
VERTEX
  5
390
100
AcDbEntity
  8
s005-#def-solid-edge
  6
CONTINUOUS
 62
    7
420
    0
370
   50
100
AcDbVertex
100
AcDb2dVertex
 10
-135.1056727221721
 20
-150.5748101439891
 30
0
  0
VERTEX
  5
391
100
AcDbEntity
  8
s005-#def-solid-edge
  6
CONTINUOUS
 62
    7
420
    0
370
   50
100
AcDbVertex
100
AcDb2dVertex
 10
-135.1825065559499
 20
-150.5050600721427
 30
0
  0
VERTEX
  5
392
100
AcDbEntity
  8
s005-#def-solid-edge
  6
CONTINUOUS
 62
    7
420
    0
370
   50
100
AcDbVertex
100
AcDb2dVertex
 10
-135.2742265731901
 20
-150.4517080127347
 30
0
  0
VERTEX
  5
393
100
AcDbEntity
  8
s005-#def-solid-edge
  6
CONTINUOUS
 62
    7
420
    0
370
   50
100
AcDbVertex
100
AcDb2dVertex
 10
-135.3751395285421
 20
-150.418911987858
 30
0
  0
VERTEX
  5
394
100
AcDbEntity
  8
s005-#def-solid-edge
  6
CONTINUOUS
 62
    7
420
    0
370
   50
100
AcDbVertex
100
AcDb2dVertex
 10
-135.478350718422
 20
-150.4081434773224
 30
0
  0
VERTEX
  5
395
100
AcDbEntity
  8
s005-#def-solid-edge
  6
CONTINUOUS
 62
    7
420
    0
370
   50
100
AcDbVertex
100
AcDb2dVertex
 10
-154.3603167296721
 20
-150.4081434773224
 30
0
  0
VERTEX
  5
396
100
AcDbEntity
  8
s005-#def-solid-edge
  6
CONTINUOUS
 62
    7
420
    0
370
   50
100
AcDbVertex
100
AcDb2dVertex
 10
-154.4635279195526
 20
-150.4189119878581
 30
0
  0
VERTEX
  5
397
100
AcDbEntity
  8
s005-#def-solid-edge
  6
CONTINUOUS
 62
    7
420
    0
370
   50
100
AcDbVertex
100
AcDb2dVertex
 10
-154.5644408749041
 20
-150.4517080127347
 30
0
  0
VERTEX
  5
398
100
AcDbEntity
  8
s005-#def-solid-edge
  6
CONTINUOUS
 62
    7
420
    0
370
   50
100
AcDbVertex
100
AcDb2dVertex
 10
-154.6561608921441
 20
-150.5050600721427
 30
0
  0
VERTEX
  5
399
100
AcDbEntity
  8
s005-#def-solid-edge
  6
CONTINUOUS
 62
    7
420
    0
370
   50
100
AcDbVertex
100
AcDb2dVertex
 10
-154.7329947259221
 20
-150.574810143989
 30
0
  0
VERTEX
  5
39A
100
AcDbEntity
  8
s005-#def-solid-edge
  6
CONTINUOUS
 62
    7
420
    0
370
   50
100
AcDbVertex
100
AcDb2dVertex
 10
-154.7833617043468
 20
-150.6179329190458
 30
0
  0
VERTEX
  5
39B
100
AcDbEntity
  8
s005-#def-solid-edge
  6
CONTINUOUS
 62
    7
420
    0
370
   50
100
AcDbVertex
100
AcDb2dVertex
 10
-154.845713314514
 20
-150.6470577617429
 30
0
  0
VERTEX
  5
39C
100
AcDbEntity
  8
s005-#def-solid-edge
  6
CONTINUOUS
 62
    7
420
    0
370
   50
100
AcDbVertex
100
AcDb2dVertex
 10
-154.9136435609839
 20
-150.6580787130222
 30
0
  0
VERTEX
  5
39D
100
AcDbEntity
  8
s005-#def-solid-edge
  6
CONTINUOUS
 62
    7
420
    0
370
   50
100
AcDbVertex
100
AcDb2dVertex
 10
-154.979546470361
 20
-150.6507840039896
 30
0
  0
VERTEX
  5
39E
100
AcDbEntity
  8
s005-#def-solid-edge
  6
CONTINUOUS
 62
    7
420
    0
370
   50
100
AcDbVertex
100
AcDb2dVertex
 10
-155.0412138646493
 20
-150.6264213537249
 30
0
  0
VERTEX
  5
39F
100
AcDbEntity
  8
s005-#def-solid-edge
  6
CONTINUOUS
 62
    7
420
    0
370
   50
100
AcDbVertex
100
AcDb2dVertex
 10
-155.0961104193437
 20
-150.584920172619
 30
0
  0
VERTEX
  5
3A0
100
AcDbEntity
  8
s005-#def-solid-edge
  6
CONTINUOUS
 62
    7
420
    0
370
   50
100
AcDbVertex
100
AcDb2dVertex
 10
-155.137611600457
 20
-150.5300236179114
 30
0
  0
VERTEX
  5
3A1
100
AcDbEntity
  8
s005-#def-solid-edge
  6
CONTINUOUS
 62
    7
420
    0
370
   50
100
AcDbVertex
100
AcDb2dVertex
 10
-155.1619742507143
 20
-150.4683562236363
 30
0
  0
VERTEX
  5
3A2
100
AcDbEntity
  8
s005-#def-solid-edge
  6
CONTINUOUS
 62
    7
420
    0
370
   50
100
AcDbVertex
100
AcDb2dVertex
 10
-155.1692689597468
 20
-150.4024533142593
 30
0
  0
VERTEX
  5
3A3
100
AcDbEntity
  8
s005-#def-solid-edge
  6
CONTINUOUS
 62
    7
420
    0
370
   50
100
AcDbVertex
100
AcDb2dVertex
 10
-155.1582480084676
 20
-150.3345230677893
 30
0
  0
VERTEX
  5
3A4
100
AcDbEntity
  8
s005-#def-solid-edge
  6
CONTINUOUS
 62
    7
420
    0
370
   50
100
AcDbVertex
100
AcDb2dVertex
 10
-155.1291231657705
 20
-150.2721714576221
 30
0
  0
VERTEX
  5
3A5
100
AcDbEntity
  8
s005-#def-solid-edge
  6
CONTINUOUS
 62
    7
420
    0
370
   50
100
AcDbVertex
100
AcDb2dVertex
 10
-155.0860003907137
 20
-150.2218044791974
 30
0
  0
VERTEX
  5
3A6
100
AcDbEntity
  8
s005-#def-solid-edge
  6
CONTINUOUS
 62
    7
420
    0
370
   50
100
AcDbVertex
100
AcDb2dVertex
 10
-155.0162503188674
 20
-150.1449706454194
 30
0
  0
VERTEX
  5
3A7
100
AcDbEntity
  8
s005-#def-solid-edge
  6
CONTINUOUS
 62
    7
420
    0
370
   50
100
AcDbVertex
100
AcDb2dVertex
 10
-154.9628982594594
 20
-150.0532506281794
 30
0
  0
VERTEX
  5
3A8
100
AcDbEntity
  8
s005-#def-solid-edge
  6
CONTINUOUS
 62
    7
420
    0
370
   50
100
AcDbVertex
100
AcDb2dVertex
 10
-154.9301022345826
 20
-149.9523376728274
 30
0
  0
VERTEX
  5
3A9
100
AcDbEntity
  8
s005-#def-solid-edge
  6
CONTINUOUS
 62
    7
420
    0
370
   50
100
AcDbVertex
100
AcDb2dVertex
 10
-154.919333724047
 20
-149.8491264829474
 30
0
  0
VERTEX
  5
3AA
100
AcDbEntity
  8
s005-#def-solid-edge
  6
CONTINUOUS
 62
    7
420
    0
370
   50
100
AcDbVertex
100
AcDb2dVertex
 10
-154.9193337240471
 20
-147.6671604716973
 30
0
  0
VERTEX
  5
3AB
100
AcDbEntity
  8
s005-#def-solid-edge
  6
CONTINUOUS
 62
    7
420
    0
370
   50
100
AcDbVertex
100
AcDb2dVertex
 10
-154.9301022345828
 20
-147.5639492818168
 30
0
  0
VERTEX
  5
3AC
100
AcDbEntity
  8
s005-#def-solid-edge
  6
CONTINUOUS
 62
    7
420
    0
370
   50
100
AcDbVertex
100
AcDb2dVertex
 10
-154.9628982594594
 20
-147.4630363264654
 30
0
  0
VERTEX
  5
3AD
100
AcDbEntity
  8
s005-#def-solid-edge
  6
CONTINUOUS
 62
    7
420
    0
370
   50
100
AcDbVertex
100
AcDb2dVertex
 10
-155.0162503188674
 20
-147.3713163092253
 30
0
  0
VERTEX
  5
3AE
100
AcDbEntity
  8
s005-#def-solid-edge
  6
CONTINUOUS
 62
    7
420
    0
370
   50
100
AcDbVertex
100
AcDb2dVertex
 10
-155.0860003907137
 20
-147.2944824754474
 30
0
  0
VERTEX
  5
3AF
100
AcDbEntity
  8
s005-#def-solid-edge
  6
CONTINUOUS
 62
    7
420
    0
370
   50
100
AcDbVertex
100
AcDb2dVertex
 10
-155.1291231657788
 20
-147.2441154970099
 30
0
  0
VERTEX
  5
3B0
100
AcDbEntity
  8
s005-#def-solid-edge
  6
CONTINUOUS
 62
    7
420
    0
370
   50
100
AcDbVertex
100
AcDb2dVertex
 10
-155.1582480084676
 20
-147.1817638868555
 30
0
  0
VERTEX
  5
3B1
100
AcDbEntity
  8
s005-#def-solid-edge
  6
CONTINUOUS
 62
    7
420
    0
370
   50
100
AcDbVertex
100
AcDb2dVertex
 10
-155.1692689597469
 20
-147.1138336403855
 30
0
  0
VERTEX
  5
3B2
100
AcDbEntity
  8
s005-#def-solid-edge
  6
CONTINUOUS
 62
    7
420
    0
370
   50
100
AcDbVertex
100
AcDb2dVertex
 10
-155.1619742507143
 20
-147.0479307310085
 30
0
  0
VERTEX
  5
3B3
100
AcDbEntity
  8
s005-#def-solid-edge
  6
CONTINUOUS
 62
    7
420
    0
370
   50
100
AcDbVertex
100
AcDb2dVertex
 10
-155.137611600457
 20
-146.9862633367335
 30
0
  0
VERTEX
  5
3B4
100
AcDbEntity
  8
s005-#def-solid-edge
  6
CONTINUOUS
 62
    7
420
    0
370
   50
100
AcDbVertex
100
AcDb2dVertex
 10
-155.0961104193437
 20
-146.9313667820257
 30
0
  0
VERTEX
  5
3B5
100
AcDbEntity
  8
s005-#def-solid-edge
  6
CONTINUOUS
 62
    7
420
    0
370
   50
100
AcDbVertex
100
AcDb2dVertex
 10
-155.041213864636
 20
-146.8898656009125
 30
0
  0
VERTEX
  5
3B6
100
AcDbEntity
  8
s005-#def-solid-edge
  6
CONTINUOUS
 62
    7
420
    0
370
   50
100
AcDbVertex
100
AcDb2dVertex
 10
-154.979546470361
 20
-146.8655029506552
 30
0
  0
VERTEX
  5
3B7
100
AcDbEntity
  8
s005-#def-solid-edge
  6
CONTINUOUS
 62
    7
420
    0
370
   50
100
AcDbVertex
100
AcDb2dVertex
 10
-154.9136435609839
 20
-146.8582082416226
 30
0
  0
VERTEX
  5
3B8
100
AcDbEntity
  8
s005-#def-solid-edge
  6
CONTINUOUS
 62
    7
420
    0
370
   50
100
AcDbVertex
100
AcDb2dVertex
 10
-154.845713314514
 20
-146.8692291929018
 30
0
  0
VERTEX
  5
3B9
100
AcDbEntity
  8
s005-#def-solid-edge
  6
CONTINUOUS
 62
    7
420
    0
370
   50
100
AcDbVertex
100
AcDb2dVertex
 10
-154.7833617043468
 20
-146.898354035599
 30
0
  0
VERTEX
  5
3BA
100
AcDbEntity
  8
s005-#def-solid-edge
  6
CONTINUOUS
 62
    7
420
    0
370
   50
100
AcDbVertex
100
AcDb2dVertex
 10
-154.7329947259221
 20
-146.9414768106557
 30
0
  0
VERTEX
  5
3BB
100
AcDbEntity
  8
s005-#def-solid-edge
  6
CONTINUOUS
 62
    7
420
    0
370
   50
100
AcDbVertex
100
AcDb2dVertex
 10
-154.6561608921436
 20
-147.0112268825024
 30
0
  0
VERTEX
  5
3BC
100
AcDbEntity
  8
s005-#def-solid-edge
  6
CONTINUOUS
 62
    7
420
    0
370
   50
100
AcDbVertex
100
AcDb2dVertex
 10
-154.5644408749041
 20
-147.06457894191
 30
0
  0
VERTEX
  5
3BD
100
AcDbEntity
  8
s005-#def-solid-edge
  6
CONTINUOUS
 62
    7
420
    0
370
   50
100
AcDbVertex
100
AcDb2dVertex
 10
-154.463527919552
 20
-147.0973749667868
 30
0
  0
VERTEX
  5
3BE
100
AcDbEntity
  8
s005-#def-solid-edge
  6
CONTINUOUS
 62
    7
420
    0
370
   50
100
AcDbVertex
100
AcDb2dVertex
 10
-154.3603167296721
 20
-147.1081434773224
 30
0
  0
VERTEX
  5
3BF
100
AcDbEntity
  8
s005-#def-solid-edge
  6
CONTINUOUS
 62
    7
420
    0
370
   50
100
AcDbVertex
100
AcDb2dVertex
 10
-135.4783507184221
 20
-147.1081434773224
 30
0
  0
VERTEX
  5
3C0
100
AcDbEntity
  8
s005-#def-solid-edge
  6
CONTINUOUS
 62
    7
420
    0
370
   50
100
AcDbVertex
100
AcDb2dVertex
 10
-135.3751395285421
 20
-147.0973749667868
 30
0
  0
VERTEX
  5
3C1
100
AcDbEntity
  8
s005-#def-solid-edge
  6
CONTINUOUS
 62
    7
420
    0
370
   50
100
AcDbVertex
100
AcDb2dVertex
 10
-135.2742265731901
 20
-147.06457894191
 30
0
  0
VERTEX
  5
3C2
100
AcDbEntity
  8
s005-#def-solid-edge
  6
CONTINUOUS
 62
    7
420
    0
370
   50
100
AcDbVertex
100
AcDb2dVertex
 10
-135.1825065559501
 20
-147.0112268825021
 30
0
  0
VERTEX
  5
3C3
100
AcDbEntity
  8
s005-#def-solid-edge
  6
CONTINUOUS
 62
    7
420
    0
370
   50
100
AcDbVertex
100
AcDb2dVertex
 10
-135.105672722172
 20
-146.9414768106557
 30
0
  0
VERTEX
  5
3C4
100
AcDbEntity
  8
s005-#def-solid-edge
  6
CONTINUOUS
 62
    7
420
    0
370
   50
100
AcDbVertex
100
AcDb2dVertex
 10
-135.0553057437474
 20
-146.898354035599
 30
0
  0
VERTEX
  5
3C5
100
AcDbEntity
  8
s005-#def-solid-edge
  6
CONTINUOUS
 62
    7
420
    0
370
   50
100
AcDbVertex
100
AcDb2dVertex
 10
-134.9929541335802
 20
-146.8692291929019
 30
0
  0
VERTEX
  5
3C6
100
AcDbEntity
  8
s005-#def-solid-edge
  6
CONTINUOUS
 62
    7
420
    0
370
   50
100
AcDbVertex
100
AcDb2dVertex
 10
-134.9250238871102
 20
-146.8582082416226
 30
0
  0
VERTEX
  5
3C7
100
AcDbEntity
  8
s005-#def-solid-edge
  6
CONTINUOUS
 62
    7
420
    0
370
   50
100
AcDbVertex
100
AcDb2dVertex
 10
-134.8591209777332
 20
-146.8655029506552
 30
0
  0
VERTEX
  5
3C8
100
AcDbEntity
  8
s005-#def-solid-edge
  6
CONTINUOUS
 62
    7
420
    0
370
   50
100
AcDbVertex
100
AcDb2dVertex
 10
-134.7974535834581
 20
-146.8898656009125
 30
0
  0
VERTEX
  5
3C9
100
AcDbEntity
  8
s005-#def-solid-edge
  6
CONTINUOUS
 62
    7
420
    0
370
   50
100
AcDbVertex
100
AcDb2dVertex
 10
-134.7425570287505
 20
-146.9313667820257
 30
0
  0
VERTEX
  5
3CA
100
AcDbEntity
  8
s005-#def-solid-edge
  6
CONTINUOUS
 62
    7
420
    0
370
   50
100
AcDbVertex
100
AcDb2dVertex
 10
-134.7010558476371
 20
-146.9862633367335
 30
0
  0
VERTEX
  5
3CB
100
AcDbEntity
  8
s005-#def-solid-edge
  6
CONTINUOUS
 62
    7
420
    0
370
   50
100
AcDbVertex
100
AcDb2dVertex
 10
-134.6766931973798
 20
-147.0479307310085
 30
0
  0
VERTEX
  5
3CC
100
AcDbEntity
  8
s005-#def-solid-edge
  6
CONTINUOUS
 62
    7
420
    0
370
   50
100
AcDbVertex
100
AcDb2dVertex
 10
-134.6693984883473
 20
-147.1138336403855
 30
0
  0
VERTEX
  5
3CD
100
AcDbEntity
  8
s005-#def-solid-edge
  6
CONTINUOUS
 62
    7
420
    0
370
   50
100
AcDbVertex
100
AcDb2dVertex
 10
-134.6804194396265
 20
-147.1817638868555
 30
0
  0
VERTEX
  5
3CE
100
AcDbEntity
  8
s005-#def-solid-edge
  6
CONTINUOUS
 62
    7
420
    0
370
   50
100
AcDbVertex
100
AcDb2dVertex
 10
-134.7095442823236
 20
-147.2441154970226
 30
0
  0
VERTEX
  5
3CF
100
AcDbEntity
  8
s005-#def-solid-edge
  6
CONTINUOUS
 62
    7
420
    0
370
   50
100
AcDbVertex
100
AcDb2dVertex
 10
-134.7526670573804
 20
-147.2944824754474
 30
0
  0
VERTEX
  5
3D0
100
AcDbEntity
  8
s005-#def-solid-edge
  6
CONTINUOUS
 62
    7
420
    0
370
   50
100
AcDbVertex
100
AcDb2dVertex
 10
-134.8224171292268
 20
-147.3713163092253
 30
0
  0
VERTEX
  5
3D1
100
AcDbEntity
  8
s005-#def-solid-edge
  6
CONTINUOUS
 62
    7
420
    0
370
   50
100
AcDbVertex
100
AcDb2dVertex
 10
-134.8757691886347
 20
-147.4630363264654
 30
0
  0
VERTEX
  5
3D2
100
AcDbEntity
  8
s005-#def-solid-edge
  6
CONTINUOUS
 62
    7
420
    0
370
   50
100
AcDbVertex
100
AcDb2dVertex
 10
-134.9085652135115
 20
-147.5639492818174
 30
0
  0
VERTEX
  5
3D3
100
AcDbEntity
  8
s005-#def-solid-edge
  6
CONTINUOUS
 62
    7
420
    0
370
   50
100
AcDbVertex
100
AcDb2dVertex
 10
-134.9193337240471
 20
-147.6671604716973
 30
0
  0
VERTEX
  5
3D4
100
AcDbEntity
  8
s005-#def-solid-edge
  6
CONTINUOUS
 62
    7
420
    0
370
   50
100
AcDbVertex
100
AcDb2dVertex
 10
-134.9193337240471
 20
-149.8491264829474
 30
0
  0
VERTEX
  5
3D5
100
AcDbEntity
  8
s005-#def-solid-edge
  6
CONTINUOUS
 62
    7
420
    0
370
   50
100
AcDbVertex
100
AcDb2dVertex
 10
-134.9085652135113
 20
-149.952337672828
 30
0
  0
VERTEX
  5
3D6
100
AcDbEntity
  8
s005-#def-solid-edge
  6
CONTINUOUS
 62
    7
420
    0
370
   50
100
AcDbVertex
100
AcDb2dVertex
 10
-134.8757691886346
 20
-150.0532506281794
 30
0
  0
VERTEX
  5
3D7
100
AcDbEntity
  8
s005-#def-solid-edge
  6
CONTINUOUS
 62
    7
420
    0
370
   50
100
AcDbVertex
100
AcDb2dVertex
 10
-134.8224171292268
 20
-150.1449706454194
 30
0
  0
VERTEX
  5
3D8
100
AcDbEntity
  8
s005-#def-solid-edge
  6
CONTINUOUS
 62
    7
420
    0
370
   50
100
AcDbVertex
100
AcDb2dVertex
 10
-134.7526670573804
 20
-150.2218044791974
 30
0
  0
VERTEX
  5
3D9
100
AcDbEntity
  8
s005-#def-solid-edge
  6
CONTINUOUS
 62
    7
420
    0
370
   50
100
AcDbVertex
100
AcDb2dVertex
 10
-134.7095442823236
 20
-150.2721714576221
 30
0
  0
VERTEX
  5
3DA
100
AcDbEntity
  8
s005-#def-solid-edge
  6
CONTINUOUS
 62
    7
420
    0
370
   50
100
AcDbVertex
100
AcDb2dVertex
 10
-134.6804194396265
 20
-150.3345230677893
 30
0
  0
VERTEX
  5
3DB
100
AcDbEntity
  8
s005-#def-solid-edge
  6
CONTINUOUS
 62
    7
420
    0
370
   50
100
AcDbVertex
100
AcDb2dVertex
 10
-134.6693984883473
 20
-150.4024533142593
 30
0
  0
VERTEX
  5
3DC
100
AcDbEntity
  8
s005-#def-solid-edge
  6
CONTINUOUS
 62
    7
420
    0
370
   50
100
AcDbVertex
100
AcDb2dVertex
 10
-134.6766931973798
 20
-150.4683562236363
 30
0
  0
VERTEX
  5
3DD
100
AcDbEntity
  8
s005-#def-solid-edge
  6
CONTINUOUS
 62
    7
420
    0
370
   50
100
AcDbVertex
100
AcDb2dVertex
 10
-134.7010558476371
 20
-150.5300236179113
 30
0
  0
SEQEND
  5
3DE
100
AcDbEntity
  8
s005-#def-solid-edge
  6
CONTINUOUS
 62
    7
420
    0
370
   50
  0
POLYLINE
  5
3DF
100
AcDbEntity
  8
s005-#def-solid-edge
  6
CONTINUOUS
 62
    7
420
    0
370
   50
100
AcDb2dPolyline
 10
0
 20
0
 30
0
 70
    0
  0
VERTEX
  5
3E0
100
AcDbEntity
  8
s005-#def-solid-edge
  6
CONTINUOUS
 62
    7
420
    0
370
   50
100
AcDbVertex
100
AcDb2dVertex
 10
-284.7986292180228
 20
-135.7661197999319
 30
0
  0
VERTEX
  5
3E1
100
AcDbEntity
  8
s005-#def-solid-edge
  6
CONTINUOUS
 62
    7
420
    0
370
   50
100
AcDbVertex
100
AcDb2dVertex
 10
-284.0358520568673
 20
-136.2671532196527
 30
0
  0
VERTEX
  5
3E2
100
AcDbEntity
  8
s005-#def-solid-edge
  6
CONTINUOUS
 62
    7
420
    0
370
   50
100
AcDbVertex
100
AcDb2dVertex
 10
-283.5348186371465
 20
-137.0299303808082
 30
0
  0
VERTEX
  5
3E3
100
AcDbEntity
  8
s005-#def-solid-edge
  6
CONTINUOUS
 62
    7
420
    0
370
   50
100
AcDbVertex
100
AcDb2dVertex
 10
-283.376842314537
 20
-137.8581434773224
 30
0
  0
VERTEX
  5
3E4
100
AcDbEntity
  8
s005-#def-solid-edge
  6
CONTINUOUS
 62
    7
420
    0
370
   50
100
AcDbVertex
100
AcDb2dVertex
 10
-283.5348186371465
 20
-138.6863565738366
 30
0
  0
VERTEX
  5
3E5
100
AcDbEntity
  8
s005-#def-solid-edge
  6
CONTINUOUS
 62
    7
420
    0
370
   50
100
AcDbVertex
100
AcDb2dVertex
 10
-284.0358520568673
 20
-139.4491337349921
 30
0
  0
VERTEX
  5
3E6
100
AcDbEntity
  8
s005-#def-solid-edge
  6
CONTINUOUS
 62
    7
420
    0
370
   50
100
AcDbVertex
100
AcDb2dVertex
 10
-284.7986292178574
 20
-139.9501671546474
 30
0
  0
VERTEX
  5
3E7
100
AcDbEntity
  8
s005-#def-solid-edge
  6
CONTINUOUS
 62
    7
420
    0
370
   50
100
AcDbVertex
100
AcDb2dVertex
 10
-285.626842314537
 20
-140.1081434773224
 30
0
  0
VERTEX
  5
3E8
100
AcDbEntity
  8
s005-#def-solid-edge
  6
CONTINUOUS
 62
    7
420
    0
370
   50
100
AcDbVertex
100
AcDb2dVertex
 10
-286.4550554110513
 20
-139.9501671547129
 30
0
  0
VERTEX
  5
3E9
100
AcDbEntity
  8
s005-#def-solid-edge
  6
CONTINUOUS
 62
    7
420
    0
370
   50
100
AcDbVertex
100
AcDb2dVertex
 10
-287.2178325722068
 20
-139.4491337349921
 30
0
  0
VERTEX
  5
3EA
100
AcDbEntity
  8
s005-#def-solid-edge
  6
CONTINUOUS
 62
    7
420
    0
370
   50
100
AcDbVertex
100
AcDb2dVertex
 10
-287.7188659919275
 20
-138.6863565738366
 30
0
  0
VERTEX
  5
3EB
100
AcDbEntity
  8
s005-#def-solid-edge
  6
CONTINUOUS
 62
    7
420
    0
370
   50
100
AcDbVertex
100
AcDb2dVertex
 10
-287.876842314537
 20
-137.8581434773224
 30
0
  0
VERTEX
  5
3EC
100
AcDbEntity
  8
s005-#def-solid-edge
  6
CONTINUOUS
 62
    7
420
    0
370
   50
100
AcDbVertex
100
AcDb2dVertex
 10
-287.7188659919275
 20
-137.0299303808082
 30
0
  0
VERTEX
  5
3ED
100
AcDbEntity
  8
s005-#def-solid-edge
  6
CONTINUOUS
 62
    7
420
    0
370
   50
100
AcDbVertex
100
AcDb2dVertex
 10
-287.2178325722068
 20
-136.2671532196527
 30
0
  0
VERTEX
  5
3EE
100
AcDbEntity
  8
s005-#def-solid-edge
  6
CONTINUOUS
 62
    7
420
    0
370
   50
100
AcDbVertex
100
AcDb2dVertex
 10
-286.4550554110513
 20
-135.7661197999319
 30
0
  0
VERTEX
  5
3EF
100
AcDbEntity
  8
s005-#def-solid-edge
  6
CONTINUOUS
 62
    7
420
    0
370
   50
100
AcDbVertex
100
AcDb2dVertex
 10
-285.626842314537
 20
-135.6081434773224
 30
0
  0
VERTEX
  5
3F0
100
AcDbEntity
  8
s005-#def-solid-edge
  6
CONTINUOUS
 62
    7
420
    0
370
   50
100
AcDbVertex
100
AcDb2dVertex
 10
-284.7986292180228
 20
-135.7661197999319
 30
0
  0
SEQEND
  5
3F1
100
AcDbEntity
  8
s005-#def-solid-edge
  6
CONTINUOUS
 62
    7
420
    0
370
   50
  0
ENDSEC
  0
SECTION
  2
OBJECTS
  0
DICTIONARY
  5
C
330
0
100
AcDbDictionary
281
    1
  3
ACAD_GROUP
350
D
  0
DICTIONARY
  5
D
330
C
100
AcDbDictionary
281
    1
  0
ENDSEC
  0
EOF
