999
dxfrw 0.6.3
  0
SECTION
  2
HEADER
  9
$ACADVER
  1
AC1021
  9
$DWGCODEPAGE
  3
ANSI_1252
  9
$INSBASE
 10
0
 20
0
 30
0
  9
$EXTMIN
 10
1e+20
 20
1e+20
 30
1e+20
  9
$EXTMAX
 10
-1e+20
 20
-1e+20
 30
-1e+20
  9
$LIMMIN
 10
0
 20
0
  9
$LIMMAX
 10
420
 20
297
  9
$ORTHOMODE
 70
    0
  9
$REGENMODE
 70
    1
  9
$FILLMODE
 70
    1
  9
$QTEXTMODE
 70
    0
  9
$MIRRTEXT
 70
    0
  9
$LTSCALE
 40
1
  9
$ATTMODE
 70
    0
  9
$TEXTSIZE
 40
2.5
  9
$TRACEWID
 40
15.68
  9
$TEXTSTYLE
  7
STANDARD
  9
$CLAYER
  8
0
  9
$CELTYPE
  6
BYLAYER
  9
$CECOLOR
 62
  256
  9
$CELTSCALE
 40
1
  9
$DISPSILH
 70
    0
  9
$DIMSCALE
 40
1
  9
$DIMASZ
 40
2.5
  9
$DIMEXO
 40
0.625
  9
$DIMDLI
 40
3.75
  9
$DIMRND
 40
0
  9
$DIMDLE
 40
0
  9
$DIMEXE
 40
1.25
  9
$DIMTP
 40
0
  9
$DIMTM
 40
0
  9
$DIMTXT
 40
2.5
  9
$DIMCEN
 40
2.5
  9
$DIMTSZ
 40
0
  9
$DIMTOL
 70
    0
  9
$DIMLIM
 70
    0
  9
$DIMTIH
 70
    0
  9
$DIMTOH
 70
    0
  9
$DIMSE1
 70
    0
  9
$DIMSE2
 70
    0
  9
$DIMTAD
 70
    1
  9
$DIMZIN
 70
    8
  9
$DIMBLK
  1

  9
$DIMASO
 70
    1
  9
$DIMSHO
 70
    1
  9
$DIMPOST
  1

  9
$DIMAPOST
  1

  9
$DIMALT
 70
    0
  9
$DIMALTD
 70
    3
  9
$DIMALTF
 40
0.03937
  9
$DIMLFAC
 40
1
  9
$DIMTOFL
 70
    1
  9
$DIMTVP
 40
0
  9
$DIMTIX
 70
    0
  9
$DIMSOXD
 70
    0
  9
$DIMSAH
 70
    0
  9
$DIMBLK1
  1

  9
$DIMBLK2
  1

  9
$DIMSTYLE
  2
STANDARD
  9
$DIMCLRD
 70
    0
  9
$DIMCLRE
 70
    0
  9
$DIMCLRT
 70
    0
  9
$DIMTFAC
 40
1
  9
$DIMGAP
 40
0.625
  9
$DIMJUST
 70
    0
  9
$DIMSD1
 70
    0
  9
$DIMSD2
 70
    0
  9
$DIMTOLJ
 70
    0
  9
$DIMTZIN
 70
    8
  9
$DIMALTZ
 70
    0
  9
$DIMALTTZ
 70
    0
  9
$DIMUPT
 70
    0
  9
$DIMDEC
 70
    2
  9
$DIMTDEC
 70
    2
  9
$DIMALTU
 70
    2
  9
$DIMALTTD
 70
    3
  9
$DIMTXSTY
  7
STANDARD
  9
$DIMAUNIT
 70
    0
  9
$DIMADEC
 70
    0
  9
$DIMALTRND
 40
0
  9
$DIMAZIN
 70
    0
  9
$DIMDSEP
 70
   44
  9
$DIMATFIT
 70
    3
  9
$DIMFRAC
 70
    0
  9
$DIMLDRBLK
  1
STANDARD
  9
$DIMLUNIT
 70
    2
  9
$DIMLWD
 70
   -2
  9
$DIMLWE
 70
   -2
  9
$DIMTMOVE
 70
    0
  9
$DIMFXL
 40
1
  9
$DIMFXLON
 70
    0
  9
$DIMJOGANG
 40
0.7854
  9
$DIMTFILL
 70
    0
  9
$DIMTFILLCLR
 70
    0
  9
$DIMARCSYM
 70
    0
  9
$DIMLTYPE
  6

  9
$DIMLTEX1
  6

  9
$DIMLTEX2
  6

  9
$LUNITS
 70
    2
  9
$LUPREC
 70
    4
  9
$SKETCHINC
 40
1
  9
$FILLETRAD
 40
0
  9
$AUNITS
 70
    0
  9
$AUPREC
 70
    2
  9
$MENU
  1
.
  9
$ELEVATION
 40
0
  9
$PELEVATION
 40
0
  9
$THICKNESS
 40
0
  9
$LIMCHECK
 70
    0
  9
$CHAMFERA
 40
0
  9
$CHAMFERB
 40
0
  9
$CHAMFERC
 40
0
  9
$CHAMFERD
 40
0
  9
$SKPOLY
 70
    0
  9
$USRTIMER
 70
    1
  9
$ANGBASE
 50
0
  9
$ANGDIR
 70
    0
  9
$PDMODE
 70
   34
  9
$PDSIZE
 40
0
  9
$PLINEWID
 40
0
  9
$SPLFRAME
 70
    0
  9
$SPLINETYPE
 70
    2
  9
$SPLINESEGS
 70
    8
  9
$HANDSEED
  5
20000
  9
$SURFTAB1
 70
    6
  9
$SURFTAB2
 70
    6
  9
$SURFTYPE
 70
    6
  9
$SURFU
 70
    6
  9
$SURFV
 70
    6
  9
$UCSBASE
  2

  9
$UCSNAME
  2

  9
$UCSORG
 10
0
 20
0
 30
0
  9
$UCSXDIR
 10
1
 20
0
 30
0
  9
$UCSYDIR
 10
0
 20
1
 30
0
  9
$UCSORTHOREF
  2

  9
$UCSORTHOVIEW
 70
    0
  9
$UCSORGTOP
 10
0
 20
0
 30
0
  9
$UCSORGBOTTOM
 10
0
 20
0
 30
0
  9
$UCSORGLEFT
 10
0
 20
0
 30
0
  9
$UCSORGRIGHT
 10
0
 20
0
 30
0
  9
$UCSORGFRONT
 10
0
 20
0
 30
0
  9
$UCSORGBACK
 10
0
 20
0
 30
0
  9
$PUCSBASE
  2

  9
$PUCSNAME
  2

  9
$PUCSORG
 10
0
 20
0
 30
0
  9
$PUCSXDIR
 10
1
 20
0
 30
0
  9
$PUCSYDIR
 10
0
 20
1
 30
0
  9
$PUCSORTHOREF
  2

  9
$PUCSORTHOVIEW
 70
    0
  9
$PUCSORGTOP
 10
0
 20
0
 30
0
  9
$PUCSORGBOTTOM
 10
0
 20
0
 30
0
  9
$PUCSORGLEFT
 10
0
 20
0
 30
0
  9
$PUCSORGRIGHT
 10
0
 20
0
 30
0
  9
$PUCSORGFRONT
 10
0
 20
0
 30
0
  9
$PUCSORGBACK
 10
0
 20
0
 30
0
  9
$USERI1
 70
    0
  9
$USERI2
 70
    0
  9
$USERI3
 70
    0
  9
$USERI4
 70
    0
  9
$USERI5
 70
    0
  9
$USERR1
 40
0
  9
$USERR2
 40
0
  9
$USERR3
 40
0
  9
$USERR4
 40
0
  9
$USERR5
 40
0
  9
$WORLDVIEW
 70
    1
  9
$SHADEDGE
 70
    3
  9
$SHADEDIF
 70
   70
  9
$TILEMODE
 70
    1
  9
$MAXACTVP
 70
   64
  9
$PINSBASE
 10
0
 20
0
 30
0
  9
$PLIMCHECK
 70
    0
  9
$PEXTMIN
 10
0
 20
0
 30
0
  9
$PEXTMAX
 10
0
 20
0
 30
0
  9
$PLIMMIN
 10
0
 20
0
  9
$PLIMMAX
 10
297
 20
210
  9
$UNITMODE
 70
    0
  9
$VISRETAIN
 70
    1
  9
$PLINEGEN
 70
    0
  9
$PSLTSCALE
 70
    1
  9
$TREEDEPTH
 70
 3020
  9
$CMLSTYLE
  2
Standard
  9
$CMLJUST
 70
    0
  9
$CMLSCALE
 40
20
  9
$PROXYGRAPHICS
 70
    1
  9
$MEASUREMENT
 70
    1
  9
$CELWEIGHT
370
   -1
  9
$ENDCAPS
280
    0
  9
$JOINSTYLE
280
    0
  9
$LWDISPLAY
290
    0
  9
$INSUNITS
 70
    0
  9
$HYPERLINKBASE
  1

  9
$STYLESHEET
  1

  9
$XEDIT
290
    1
  9
$CEPSNTYPE
380
    0
  9
$PSTYLEMODE
290
    1
  9
$EXTNAMES
290
    1
  9
$PSVPSCALE
 40
0
  9
$OLESTARTUP
290
    0
  9
$SORTENTS
280
  127
  9
$INDEXCTL
280
    0
  9
$HIDETEXT
280
    1
  9
$XCLIPFRAME
290
    0
  9
$HALOGAP
280
    0
  9
$OBSCOLOR
 70
  257
  9
$OBSLTYPE
280
    0
  9
$INTERSECTIONDISPLAY
280
    0
  9
$INTERSECTIONCOLOR
 70
  257
  9
$DIMASSOC
280
    1
  9
$PROJECTNAME
  1

  9
$CAMERADISPLAY
290
    0
  9
$LENSLENGTH
 40
50
  9
$CAMERAHEIGHT
 40
0
  9
$STEPSPERSEC
 40
2
  9
$STEPSIZE
 40
50
  9
$3DDWFPREC
 40
2
  9
$PSOLWIDTH
 40
5
  9
$PSOLHEIGHT
 40
80
  9
$LOFTANG1
 40
1.570796326794897
  9
$LOFTANG2
 40
1.570796326794897
  9
$LOFTMAG1
 40
0
  9
$LOFTMAG2
 40
0
  9
$LOFTPARAM
 70
    7
  9
$LOFTNORMALS
280
    1
  9
$LATITUDE
 40
1
  9
$LONGITUDE
 40
1
  9
$NORTHDIRECTION
 40
0
  9
$TIMEZONE
 70
-8000
  9
$LIGHTGLYPHDISPLAY
280
    1
  9
$TILEMODELIGHTSYNCH
280
    1
  9
$SOLIDHIST
280
    1
  9
$SHOWHIST
280
    1
  9
$DWFFRAME
280
    2
  9
$DGNFRAME
280
    0
  9
$REALWORLDSCALE
290
    1
  9
$INTERFERECOLOR
 62
    1
  9
$CSHADOW
280
    0
  9
$SHADOWPLANELOCATION
 40
0
  0
ENDSEC
  0
SECTION
  2
CLASSES
  0
ENDSEC
  0
SECTION
  2
TABLES
  0
TABLE
  2
VPORT
  5
8
330
0
100
AcDbSymbolTable
 70
    1
  0
VPORT
  5
31
330
2
100
AcDbSymbolTableRecord
100
AcDbViewportTableRecord
  2
*ACTIVE
 70
    0
 10
0
 20
0
 11
1
 21
1
 12
0.651828
 22
-0.16
 13
0
 23
0
 14
10
 24
10
 15
10
 25
10
 16
0
 26
0
 36
1
 17
0
 27
0
 37
0
 40
5.13732
 41
2.4426877
 42
50
 43
0
 44
0
 50
0
 51
0
 71
    0
 72
  100
 73
    1
 74
    3
 75
    0
 76
    0
 77
    0
 78
    0
281
    0
 65
    1
110
0
120
0
130
0
111
1
121
0
131
0
112
0
122
1
132
0
 79
    0
146
0
348
10020
 60
    7
 61
    5
292
1
282
    1
141
0
142
0
 63
  250
421
3358443
  0
ENDTAB
  0
TABLE
  2
LTYPE
  5
5
330
0
100
AcDbSymbolTable
 70
    4
  0
LTYPE
  5
14
330
5
100
AcDbSymbolTableRecord
100
AcDbLinetypeTableRecord
  2
ByBlock
 70
    0
  3

 72
   65
 73
    0
 40
0
  0
LTYPE
  5
15
330
5
100
AcDbSymbolTableRecord
100
AcDbLinetypeTableRecord
  2
ByLayer
 70
    0
  3

 72
   65
 73
    0
 40
0
  0
LTYPE
  5
16
330
5
100
AcDbSymbolTableRecord
100
AcDbLinetypeTableRecord
  2
Continuous
 70
    0
  3
Solid line
 72
   65
 73
    0
 40
0
  0
LTYPE
  5
32
330
5
100
AcDbSymbolTableRecord
100
AcDbLinetypeTableRecord
  2
DASHED
 70
    0
  3

 72
   65
 73
    2
 40
3
 49
1
 74
    0
 49
-2
 74
    0
  0
LTYPE
  5
33
330
5
100
AcDbSymbolTableRecord
100
AcDbLinetypeTableRecord
  2
DASHED
 70
    0
  3

 72
   65
 73
    2
 40
2
 49
1
 74
    0
 49
-1
 74
    0
  0
LTYPE
  5
34
330
5
100
AcDbSymbolTableRecord
100
AcDbLinetypeTableRecord
  2
DASHEDX2
 70
    0
  3

 72
   65
 73
    2
 40
3
 49
2
 74
    0
 49
-1
 74
    0
  0
LTYPE
  5
35
330
5
100
AcDbSymbolTableRecord
100
AcDbLinetypeTableRecord
  2
DASHDOT
 70
    0
  3

 72
   65
 73
    4
 40
3
 49
1
 74
    0
 49
-1
 74
    0
 49
0
 74
    0
 49
-1
 74
    0
  0
LTYPE
  5
36
330
5
100
AcDbSymbolTableRecord
100
AcDbLinetypeTableRecord
  2
DIVIDE
 70
    0
  3

 72
   65
 73
    6
 40
4
 49
1
 74
    0
 49
-1
 74
    0
 49
0
 74
    0
 49
-1
 74
    0
 49
0
 74
    0
 49
-1
 74
    0
  0
LTYPE
  5
37
330
5
100
AcDbSymbolTableRecord
100
AcDbLinetypeTableRecord
  2
DOT
 70
    0
  3

 72
   65
 73
    2
 40
1
 49
1
 74
    0
 49
0
 74
    0
  0
ENDTAB
  0
TABLE
  2
LAYER
  5
2
330
0
100
AcDbSymbolTable
 70
    1
  0
LAYER
  5
38
330
2
100
AcDbSymbolTableRecord
100
AcDbLayerTableRecord
  2
dimensions
 70
    0
 62
    7
  6
CONTINUOUS
370
   -3
390
F
  0
LAYER
  5
39
330
2
100
AcDbSymbolTableRecord
100
AcDbLayerTableRecord
  2
text
 70
    0
 62
    7
  6
CONTINUOUS
370
   -3
390
F
  0
LAYER
  5
3A
330
2
100
AcDbSymbolTableRecord
100
AcDbLayerTableRecord
  2
s005-#def-solid-edge
 70
    0
 62
    7
  6
CONTINUOUS
370
   -3
390
F
  0
LAYER
  5
10
330
2
100
AcDbSymbolTableRecord
100
AcDbLayerTableRecord
  2
0
 70
    0
 62
    7
  6
CONTINUOUS
370
   -3
390
F
  0
ENDTAB
  0
TABLE
  2
STYLE
  5
3
330
0
100
AcDbSymbolTable
 70
    3
  0
STYLE
  5
3B
330
2
100
AcDbSymbolTableRecord
100
AcDbTextStyleTableRecord
  2
unicode
 70
    0
 40
0
 41
1
 50
0
 71
    0
 42
1
  3
unicode
  4

  0
STYLE
  5
3C
330
2
100
AcDbSymbolTableRecord
100
AcDbTextStyleTableRecord
  2
Standard
 70
    0
 40
0
 41
1
 50
0
 71
    0
 42
1
  3
txt
  4

  0
ENDTAB
  0
TABLE
  2
VIEW
  5
6
330
0
100
AcDbSymbolTable
 70
    0
  0
ENDTAB
  0
TABLE
  2
UCS
  5
7
330
0
100
AcDbSymbolTable
 70
    0
  0
ENDTAB
  0
TABLE
  2
APPID
  5
9
330
0
100
AcDbSymbolTable
 70
    1
  0
APPID
  5
12
330
9
100
AcDbSymbolTableRecord
100
AcDbRegAppTableRecord
  2
ACAD
 70
    0
  0
ENDTAB
  0
TABLE
  2
DIMSTYLE
  5
A
330
0
100
AcDbSymbolTable
 70
    1
100
AcDbDimStyleTable
 71
    1
  0
DIMSTYLE
105
3D
330
A
100
AcDbSymbolTableRecord
100
AcDbDimStyleTableRecord
  2
Standard
 70
    0
 40
1
 41
2.5
 42
0.625
 43
3.75
 44
1.25
 45
0
 46
0
 47
0
 48
0
140
2.5
141
2.5
142
0
143
0.03937007874015748
144
1
145
0
146
1
147
0.625
148
0
 71
    0
 72
    0
 73
    0
 74
    0
 75
    0
 76
    0
 77
    1
 78
    8
 79
    0
170
    0
171
    3
172
    1
173
    0
174
    0
175
    0
176
    0
177
    0
178
    0
179
    0
271
    2
272
    2
273
    2
274
    3
275
    0
276
    0
277
    2
278
   44
279
    0
280
    0
281
    0
282
    0
283
    0
284
    8
285
    0
286
    0
288
    0
289
    3
341

371
   -2
372
   -2
  0
ENDTAB
  0
TABLE
  2
BLOCK_RECORD
  5
1
330
0
100
AcDbSymbolTable
 70
    2
  0
BLOCK_RECORD
  5
1F
330
1
100
AcDbSymbolTableRecord
100
AcDbBlockTableRecord
  2
*Model_Space
 70
    0
280
    1
281
    0
  0
BLOCK_RECORD
  5
1E
330
1
100
AcDbSymbolTableRecord
100
AcDbBlockTableRecord
  2
*Paper_Space
 70
    0
280
    1
281
    0
  0
ENDTAB
  0
ENDSEC
  0
SECTION
  2
BLOCKS
  0
BLOCK
  5
20
330
1F
100
AcDbEntity
  8
0
100
AcDbBlockBegin
  2
*Model_Space
 70
    0
 10
0
 20
0
 30
0
  3
*Model_Space
  1

  0
ENDBLK
  5
21
330
1F
100
AcDbEntity
  8
0
100
AcDbBlockEnd
  0
BLOCK
  5
1C
330
1B
100
AcDbEntity
  8
0
100
AcDbBlockBegin
  2
*Paper_Space
 70
    0
 10
0
 20
0
 30
0
  3
*Paper_Space
  1

  0
ENDBLK
  5
1D
330
1F
100
AcDbEntity
  8
0
100
AcDbBlockEnd
  0
ENDSEC
  0
SECTION
  2
ENTITIES
  0
POLYLINE
  5
3E
100
AcDbEntity
  8
s005-#def-solid-edge
  6
CONTINUOUS
 62
    7
420
    0
370
   30
100
AcDb2dPolyline
 10
0
 20
0
 30
0
 70
    0
  0
VERTEX
  5
3F
100
AcDbEntity
  8
s005-#def-solid-edge
  6
CONTINUOUS
 62
    7
420
    0
370
   30
100
AcDbVertex
100
AcDb2dVertex
 10
297.9158011522869
 20
125.032814222588
 30
0
  0
VERTEX
  5
40
100
AcDbEntity
  8
s005-#def-solid-edge
  6
CONTINUOUS
 62
    7
420
    0
370
   30
100
AcDbVertex
100
AcDb2dVertex
 10
297.9158011522869
 20
138.8745018274103
 30
0
  0
VERTEX
  5
41
100
AcDbEntity
  8
s005-#def-solid-edge
  6
CONTINUOUS
 62
    7
420
    0
370
   30
100
AcDbVertex
100
AcDb2dVertex
 10
-88.08419884771327
 20
138.8745018274103
 30
0
  0
VERTEX
  5
42
100
AcDbEntity
  8
s005-#def-solid-edge
  6
CONTINUOUS
 62
    7
420
    0
370
   30
100
AcDbVertex
100
AcDb2dVertex
 10
-88.08419884771327
 20
125.032814222588
 30
0
  0
VERTEX
  5
43
100
AcDbEntity
  8
s005-#def-solid-edge
  6
CONTINUOUS
 62
    7
420
    0
370
   30
100
AcDbVertex
100
AcDb2dVertex
 10
-88.05773468506733
 20
124.6700188790057
 30
0
  0
VERTEX
  5
44
100
AcDbEntity
  8
s005-#def-solid-edge
  6
CONTINUOUS
 62
    7
420
    0
370
   30
100
AcDbVertex
100
AcDb2dVertex
 10
-87.97776661710408
 20
124.311126386101
 30
0
  0
VERTEX
  5
45
100
AcDbEntity
  8
s005-#def-solid-edge
  6
CONTINUOUS
 62
    7
420
    0
370
   30
100
AcDbVertex
100
AcDb2dVertex
 10
-87.84602138390009
 20
123.9678452959064
 30
0
  0
VERTEX
  5
46
100
AcDbEntity
  8
s005-#def-solid-edge
  6
CONTINUOUS
 62
    7
420
    0
370
   30
100
AcDbVertex
100
AcDb2dVertex
 10
-87.66753218104658
 20
123.6508872266066
 30
0
  0
VERTEX
  5
47
100
AcDbEntity
  8
s005-#def-solid-edge
  6
CONTINUOUS
 62
    7
420
    0
370
   30
100
AcDbVertex
100
AcDb2dVertex
 10
-87.60015160485902
 20
123.4997945514019
 30
0
  0
VERTEX
  5
48
100
AcDbEntity
  8
s005-#def-solid-edge
  6
CONTINUOUS
 62
    7
420
    0
370
   30
100
AcDbVertex
100
AcDb2dVertex
 10
-87.58668959767691
 20
123.324656605691
 30
0
  0
VERTEX
  5
49
100
AcDbEntity
  8
s005-#def-solid-edge
  6
CONTINUOUS
 62
    7
420
    0
370
   30
100
AcDbVertex
100
AcDb2dVertex
 10
-87.63462923819027
 20
123.1556704626715
 30
0
  0
VERTEX
  5
4A
100
AcDbEntity
  8
s005-#def-solid-edge
  6
CONTINUOUS
 62
    7
420
    0
370
   30
100
AcDbVertex
100
AcDb2dVertex
 10
-87.73064545711991
 20
123.020948436817
 30
0
  0
VERTEX
  5
4B
100
AcDbEntity
  8
s005-#def-solid-edge
  6
CONTINUOUS
 62
    7
420
    0
370
   30
100
AcDbVertex
100
AcDb2dVertex
 10
-87.86536748297441
 20
122.9249322178875
 30
0
  0
VERTEX
  5
4C
100
AcDbEntity
  8
s005-#def-solid-edge
  6
CONTINUOUS
 62
    7
420
    0
370
   30
100
AcDbVertex
100
AcDb2dVertex
 10
-88.03435362599397
 20
122.876992577374
 30
0
  0
VERTEX
  5
4D
100
AcDbEntity
  8
s005-#def-solid-edge
  6
CONTINUOUS
 62
    7
420
    0
370
   30
100
AcDbVertex
100
AcDb2dVertex
 10
-88.20949157170476
 20
122.8904545845561
 30
0
  0
VERTEX
  5
4E
100
AcDbEntity
  8
s005-#def-solid-edge
  6
CONTINUOUS
 62
    7
420
    0
370
   30
100
AcDbVertex
100
AcDb2dVertex
 10
-88.36058424690937
 20
122.9578351607437
 30
0
  0
VERTEX
  5
4F
100
AcDbEntity
  8
s005-#def-solid-edge
  6
CONTINUOUS
 62
    7
420
    0
370
   30
100
AcDbVertex
100
AcDb2dVertex
 10
-88.6775423162092
 20
123.1363243635972
 30
0
  0
VERTEX
  5
50
100
AcDbEntity
  8
s005-#def-solid-edge
  6
CONTINUOUS
 62
    7
420
    0
370
   30
100
AcDbVertex
100
AcDb2dVertex
 10
-89.02082340640389
 20
123.2680695968012
 30
0
  0
VERTEX
  5
51
100
AcDbEntity
  8
s005-#def-solid-edge
  6
CONTINUOUS
 62
    7
420
    0
370
   30
100
AcDbVertex
100
AcDb2dVertex
 10
-89.37971589930847
 20
123.3480376647644
 30
0
  0
VERTEX
  5
52
100
AcDbEntity
  8
s005-#def-solid-edge
  6
CONTINUOUS
 62
    7
420
    0
370
   30
100
AcDbVertex
100
AcDb2dVertex
 10
-89.74251124289079
 20
123.3745018274103
 30
0
  0
VERTEX
  5
53
100
AcDbEntity
  8
s005-#def-solid-edge
  6
CONTINUOUS
 62
    7
420
    0
370
   30
100
AcDbVertex
100
AcDb2dVertex
 10
-109.0841988477131
 20
123.3745018274103
 30
0
  0
VERTEX
  5
54
100
AcDbEntity
  8
s005-#def-solid-edge
  6
CONTINUOUS
 62
    7
420
    0
370
   30
100
AcDbVertex
100
AcDb2dVertex
 10
-109.4522935572752
 20
123.3042901284728
 30
0
  0
VERTEX
  5
55
100
AcDbEntity
  8
s005-#def-solid-edge
  6
CONTINUOUS
 62
    7
420
    0
370
   30
100
AcDbVertex
100
AcDb2dVertex
 10
-109.7913056288998
 20
123.0816086085969
 30
0
  0
VERTEX
  5
56
100
AcDbEntity
  8
s005-#def-solid-edge
  6
CONTINUOUS
 62
    7
420
    0
370
   30
100
AcDbVertex
100
AcDb2dVertex
 10
-110.0139871487757
 20
122.7425965369722
 30
0
  0
VERTEX
  5
57
100
AcDbEntity
  8
s005-#def-solid-edge
  6
CONTINUOUS
 62
    7
420
    0
370
   30
100
AcDbVertex
100
AcDb2dVertex
 10
-110.0841988477133
 20
122.3745018274103
 30
0
  0
VERTEX
  5
58
100
AcDbEntity
  8
s005-#def-solid-edge
  6
CONTINUOUS
 62
    7
420
    0
370
   30
100
AcDbVertex
100
AcDb2dVertex
 10
-110.0841988477133
 20
65.37450182741034
 30
0
  0
VERTEX
  5
59
100
AcDbEntity
  8
s005-#def-solid-edge
  6
CONTINUOUS
 62
    7
420
    0
370
   30
100
AcDbVertex
100
AcDb2dVertex
 10
-110.0139871487758
 20
65.00640711784851
 30
0
  0
VERTEX
  5
5A
100
AcDbEntity
  8
s005-#def-solid-edge
  6
CONTINUOUS
 62
    7
420
    0
370
   30
100
AcDbVertex
100
AcDb2dVertex
 10
-109.7913056288997
 20
64.6673950462238
 30
0
  0
VERTEX
  5
5B
100
AcDbEntity
  8
s005-#def-solid-edge
  6
CONTINUOUS
 62
    7
420
    0
370
   30
100
AcDbVertex
100
AcDb2dVertex
 10
-109.4522935573485
 20
64.44471352637703
 30
0
  0
VERTEX
  5
5C
100
AcDbEntity
  8
s005-#def-solid-edge
  6
CONTINUOUS
 62
    7
420
    0
370
   30
100
AcDbVertex
100
AcDb2dVertex
 10
-109.0841988477131
 20
64.37450182741034
 30
0
  0
VERTEX
  5
5D
100
AcDbEntity
  8
s005-#def-solid-edge
  6
CONTINUOUS
 62
    7
420
    0
370
   30
100
AcDbVertex
100
AcDb2dVertex
 10
-89.74251124289084
 20
64.37450182741034
 30
0
  0
VERTEX
  5
5E
100
AcDbEntity
  8
s005-#def-solid-edge
  6
CONTINUOUS
 62
    7
420
    0
370
   30
100
AcDbVertex
100
AcDb2dVertex
 10
-89.37971589930849
 20
64.40096599005626
 30
0
  0
VERTEX
  5
5F
100
AcDbEntity
  8
s005-#def-solid-edge
  6
CONTINUOUS
 62
    7
420
    0
370
   30
100
AcDbVertex
100
AcDb2dVertex
 10
-89.02082340640372
 20
64.48093405801949
 30
0
  0
VERTEX
  5
60
100
AcDbEntity
  8
s005-#def-solid-edge
  6
CONTINUOUS
 62
    7
420
    0
370
   30
100
AcDbVertex
100
AcDb2dVertex
 10
-88.6775423162092
 20
64.61267929122353
 30
0
  0
VERTEX
  5
61
100
AcDbEntity
  8
s005-#def-solid-edge
  6
CONTINUOUS
 62
    7
420
    0
370
   30
100
AcDbVertex
100
AcDb2dVertex
 10
-88.36058424690937
 20
64.79116849407701
 30
0
  0
VERTEX
  5
62
100
AcDbEntity
  8
s005-#def-solid-edge
  6
CONTINUOUS
 62
    7
420
    0
370
   30
100
AcDbVertex
100
AcDb2dVertex
 10
-88.2094915717047
 20
64.85854907026459
 30
0
  0
VERTEX
  5
63
100
AcDbEntity
  8
s005-#def-solid-edge
  6
CONTINUOUS
 62
    7
420
    0
370
   30
100
AcDbVertex
100
AcDb2dVertex
 10
-88.03435362599392
 20
64.87201107744673
 30
0
  0
VERTEX
  5
64
100
AcDbEntity
  8
s005-#def-solid-edge
  6
CONTINUOUS
 62
    7
420
    0
370
   30
100
AcDbVertex
100
AcDb2dVertex
 10
-87.86536748297441
 20
64.82407143693322
 30
0
  0
VERTEX
  5
65
100
AcDbEntity
  8
s005-#def-solid-edge
  6
CONTINUOUS
 62
    7
420
    0
370
   30
100
AcDbVertex
100
AcDb2dVertex
 10
-87.73064545711991
 20
64.7280552180036
 30
0
  0
VERTEX
  5
66
100
AcDbEntity
  8
s005-#def-solid-edge
  6
CONTINUOUS
 62
    7
420
    0
370
   30
100
AcDbVertex
100
AcDb2dVertex
 10
-87.63462923819033
 20
64.59333319214909
 30
0
  0
VERTEX
  5
67
100
AcDbEntity
  8
s005-#def-solid-edge
  6
CONTINUOUS
 62
    7
420
    0
370
   30
100
AcDbVertex
100
AcDb2dVertex
 10
-87.58668959767691
 20
64.42434704912955
 30
0
  0
VERTEX
  5
68
100
AcDbEntity
  8
s005-#def-solid-edge
  6
CONTINUOUS
 62
    7
420
    0
370
   30
100
AcDbVertex
100
AcDb2dVertex
 10
-87.60015160485908
 20
64.24920910341875
 30
0
  0
VERTEX
  5
69
100
AcDbEntity
  8
s005-#def-solid-edge
  6
CONTINUOUS
 62
    7
420
    0
370
   30
100
AcDbVertex
100
AcDb2dVertex
 10
-87.66753218104655
 20
64.09811642821404
 30
0
  0
VERTEX
  5
6A
100
AcDbEntity
  8
s005-#def-solid-edge
  6
CONTINUOUS
 62
    7
420
    0
370
   30
100
AcDbVertex
100
AcDb2dVertex
 10
-87.84602138390009
 20
63.78115835891424
 30
0
  0
VERTEX
  5
6B
100
AcDbEntity
  8
s005-#def-solid-edge
  6
CONTINUOUS
 62
    7
420
    0
370
   30
100
AcDbVertex
100
AcDb2dVertex
 10
-87.97776661710402
 20
63.43787726871967
 30
0
  0
VERTEX
  5
6C
100
AcDbEntity
  8
s005-#def-solid-edge
  6
CONTINUOUS
 62
    7
420
    0
370
   30
100
AcDbVertex
100
AcDb2dVertex
 10
-88.05773468506736
 20
63.0789847758149
 30
0
  0
VERTEX
  5
6D
100
AcDbEntity
  8
s005-#def-solid-edge
  6
CONTINUOUS
 62
    7
420
    0
370
   30
100
AcDbVertex
100
AcDb2dVertex
 10
-88.08419884771327
 20
62.71618943223264
 30
0
  0
VERTEX
  5
6E
100
AcDbEntity
  8
s005-#def-solid-edge
  6
CONTINUOUS
 62
    7
420
    0
370
   30
100
AcDbVertex
100
AcDb2dVertex
 10
-88.0841988477133
 20
56.87450182741034
 30
0
  0
VERTEX
  5
6F
100
AcDbEntity
  8
s005-#def-solid-edge
  6
CONTINUOUS
 62
    7
420
    0
370
   30
100
AcDbVertex
100
AcDb2dVertex
 10
-68.08419884771327
 20
56.87450182741034
 30
0
  0
VERTEX
  5
70
100
AcDbEntity
  8
s005-#def-solid-edge
  6
CONTINUOUS
 62
    7
420
    0
370
   30
100
AcDbVertex
100
AcDb2dVertex
 10
-68.08419884771327
 20
53.87450182741036
 30
0
  0
VERTEX
  5
71
100
AcDbEntity
  8
s005-#def-solid-edge
  6
CONTINUOUS
 62
    7
420
    0
370
   30
100
AcDbVertex
100
AcDb2dVertex
 10
-48.0841988477133
 20
53.87450182741034
 30
0
  0
VERTEX
  5
72
100
AcDbEntity
  8
s005-#def-solid-edge
  6
CONTINUOUS
 62
    7
420
    0
370
   30
100
AcDbVertex
100
AcDb2dVertex
 10
-48.0841988477133
 20
56.87450182741033
 30
0
  0
VERTEX
  5
73
100
AcDbEntity
  8
s005-#def-solid-edge
  6
CONTINUOUS
 62
    7
420
    0
370
   30
100
AcDbVertex
100
AcDb2dVertex
 10
-21.5127702762846
 20
56.87450182741034
 30
0
  0
VERTEX
  5
74
100
AcDbEntity
  8
s005-#def-solid-edge
  6
CONTINUOUS
 62
    7
420
    0
370
   30
100
AcDbVertex
100
AcDb2dVertex
 10
-21.51277027628453
 20
53.87450182741034
 30
0
  0
VERTEX
  5
75
100
AcDbEntity
  8
s005-#def-solid-edge
  6
CONTINUOUS
 62
    7
420
    0
370
   30
100
AcDbVertex
100
AcDb2dVertex
 10
-1.512770276284627
 20
53.87450182741033
 30
0
  0
VERTEX
  5
76
100
AcDbEntity
  8
s005-#def-solid-edge
  6
CONTINUOUS
 62
    7
420
    0
370
   30
100
AcDbVertex
100
AcDb2dVertex
 10
-1.512770276284598
 20
56.87450182741031
 30
0
  0
VERTEX
  5
77
100
AcDbEntity
  8
s005-#def-solid-edge
  6
CONTINUOUS
 62
    7
420
    0
370
   30
100
AcDbVertex
100
AcDb2dVertex
 10
25.05865829514396
 20
56.87450182741034
 30
0
  0
VERTEX
  5
78
100
AcDbEntity
  8
s005-#def-solid-edge
  6
CONTINUOUS
 62
    7
420
    0
370
   30
100
AcDbVertex
100
AcDb2dVertex
 10
25.05865829514394
 20
53.87450182741037
 30
0
  0
VERTEX
  5
79
100
AcDbEntity
  8
s005-#def-solid-edge
  6
CONTINUOUS
 62
    7
420
    0
370
   30
100
AcDbVertex
100
AcDb2dVertex
 10
45.05865829514396
 20
53.87450182741031
 30
0
  0
VERTEX
  5
7A
100
AcDbEntity
  8
s005-#def-solid-edge
  6
CONTINUOUS
 62
    7
420
    0
370
   30
100
AcDbVertex
100
AcDb2dVertex
 10
45.05865829514394
 20
56.87450182741034
 30
0
  0
VERTEX
  5
7B
100
AcDbEntity
  8
s005-#def-solid-edge
  6
CONTINUOUS
 62
    7
420
    0
370
   30
100
AcDbVertex
100
AcDb2dVertex
 10
71.63008686657258
 20
56.87450182741037
 30
0
  0
VERTEX
  5
7C
100
AcDbEntity
  8
s005-#def-solid-edge
  6
CONTINUOUS
 62
    7
420
    0
370
   30
100
AcDbVertex
100
AcDb2dVertex
 10
71.63008686657258
 20
53.87450182741037
 30
0
  0
VERTEX
  5
7D
100
AcDbEntity
  8
s005-#def-solid-edge
  6
CONTINUOUS
 62
    7
420
    0
370
   30
100
AcDbVertex
100
AcDb2dVertex
 10
91.63008686657263
 20
53.87450182741034
 30
0
  0
VERTEX
  5
7E
100
AcDbEntity
  8
s005-#def-solid-edge
  6
CONTINUOUS
 62
    7
420
    0
370
   30
100
AcDbVertex
100
AcDb2dVertex
 10
91.63008686657255
 20
56.87450182741034
 30
0
  0
VERTEX
  5
7F
100
AcDbEntity
  8
s005-#def-solid-edge
  6
CONTINUOUS
 62
    7
420
    0
370
   30
100
AcDbVertex
100
AcDb2dVertex
 10
118.2015154380011
 20
56.87450182741031
 30
0
  0
VERTEX
  5
80
100
AcDbEntity
  8
s005-#def-solid-edge
  6
CONTINUOUS
 62
    7
420
    0
370
   30
100
AcDbVertex
100
AcDb2dVertex
 10
118.2015154380012
 20
53.87450182741034
 30
0
  0
VERTEX
  5
81
100
AcDbEntity
  8
s005-#def-solid-edge
  6
CONTINUOUS
 62
    7
420
    0
370
   30
100
AcDbVertex
100
AcDb2dVertex
 10
138.2015154380012
 20
53.87450182741034
 30
0
  0
VERTEX
  5
82
100
AcDbEntity
  8
s005-#def-solid-edge
  6
CONTINUOUS
 62
    7
420
    0
370
   30
100
AcDbVertex
100
AcDb2dVertex
 10
138.2015154380011
 20
56.87450182741034
 30
0
  0
VERTEX
  5
83
100
AcDbEntity
  8
s005-#def-solid-edge
  6
CONTINUOUS
 62
    7
420
    0
370
   30
100
AcDbVertex
100
AcDb2dVertex
 10
164.7729440094297
 20
56.87450182741037
 30
0
  0
VERTEX
  5
84
100
AcDbEntity
  8
s005-#def-solid-edge
  6
CONTINUOUS
 62
    7
420
    0
370
   30
100
AcDbVertex
100
AcDb2dVertex
 10
164.7729440094297
 20
53.87450182741036
 30
0
  0
VERTEX
  5
85
100
AcDbEntity
  8
s005-#def-solid-edge
  6
CONTINUOUS
 62
    7
420
    0
370
   30
100
AcDbVertex
100
AcDb2dVertex
 10
184.7729440094298
 20
53.87450182741034
 30
0
  0
VERTEX
  5
86
100
AcDbEntity
  8
s005-#def-solid-edge
  6
CONTINUOUS
 62
    7
420
    0
370
   30
100
AcDbVertex
100
AcDb2dVertex
 10
184.7729440094297
 20
56.87450182741034
 30
0
  0
VERTEX
  5
87
100
AcDbEntity
  8
s005-#def-solid-edge
  6
CONTINUOUS
 62
    7
420
    0
370
   30
100
AcDbVertex
100
AcDb2dVertex
 10
211.3443725808584
 20
56.87450182741034
 30
0
  0
VERTEX
  5
88
100
AcDbEntity
  8
s005-#def-solid-edge
  6
CONTINUOUS
 62
    7
420
    0
370
   30
100
AcDbVertex
100
AcDb2dVertex
 10
211.3443725808583
 20
53.87450182741034
 30
0
  0
VERTEX
  5
89
100
AcDbEntity
  8
s005-#def-solid-edge
  6
CONTINUOUS
 62
    7
420
    0
370
   30
100
AcDbVertex
100
AcDb2dVertex
 10
231.3443725808583
 20
53.87450182741033
 30
0
  0
VERTEX
  5
8A
100
AcDbEntity
  8
s005-#def-solid-edge
  6
CONTINUOUS
 62
    7
420
    0
370
   30
100
AcDbVertex
100
AcDb2dVertex
 10
231.3443725808584
 20
56.87450182741034
 30
0
  0
VERTEX
  5
8B
100
AcDbEntity
  8
s005-#def-solid-edge
  6
CONTINUOUS
 62
    7
420
    0
370
   30
100
AcDbVertex
100
AcDb2dVertex
 10
257.9158011522869
 20
56.87450182741034
 30
0
  0
VERTEX
  5
8C
100
AcDbEntity
  8
s005-#def-solid-edge
  6
CONTINUOUS
 62
    7
420
    0
370
   30
100
AcDbVertex
100
AcDb2dVertex
 10
257.9158011522869
 20
53.87450182741034
 30
0
  0
VERTEX
  5
8D
100
AcDbEntity
  8
s005-#def-solid-edge
  6
CONTINUOUS
 62
    7
420
    0
370
   30
100
AcDbVertex
100
AcDb2dVertex
 10
277.9158011522869
 20
53.87450182741033
 30
0
  0
VERTEX
  5
8E
100
AcDbEntity
  8
s005-#def-solid-edge
  6
CONTINUOUS
 62
    7
420
    0
370
   30
100
AcDbVertex
100
AcDb2dVertex
 10
277.9158011522869
 20
56.87450182741034
 30
0
  0
VERTEX
  5
8F
100
AcDbEntity
  8
s005-#def-solid-edge
  6
CONTINUOUS
 62
    7
420
    0
370
   30
100
AcDbVertex
100
AcDb2dVertex
 10
297.9158011522869
 20
56.87450182741033
 30
0
  0
VERTEX
  5
90
100
AcDbEntity
  8
s005-#def-solid-edge
  6
CONTINUOUS
 62
    7
420
    0
370
   30
100
AcDbVertex
100
AcDb2dVertex
 10
297.9158011522869
 20
62.71618943223264
 30
0
  0
VERTEX
  5
91
100
AcDbEntity
  8
s005-#def-solid-edge
  6
CONTINUOUS
 62
    7
420
    0
370
   30
100
AcDbVertex
100
AcDb2dVertex
 10
297.889336989641
 20
63.07898477581496
 30
0
  0
VERTEX
  5
92
100
AcDbEntity
  8
s005-#def-solid-edge
  6
CONTINUOUS
 62
    7
420
    0
370
   30
100
AcDbVertex
100
AcDb2dVertex
 10
297.8093689216777
 20
63.43787726871966
 30
0
  0
VERTEX
  5
93
100
AcDbEntity
  8
s005-#def-solid-edge
  6
CONTINUOUS
 62
    7
420
    0
370
   30
100
AcDbVertex
100
AcDb2dVertex
 10
297.6776236884737
 20
63.78115835891424
 30
0
  0
VERTEX
  5
94
100
AcDbEntity
  8
s005-#def-solid-edge
  6
CONTINUOUS
 62
    7
420
    0
370
   30
100
AcDbVertex
100
AcDb2dVertex
 10
297.4991344856202
 20
64.09811642821406
 30
0
  0
VERTEX
  5
95
100
AcDbEntity
  8
s005-#def-solid-edge
  6
CONTINUOUS
 62
    7
420
    0
370
   30
100
AcDbVertex
100
AcDb2dVertex
 10
297.4317539094327
 20
64.24920910341878
 30
0
  0
VERTEX
  5
96
100
AcDbEntity
  8
s005-#def-solid-edge
  6
CONTINUOUS
 62
    7
420
    0
370
   30
100
AcDbVertex
100
AcDb2dVertex
 10
297.4182919022506
 20
64.42434704912959
 30
0
  0
VERTEX
  5
97
100
AcDbEntity
  8
s005-#def-solid-edge
  6
CONTINUOUS
 62
    7
420
    0
370
   30
100
AcDbVertex
100
AcDb2dVertex
 10
297.466231542762
 20
64.593333192145
 30
0
  0
VERTEX
  5
98
100
AcDbEntity
  8
s005-#def-solid-edge
  6
CONTINUOUS
 62
    7
420
    0
370
   30
100
AcDbVertex
100
AcDb2dVertex
 10
297.5622477616936
 20
64.7280552180036
 30
0
  0
VERTEX
  5
99
100
AcDbEntity
  8
s005-#def-solid-edge
  6
CONTINUOUS
 62
    7
420
    0
370
   30
100
AcDbVertex
100
AcDb2dVertex
 10
297.6969697875481
 20
64.8240714369332
 30
0
  0
VERTEX
  5
9A
100
AcDbEntity
  8
s005-#def-solid-edge
  6
CONTINUOUS
 62
    7
420
    0
370
   30
100
AcDbVertex
100
AcDb2dVertex
 10
297.8659559305677
 20
64.87201107744671
 30
0
  0
VERTEX
  5
9B
100
AcDbEntity
  8
s005-#def-solid-edge
  6
CONTINUOUS
 62
    7
420
    0
370
   30
100
AcDbVertex
100
AcDb2dVertex
 10
298.0410938762785
 20
64.85854907026454
 30
0
  0
VERTEX
  5
9C
100
AcDbEntity
  8
s005-#def-solid-edge
  6
CONTINUOUS
 62
    7
420
    0
370
   30
100
AcDbVertex
100
AcDb2dVertex
 10
298.1921865514832
 20
64.79116849407704
 30
0
  0
VERTEX
  5
9D
100
AcDbEntity
  8
s005-#def-solid-edge
  6
CONTINUOUS
 62
    7
420
    0
370
   30
100
AcDbVertex
100
AcDb2dVertex
 10
298.509144620783
 20
64.6126792912235
 30
0
  0
VERTEX
  5
9E
100
AcDbEntity
  8
s005-#def-solid-edge
  6
CONTINUOUS
 62
    7
420
    0
370
   30
100
AcDbVertex
100
AcDb2dVertex
 10
298.8524257109776
 20
64.48093405801949
 30
0
  0
VERTEX
  5
9F
100
AcDbEntity
  8
s005-#def-solid-edge
  6
CONTINUOUS
 62
    7
420
    0
370
   30
100
AcDbVertex
100
AcDb2dVertex
 10
299.2113182038823
 20
64.40096599005622
 30
0
  0
VERTEX
  5
A0
100
AcDbEntity
  8
s005-#def-solid-edge
  6
CONTINUOUS
 62
    7
420
    0
370
   30
100
AcDbVertex
100
AcDb2dVertex
 10
299.5741135474645
 20
64.37450182741033
 30
0
  0
VERTEX
  5
A1
100
AcDbEntity
  8
s005-#def-solid-edge
  6
CONTINUOUS
 62
    7
420
    0
370
   30
100
AcDbVertex
100
AcDb2dVertex
 10
319.9158011522869
 20
64.37450182741033
 30
0
  0
VERTEX
  5
A2
100
AcDbEntity
  8
s005-#def-solid-edge
  6
CONTINUOUS
 62
    7
420
    0
370
   30
100
AcDbVertex
100
AcDb2dVertex
 10
319.9158011522869
 20
123.3745018274103
 30
0
  0
VERTEX
  5
A3
100
AcDbEntity
  8
s005-#def-solid-edge
  6
CONTINUOUS
 62
    7
420
    0
370
   30
100
AcDbVertex
100
AcDb2dVertex
 10
299.5741135474646
 20
123.3745018274103
 30
0
  0
VERTEX
  5
A4
100
AcDbEntity
  8
s005-#def-solid-edge
  6
CONTINUOUS
 62
    7
420
    0
370
   30
100
AcDbVertex
100
AcDb2dVertex
 10
299.2113182038823
 20
123.3480376647645
 30
0
  0
VERTEX
  5
A5
100
AcDbEntity
  8
s005-#def-solid-edge
  6
CONTINUOUS
 62
    7
420
    0
370
   30
100
AcDbVertex
100
AcDb2dVertex
 10
298.8524257109776
 20
123.2680695968012
 30
0
  0
VERTEX
  5
A6
100
AcDbEntity
  8
s005-#def-solid-edge
  6
CONTINUOUS
 62
    7
420
    0
370
   30
100
AcDbVertex
100
AcDb2dVertex
 10
298.509144620783
 20
123.1363243635971
 30
0
  0
VERTEX
  5
A7
100
AcDbEntity
  8
s005-#def-solid-edge
  6
CONTINUOUS
 62
    7
420
    0
370
   30
100
AcDbVertex
100
AcDb2dVertex
 10
298.1921865514831
 20
122.9578351607437
 30
0
  0
VERTEX
  5
A8
100
AcDbEntity
  8
s005-#def-solid-edge
  6
CONTINUOUS
 62
    7
420
    0
370
   30
100
AcDbVertex
100
AcDb2dVertex
 10
298.0410938762785
 20
122.8904545845561
 30
0
  0
VERTEX
  5
A9
100
AcDbEntity
  8
s005-#def-solid-edge
  6
CONTINUOUS
 62
    7
420
    0
370
   30
100
AcDbVertex
100
AcDb2dVertex
 10
297.8659559305676
 20
122.876992577374
 30
0
  0
VERTEX
  5
AA
100
AcDbEntity
  8
s005-#def-solid-edge
  6
CONTINUOUS
 62
    7
420
    0
370
   30
100
AcDbVertex
100
AcDb2dVertex
 10
297.6969697875481
 20
122.9249322178875
 30
0
  0
VERTEX
  5
AB
100
AcDbEntity
  8
s005-#def-solid-edge
  6
CONTINUOUS
 62
    7
420
    0
370
   30
100
AcDbVertex
100
AcDb2dVertex
 10
297.5622477616936
 20
123.0209484368171
 30
0
  0
VERTEX
  5
AC
100
AcDbEntity
  8
s005-#def-solid-edge
  6
CONTINUOUS
 62
    7
420
    0
370
   30
100
AcDbVertex
100
AcDb2dVertex
 10
297.466231542764
 20
123.1556704626715
 30
0
  0
VERTEX
  5
AD
100
AcDbEntity
  8
s005-#def-solid-edge
  6
CONTINUOUS
 62
    7
420
    0
370
   30
100
AcDbVertex
100
AcDb2dVertex
 10
297.4182919022505
 20
123.324656605691
 30
0
  0
VERTEX
  5
AE
100
AcDbEntity
  8
s005-#def-solid-edge
  6
CONTINUOUS
 62
    7
420
    0
370
   30
100
AcDbVertex
100
AcDb2dVertex
 10
297.4317539094327
 20
123.4997945514019
 30
0
  0
VERTEX
  5
AF
100
AcDbEntity
  8
s005-#def-solid-edge
  6
CONTINUOUS
 62
    7
420
    0
370
   30
100
AcDbVertex
100
AcDb2dVertex
 10
297.4991344856202
 20
123.6508872266066
 30
0
  0
VERTEX
  5
B0
100
AcDbEntity
  8
s005-#def-solid-edge
  6
CONTINUOUS
 62
    7
420
    0
370
   30
100
AcDbVertex
100
AcDb2dVertex
 10
297.6776236884737
 20
123.9678452959064
 30
0
  0
VERTEX
  5
B1
100
AcDbEntity
  8
s005-#def-solid-edge
  6
CONTINUOUS
 62
    7
420
    0
370
   30
100
AcDbVertex
100
AcDb2dVertex
 10
297.8093689216778
 20
124.311126386101
 30
0
  0
VERTEX
  5
B2
100
AcDbEntity
  8
s005-#def-solid-edge
  6
CONTINUOUS
 62
    7
420
    0
370
   30
100
AcDbVertex
100
AcDb2dVertex
 10
297.889336989641
 20
124.6700188790057
 30
0
  0
VERTEX
  5
B3
100
AcDbEntity
  8
s005-#def-solid-edge
  6
CONTINUOUS
 62
    7
420
    0
370
   30
100
AcDbVertex
100
AcDb2dVertex
 10
297.9158011522869
 20
125.032814222588
 30
0
  0
SEQEND
  5
B4
100
AcDbEntity
  8
s005-#def-solid-edge
  6
CONTINUOUS
 62
    7
420
    0
370
   30
  0
POLYLINE
  5
B5
100
AcDbEntity
  8
s005-#def-solid-edge
  6
CONTINUOUS
 62
    7
420
    0
370
   30
100
AcDb2dPolyline
 10
0
 20
0
 30
0
 70
    0
  0
VERTEX
  5
B6
100
AcDbEntity
  8
s005-#def-solid-edge
  6
CONTINUOUS
 62
    7
420
    0
370
   30
100
AcDbVertex
100
AcDb2dVertex
 10
297.9158011522869
 20
-43.12549817258966
 30
0
  0
VERTEX
  5
B7
100
AcDbEntity
  8
s005-#def-solid-edge
  6
CONTINUOUS
 62
    7
420
    0
370
   30
100
AcDbVertex
100
AcDb2dVertex
 10
297.9158011522869
 20
-40.87549817258966
 30
0
  0
VERTEX
  5
B8
100
AcDbEntity
  8
s005-#def-solid-edge
  6
CONTINUOUS
 62
    7
420
    0
370
   30
100
AcDbVertex
100
AcDb2dVertex
 10
297.9860128512245
 20
-40.50740346302779
 30
0
  0
VERTEX
  5
B9
100
AcDbEntity
  8
s005-#def-solid-edge
  6
CONTINUOUS
 62
    7
420
    0
370
   30
100
AcDbVertex
100
AcDb2dVertex
 10
298.2086943711004
 20
-40.16839139140312
 30
0
  0
VERTEX
  5
BA
100
AcDbEntity
  8
s005-#def-solid-edge
  6
CONTINUOUS
 62
    7
420
    0
370
   30
100
AcDbVertex
100
AcDb2dVertex
 10
298.5477064426515
 20
-39.94570987155634
 30
0
  0
VERTEX
  5
BB
100
AcDbEntity
  8
s005-#def-solid-edge
  6
CONTINUOUS
 62
    7
420
    0
370
   30
100
AcDbVertex
100
AcDb2dVertex
 10
298.9158011522869
 20
-39.87549817258966
 30
0
  0
VERTEX
  5
BC
100
AcDbEntity
  8
s005-#def-solid-edge
  6
CONTINUOUS
 62
    7
420
    0
370
   30
100
AcDbVertex
100
AcDb2dVertex
 10
327.4158011522869
 20
-39.87549817258966
 30
0
  0
VERTEX
  5
BD
100
AcDbEntity
  8
s005-#def-solid-edge
  6
CONTINUOUS
 62
    7
420
    0
370
   30
100
AcDbVertex
100
AcDb2dVertex
 10
329.2562747000964
 20
-39.52443967790182
 30
0
  0
VERTEX
  5
BE
100
AcDbEntity
  8
s005-#def-solid-edge
  6
CONTINUOUS
 62
    7
420
    0
370
   30
100
AcDbVertex
100
AcDb2dVertex
 10
330.1518499192126
 20
-39.06047572868292
 30
0
  0
VERTEX
  5
BF
100
AcDbEntity
  8
s005-#def-solid-edge
  6
CONTINUOUS
 62
    7
420
    0
370
   30
100
AcDbVertex
100
AcDb2dVertex
 10
330.9513350582197
 20
-38.41103207852237
 30
0
  0
VERTEX
  5
C0
100
AcDbEntity
  8
s005-#def-solid-edge
  6
CONTINUOUS
 62
    7
420
    0
370
   30
100
AcDbVertex
100
AcDb2dVertex
 10
331.6007787083801
 20
-37.61154693951539
 30
0
  0
VERTEX
  5
C1
100
AcDbEntity
  8
s005-#def-solid-edge
  6
CONTINUOUS
 62
    7
420
    0
370
   30
100
AcDbVertex
100
AcDb2dVertex
 10
332.0647426575991
 20
-36.71597172039903
 30
0
  0
VERTEX
  5
C2
100
AcDbEntity
  8
s005-#def-solid-edge
  6
CONTINUOUS
 62
    7
420
    0
370
   30
100
AcDbVertex
100
AcDb2dVertex
 10
332.4158011522869
 20
-34.87549817258966
 30
0
  0
VERTEX
  5
C3
100
AcDbEntity
  8
s005-#def-solid-edge
  6
CONTINUOUS
 62
    7
420
    0
370
   30
100
AcDbVertex
100
AcDb2dVertex
 10
332.4158011522869
 20
8.624501827410342
 30
0
  0
VERTEX
  5
C4
100
AcDbEntity
  8
s005-#def-solid-edge
  6
CONTINUOUS
 62
    7
420
    0
370
   30
100
AcDbVertex
100
AcDb2dVertex
 10
332.0647426575991
 20
10.46497537521972
 30
0
  0
VERTEX
  5
C5
100
AcDbEntity
  8
s005-#def-solid-edge
  6
CONTINUOUS
 62
    7
420
    0
370
   30
100
AcDbVertex
100
AcDb2dVertex
 10
331.6007787083802
 20
11.36055059433604
 30
0
  0
VERTEX
  5
C6
100
AcDbEntity
  8
s005-#def-solid-edge
  6
CONTINUOUS
 62
    7
420
    0
370
   30
100
AcDbVertex
100
AcDb2dVertex
 10
330.9513350582197
 20
12.16003573334309
 30
0
  0
VERTEX
  5
C7
100
AcDbEntity
  8
s005-#def-solid-edge
  6
CONTINUOUS
 62
    7
420
    0
370
   30
100
AcDbVertex
100
AcDb2dVertex
 10
330.1518499192127
 20
12.8094793835036
 30
0
  0
VERTEX
  5
C8
100
AcDbEntity
  8
s005-#def-solid-edge
  6
CONTINUOUS
 62
    7
420
    0
370
   30
100
AcDbVertex
100
AcDb2dVertex
 10
329.2562747000977
 20
13.27344333272194
 30
0
  0
VERTEX
  5
C9
100
AcDbEntity
  8
s005-#def-solid-edge
  6
CONTINUOUS
 62
    7
420
    0
370
   30
100
AcDbVertex
100
AcDb2dVertex
 10
327.4158011522869
 20
13.62450182741034
 30
0
  0
VERTEX
  5
CA
100
AcDbEntity
  8
s005-#def-solid-edge
  6
CONTINUOUS
 62
    7
420
    0
370
   30
100
AcDbVertex
100
AcDb2dVertex
 10
298.9158011522869
 20
13.62450182741034
 30
0
  0
VERTEX
  5
CB
100
AcDbEntity
  8
s005-#def-solid-edge
  6
CONTINUOUS
 62
    7
420
    0
370
   30
100
AcDbVertex
100
AcDb2dVertex
 10
298.547706442725
 20
13.69471352634791
 30
0
  0
VERTEX
  5
CC
100
AcDbEntity
  8
s005-#def-solid-edge
  6
CONTINUOUS
 62
    7
420
    0
370
   30
100
AcDbVertex
100
AcDb2dVertex
 10
298.2086943711004
 20
13.9173950462238
 30
0
  0
VERTEX
  5
CD
100
AcDbEntity
  8
s005-#def-solid-edge
  6
CONTINUOUS
 62
    7
420
    0
370
   30
100
AcDbVertex
100
AcDb2dVertex
 10
297.9860128512245
 20
14.25640711784848
 30
0
  0
VERTEX
  5
CE
100
AcDbEntity
  8
s005-#def-solid-edge
  6
CONTINUOUS
 62
    7
420
    0
370
   30
100
AcDbVertex
100
AcDb2dVertex
 10
297.9158011522869
 20
14.62450182741034
 30
0
  0
VERTEX
  5
CF
100
AcDbEntity
  8
s005-#def-solid-edge
  6
CONTINUOUS
 62
    7
420
    0
370
   30
100
AcDbVertex
100
AcDb2dVertex
 10
297.915801152287
 20
16.87450182741034
 30
0
  0
VERTEX
  5
D0
100
AcDbEntity
  8
s005-#def-solid-edge
  6
CONTINUOUS
 62
    7
420
    0
370
   30
100
AcDbVertex
100
AcDb2dVertex
 10
104.915801152287
 20
16.87450182741034
 30
0
  0
VERTEX
  5
D1
100
AcDbEntity
  8
s005-#def-solid-edge
  6
CONTINUOUS
 62
    7
420
    0
370
   30
100
AcDbVertex
100
AcDb2dVertex
 10
-88.0841988477131
 20
16.87450182741034
 30
0
  0
VERTEX
  5
D2
100
AcDbEntity
  8
s005-#def-solid-edge
  6
CONTINUOUS
 62
    7
420
    0
370
   30
100
AcDbVertex
100
AcDb2dVertex
 10
-88.0841988477131
 20
14.62450182741034
 30
0
  0
VERTEX
  5
D3
100
AcDbEntity
  8
s005-#def-solid-edge
  6
CONTINUOUS
 62
    7
420
    0
370
   30
100
AcDbVertex
100
AcDb2dVertex
 10
-88.15441054665065
 20
14.25640711784848
 30
0
  0
VERTEX
  5
D4
100
AcDbEntity
  8
s005-#def-solid-edge
  6
CONTINUOUS
 62
    7
420
    0
370
   30
100
AcDbVertex
100
AcDb2dVertex
 10
-88.3770920665266
 20
13.9173950462238
 30
0
  0
VERTEX
  5
D5
100
AcDbEntity
  8
s005-#def-solid-edge
  6
CONTINUOUS
 62
    7
420
    0
370
   30
100
AcDbVertex
100
AcDb2dVertex
 10
-88.71610413815121
 20
13.69471352634791
 30
0
  0
VERTEX
  5
D6
100
AcDbEntity
  8
s005-#def-solid-edge
  6
CONTINUOUS
 62
    7
420
    0
370
   30
100
AcDbVertex
100
AcDb2dVertex
 10
-89.0841988477131
 20
13.62450182741034
 30
0
  0
VERTEX
  5
D7
100
AcDbEntity
  8
s005-#def-solid-edge
  6
CONTINUOUS
 62
    7
420
    0
370
   30
100
AcDbVertex
100
AcDb2dVertex
 10
-117.5841988477131
 20
13.62450182741034
 30
0
  0
VERTEX
  5
D8
100
AcDbEntity
  8
s005-#def-solid-edge
  6
CONTINUOUS
 62
    7
420
    0
370
   30
100
AcDbVertex
100
AcDb2dVertex
 10
-119.4246723955224
 20
13.27344333272249
 30
0
  0
VERTEX
  5
D9
100
AcDbEntity
  8
s005-#def-solid-edge
  6
CONTINUOUS
 62
    7
420
    0
370
   30
100
AcDbVertex
100
AcDb2dVertex
 10
-120.3202476146388
 20
12.80947938350359
 30
0
  0
VERTEX
  5
DA
100
AcDbEntity
  8
s005-#def-solid-edge
  6
CONTINUOUS
 62
    7
420
    0
370
   30
100
AcDbVertex
100
AcDb2dVertex
 10
-121.1197327536458
 20
12.16003573334309
 30
0
  0
VERTEX
  5
DB
100
AcDbEntity
  8
s005-#def-solid-edge
  6
CONTINUOUS
 62
    7
420
    0
370
   30
100
AcDbVertex
100
AcDb2dVertex
 10
-121.7691764038064
 20
11.36055059433605
 30
0
  0
VERTEX
  5
DC
100
AcDbEntity
  8
s005-#def-solid-edge
  6
CONTINUOUS
 62
    7
420
    0
370
   30
100
AcDbVertex
100
AcDb2dVertex
 10
-122.2331403530253
 20
10.46497537521972
 30
0
  0
VERTEX
  5
DD
100
AcDbEntity
  8
s005-#def-solid-edge
  6
CONTINUOUS
 62
    7
420
    0
370
   30
100
AcDbVertex
100
AcDb2dVertex
 10
-122.5841988477131
 20
8.624501827410342
 30
0
  0
VERTEX
  5
DE
100
AcDbEntity
  8
s005-#def-solid-edge
  6
CONTINUOUS
 62
    7
420
    0
370
   30
100
AcDbVertex
100
AcDb2dVertex
 10
-122.5841988477131
 20
-34.87549817258966
 30
0
  0
VERTEX
  5
DF
100
AcDbEntity
  8
s005-#def-solid-edge
  6
CONTINUOUS
 62
    7
420
    0
370
   30
100
AcDbVertex
100
AcDb2dVertex
 10
-122.2331403530253
 20
-36.71597172039903
 30
0
  0
VERTEX
  5
E0
100
AcDbEntity
  8
s005-#def-solid-edge
  6
CONTINUOUS
 62
    7
420
    0
370
   30
100
AcDbVertex
100
AcDb2dVertex
 10
-121.7691764038063
 20
-37.61154693951537
 30
0
  0
VERTEX
  5
E1
100
AcDbEntity
  8
s005-#def-solid-edge
  6
CONTINUOUS
 62
    7
420
    0
370
   30
100
AcDbVertex
100
AcDb2dVertex
 10
-121.1197327536458
 20
-38.4110320785224
 30
0
  0
VERTEX
  5
E2
100
AcDbEntity
  8
s005-#def-solid-edge
  6
CONTINUOUS
 62
    7
420
    0
370
   30
100
AcDbVertex
100
AcDb2dVertex
 10
-120.3202476146388
 20
-39.06047572868292
 30
0
  0
VERTEX
  5
E3
100
AcDbEntity
  8
s005-#def-solid-edge
  6
CONTINUOUS
 62
    7
420
    0
370
   30
100
AcDbVertex
100
AcDb2dVertex
 10
-119.4246723955225
 20
-39.52443967790182
 30
0
  0
VERTEX
  5
E4
100
AcDbEntity
  8
s005-#def-solid-edge
  6
CONTINUOUS
 62
    7
420
    0
370
   30
100
AcDbVertex
100
AcDb2dVertex
 10
-117.5841988477131
 20
-39.87549817258966
 30
0
  0
VERTEX
  5
E5
100
AcDbEntity
  8
s005-#def-solid-edge
  6
CONTINUOUS
 62
    7
420
    0
370
   30
100
AcDbVertex
100
AcDb2dVertex
 10
-89.0841988477131
 20
-39.87549817258966
 30
0
  0
VERTEX
  5
E6
100
AcDbEntity
  8
s005-#def-solid-edge
  6
CONTINUOUS
 62
    7
420
    0
370
   30
100
AcDbVertex
100
AcDb2dVertex
 10
-88.71610413815121
 20
-39.94570987152723
 30
0
  0
VERTEX
  5
E7
100
AcDbEntity
  8
s005-#def-solid-edge
  6
CONTINUOUS
 62
    7
420
    0
370
   30
100
AcDbVertex
100
AcDb2dVertex
 10
-88.3770920665266
 20
-40.16839139140311
 30
0
  0
VERTEX
  5
E8
100
AcDbEntity
  8
s005-#def-solid-edge
  6
CONTINUOUS
 62
    7
420
    0
370
   30
100
AcDbVertex
100
AcDb2dVertex
 10
-88.15441054665068
 20
-40.50740346302779
 30
0
  0
VERTEX
  5
E9
100
AcDbEntity
  8
s005-#def-solid-edge
  6
CONTINUOUS
 62
    7
420
    0
370
   30
100
AcDbVertex
100
AcDb2dVertex
 10
-88.08419884771307
 20
-40.87549817258966
 30
0
  0
VERTEX
  5
EA
100
AcDbEntity
  8
s005-#def-solid-edge
  6
CONTINUOUS
 62
    7
420
    0
370
   30
100
AcDbVertex
100
AcDb2dVertex
 10
-88.0841988477131
 20
-43.12549817258966
 30
0
  0
VERTEX
  5
EB
100
AcDbEntity
  8
s005-#def-solid-edge
  6
CONTINUOUS
 62
    7
420
    0
370
   30
100
AcDbVertex
100
AcDb2dVertex
 10
104.9158011522869
 20
-43.12549817258966
 30
0
  0
VERTEX
  5
EC
100
AcDbEntity
  8
s005-#def-solid-edge
  6
CONTINUOUS
 62
    7
420
    0
370
   30
100
AcDbVertex
100
AcDb2dVertex
 10
297.9158011522869
 20
-43.12549817258966
 30
0
  0
SEQEND
  5
ED
100
AcDbEntity
  8
s005-#def-solid-edge
  6
CONTINUOUS
 62
    7
420
    0
370
   30
  0
POLYLINE
  5
EE
100
AcDbEntity
  8
s005-#def-solid-edge
  6
CONTINUOUS
 62
    7
420
    0
370
   30
100
AcDb2dPolyline
 10
0
 20
0
 30
0
 70
    0
  0
VERTEX
  5
EF
100
AcDbEntity
  8
s005-#def-solid-edge
  6
CONTINUOUS
 62
    7
420
    0
370
   30
100
AcDbVertex
100
AcDb2dVertex
 10
230.9793099293817
 20
-34.87549817258966
 30
0
  0
VERTEX
  5
F0
100
AcDbEntity
  8
s005-#def-solid-edge
  6
CONTINUOUS
 62
    7
420
    0
370
   30
100
AcDbVertex
100
AcDb2dVertex
 10
231.0825211192617
 20
-34.86472966205407
 30
0
  0
VERTEX
  5
F1
100
AcDbEntity
  8
s005-#def-solid-edge
  6
CONTINUOUS
 62
    7
420
    0
370
   30
100
AcDbVertex
100
AcDb2dVertex
 10
231.1834340746137
 20
-34.83193363717729
 30
0
  0
VERTEX
  5
F2
100
AcDbEntity
  8
s005-#def-solid-edge
  6
CONTINUOUS
 62
    7
420
    0
370
   30
100
AcDbVertex
100
AcDb2dVertex
 10
231.2751540918538
 20
-34.77858157776934
 30
0
  0
VERTEX
  5
F3
100
AcDbEntity
  8
s005-#def-solid-edge
  6
CONTINUOUS
 62
    7
420
    0
370
   30
100
AcDbVertex
100
AcDb2dVertex
 10
231.3519879256317
 20
-34.708831505923
 30
0
  0
VERTEX
  5
F4
100
AcDbEntity
  8
s005-#def-solid-edge
  6
CONTINUOUS
 62
    7
420
    0
370
   30
100
AcDbVertex
100
AcDb2dVertex
 10
231.4023549040564
 20
-34.66570873086626
 30
0
  0
VERTEX
  5
F5
100
AcDbEntity
  8
s005-#def-solid-edge
  6
CONTINUOUS
 62
    7
420
    0
370
   30
100
AcDbVertex
100
AcDb2dVertex
 10
231.4647065142236
 20
-34.63658388816913
 30
0
  0
VERTEX
  5
F6
100
AcDbEntity
  8
s005-#def-solid-edge
  6
CONTINUOUS
 62
    7
420
    0
370
   30
100
AcDbVertex
100
AcDb2dVertex
 10
231.5326367606937
 20
-34.62556293688986
 30
0
  0
VERTEX
  5
F7
100
AcDbEntity
  8
s005-#def-solid-edge
  6
CONTINUOUS
 62
    7
420
    0
370
   30
100
AcDbVertex
100
AcDb2dVertex
 10
231.5985396700706
 20
-34.63285764592247
 30
0
  0
VERTEX
  5
F8
100
AcDbEntity
  8
s005-#def-solid-edge
  6
CONTINUOUS
 62
    7
420
    0
370
   30
100
AcDbVertex
100
AcDb2dVertex
 10
231.6602070643457
 20
-34.65722029617975
 30
0
  0
VERTEX
  5
F9
100
AcDbEntity
  8
s005-#def-solid-edge
  6
CONTINUOUS
 62
    7
420
    0
370
   30
100
AcDbVertex
100
AcDb2dVertex
 10
231.7151036190533
 20
-34.69872147729303
 30
0
  0
VERTEX
  5
FA
100
AcDbEntity
  8
s005-#def-solid-edge
  6
CONTINUOUS
 62
    7
420
    0
370
   30
100
AcDbVertex
100
AcDb2dVertex
 10
231.7566048001667
 20
-34.75361803200074
 30
0
  0
VERTEX
  5
FB
100
AcDbEntity
  8
s005-#def-solid-edge
  6
CONTINUOUS
 62
    7
420
    0
370
   30
100
AcDbVertex
100
AcDb2dVertex
 10
231.7809674504239
 20
-34.81528542627574
 30
0
  0
VERTEX
  5
FC
100
AcDbEntity
  8
s005-#def-solid-edge
  6
CONTINUOUS
 62
    7
420
    0
370
   30
100
AcDbVertex
100
AcDb2dVertex
 10
231.7882621594565
 20
-34.88118833565275
 30
0
  0
VERTEX
  5
FD
100
AcDbEntity
  8
s005-#def-solid-edge
  6
CONTINUOUS
 62
    7
420
    0
370
   30
100
AcDbVertex
100
AcDb2dVertex
 10
231.7772412081773
 20
-34.94911858212276
 30
0
  0
VERTEX
  5
FE
100
AcDbEntity
  8
s005-#def-solid-edge
  6
CONTINUOUS
 62
    7
420
    0
370
   30
100
AcDbVertex
100
AcDb2dVertex
 10
231.7481163654802
 20
-35.01147019228991
 30
0
  0
VERTEX
  5
FF
100
AcDbEntity
  8
s005-#def-solid-edge
  6
CONTINUOUS
 62
    7
420
    0
370
   30
100
AcDbVertex
100
AcDb2dVertex
 10
231.7049935904234
 20
-35.06183717071464
 30
0
  0
VERTEX
  5
100
100
AcDbEntity
  8
s005-#def-solid-edge
  6
CONTINUOUS
 62
    7
420
    0
370
   30
100
AcDbVertex
100
AcDb2dVertex
 10
231.6352435185771
 20
-35.13867100449261
 30
0
  0
VERTEX
  5
101
100
AcDbEntity
  8
s005-#def-solid-edge
  6
CONTINUOUS
 62
    7
420
    0
370
   30
100
AcDbVertex
100
AcDb2dVertex
 10
231.5818914591692
 20
-35.23039102173267
 30
0
  0
VERTEX
  5
102
100
AcDbEntity
  8
s005-#def-solid-edge
  6
CONTINUOUS
 62
    7
420
    0
370
   30
100
AcDbVertex
100
AcDb2dVertex
 10
231.5490954342924
 20
-35.33130397708465
 30
0
  0
VERTEX
  5
103
100
AcDbEntity
  8
s005-#def-solid-edge
  6
CONTINUOUS
 62
    7
420
    0
370
   30
100
AcDbVertex
100
AcDb2dVertex
 10
231.5383269237568
 20
-35.43451516696461
 30
0
  0
VERTEX
  5
104
100
AcDbEntity
  8
s005-#def-solid-edge
  6
CONTINUOUS
 62
    7
420
    0
370
   30
100
AcDbVertex
100
AcDb2dVertex
 10
231.5383269237568
 20
-37.61648117821471
 30
0
  0
VERTEX
  5
105
100
AcDbEntity
  8
s005-#def-solid-edge
  6
CONTINUOUS
 62
    7
420
    0
370
   30
100
AcDbVertex
100
AcDb2dVertex
 10
231.5490954342923
 20
-37.71969236809467
 30
0
  0
VERTEX
  5
106
100
AcDbEntity
  8
s005-#def-solid-edge
  6
CONTINUOUS
 62
    7
420
    0
370
   30
100
AcDbVertex
100
AcDb2dVertex
 10
231.5818914591691
 20
-37.82060532344664
 30
0
  0
VERTEX
  5
107
100
AcDbEntity
  8
s005-#def-solid-edge
  6
CONTINUOUS
 62
    7
420
    0
370
   30
100
AcDbVertex
100
AcDb2dVertex
 10
231.6352435185771
 20
-37.9123253406867
 30
0
  0
VERTEX
  5
108
100
AcDbEntity
  8
s005-#def-solid-edge
  6
CONTINUOUS
 62
    7
420
    0
370
   30
100
AcDbVertex
100
AcDb2dVertex
 10
231.7049935904234
 20
-37.98915917446466
 30
0
  0
VERTEX
  5
109
100
AcDbEntity
  8
s005-#def-solid-edge
  6
CONTINUOUS
 62
    7
420
    0
370
   30
100
AcDbVertex
100
AcDb2dVertex
 10
231.7481163654801
 20
-38.03952615288934
 30
0
  0
VERTEX
  5
10A
100
AcDbEntity
  8
s005-#def-solid-edge
  6
CONTINUOUS
 62
    7
420
    0
370
   30
100
AcDbVertex
100
AcDb2dVertex
 10
231.7772412081773
 20
-38.10187776305654
 30
0
  0
VERTEX
  5
10B
100
AcDbEntity
  8
s005-#def-solid-edge
  6
CONTINUOUS
 62
    7
420
    0
370
   30
100
AcDbVertex
100
AcDb2dVertex
 10
231.7882621594566
 20
-38.16980800952655
 30
0
  0
VERTEX
  5
10C
100
AcDbEntity
  8
s005-#def-solid-edge
  6
CONTINUOUS
 62
    7
420
    0
370
   30
100
AcDbVertex
100
AcDb2dVertex
 10
231.7809674504239
 20
-38.23571091890358
 30
0
  0
VERTEX
  5
10D
100
AcDbEntity
  8
s005-#def-solid-edge
  6
CONTINUOUS
 62
    7
420
    0
370
   30
100
AcDbVertex
100
AcDb2dVertex
 10
231.7566048001593
 20
-38.2973783131919
 30
0
  0
VERTEX
  5
10E
100
AcDbEntity
  8
s005-#def-solid-edge
  6
CONTINUOUS
 62
    7
420
    0
370
   30
100
AcDbVertex
100
AcDb2dVertex
 10
231.7151036190534
 20
-38.3522748678863
 30
0
  0
VERTEX
  5
10F
100
AcDbEntity
  8
s005-#def-solid-edge
  6
CONTINUOUS
 62
    7
420
    0
370
   30
100
AcDbVertex
100
AcDb2dVertex
 10
231.6602070643457
 20
-38.3937760489996
 30
0
  0
VERTEX
  5
110
100
AcDbEntity
  8
s005-#def-solid-edge
  6
CONTINUOUS
 62
    7
420
    0
370
   30
100
AcDbVertex
100
AcDb2dVertex
 10
231.5985396700707
 20
-38.41813869925686
 30
0
  0
VERTEX
  5
111
100
AcDbEntity
  8
s005-#def-solid-edge
  6
CONTINUOUS
 62
    7
420
    0
370
   30
100
AcDbVertex
100
AcDb2dVertex
 10
231.5326367606784
 20
-38.42543340828912
 30
0
  0
VERTEX
  5
112
100
AcDbEntity
  8
s005-#def-solid-edge
  6
CONTINUOUS
 62
    7
420
    0
370
   30
100
AcDbVertex
100
AcDb2dVertex
 10
231.4647065142237
 20
-38.41441245701021
 30
0
  0
VERTEX
  5
113
100
AcDbEntity
  8
s005-#def-solid-edge
  6
CONTINUOUS
 62
    7
420
    0
370
   30
100
AcDbVertex
100
AcDb2dVertex
 10
231.4023549040564
 20
-38.38528761431307
 30
0
  0
VERTEX
  5
114
100
AcDbEntity
  8
s005-#def-solid-edge
  6
CONTINUOUS
 62
    7
420
    0
370
   30
100
AcDbVertex
100
AcDb2dVertex
 10
231.3519879256318
 20
-38.34216483925633
 30
0
  0
VERTEX
  5
115
100
AcDbEntity
  8
s005-#def-solid-edge
  6
CONTINUOUS
 62
    7
420
    0
370
   30
100
AcDbVertex
100
AcDb2dVertex
 10
231.2751540918538
 20
-38.27241476740998
 30
0
  0
VERTEX
  5
116
100
AcDbEntity
  8
s005-#def-solid-edge
  6
CONTINUOUS
 62
    7
420
    0
370
   30
100
AcDbVertex
100
AcDb2dVertex
 10
231.1834340746138
 20
-38.21906270800201
 30
0
  0
VERTEX
  5
117
100
AcDbEntity
  8
s005-#def-solid-edge
  6
CONTINUOUS
 62
    7
420
    0
370
   30
100
AcDbVertex
100
AcDb2dVertex
 10
231.0825211192617
 20
-38.18626668312525
 30
0
  0
VERTEX
  5
118
100
AcDbEntity
  8
s005-#def-solid-edge
  6
CONTINUOUS
 62
    7
420
    0
370
   30
100
AcDbVertex
100
AcDb2dVertex
 10
230.9793099293818
 20
-38.17549817258966
 30
0
  0
VERTEX
  5
119
100
AcDbEntity
  8
s005-#def-solid-edge
  6
CONTINUOUS
 62
    7
420
    0
370
   30
100
AcDbVertex
100
AcDb2dVertex
 10
212.0973439181317
 20
-38.17549817258966
 30
0
  0
VERTEX
  5
11A
100
AcDbEntity
  8
s005-#def-solid-edge
  6
CONTINUOUS
 62
    7
420
    0
370
   30
100
AcDbVertex
100
AcDb2dVertex
 10
211.9941327282517
 20
-38.18626668312525
 30
0
  0
VERTEX
  5
11B
100
AcDbEntity
  8
s005-#def-solid-edge
  6
CONTINUOUS
 62
    7
420
    0
370
   30
100
AcDbVertex
100
AcDb2dVertex
 10
211.8932197728998
 20
-38.21906270800201
 30
0
  0
VERTEX
  5
11C
100
AcDbEntity
  8
s005-#def-solid-edge
  6
CONTINUOUS
 62
    7
420
    0
370
   30
100
AcDbVertex
100
AcDb2dVertex
 10
211.8014997556597
 20
-38.27241476740997
 30
0
  0
VERTEX
  5
11D
100
AcDbEntity
  8
s005-#def-solid-edge
  6
CONTINUOUS
 62
    7
420
    0
370
   30
100
AcDbVertex
100
AcDb2dVertex
 10
211.7246659218818
 20
-38.34216483925631
 30
0
  0
VERTEX
  5
11E
100
AcDbEntity
  8
s005-#def-solid-edge
  6
CONTINUOUS
 62
    7
420
    0
370
   30
100
AcDbVertex
100
AcDb2dVertex
 10
211.674298943457
 20
-38.38528761431306
 30
0
  0
VERTEX
  5
11F
100
AcDbEntity
  8
s005-#def-solid-edge
  6
CONTINUOUS
 62
    7
420
    0
370
   30
100
AcDbVertex
100
AcDb2dVertex
 10
211.6119473332898
 20
-38.41441245701019
 30
0
  0
VERTEX
  5
120
100
AcDbEntity
  8
s005-#def-solid-edge
  6
CONTINUOUS
 62
    7
420
    0
370
   30
100
AcDbVertex
100
AcDb2dVertex
 10
211.5440170868198
 20
-38.42543340828945
 30
0
  0
VERTEX
  5
121
100
AcDbEntity
  8
s005-#def-solid-edge
  6
CONTINUOUS
 62
    7
420
    0
370
   30
100
AcDbVertex
100
AcDb2dVertex
 10
211.4781141774428
 20
-38.41813869925685
 30
0
  0
VERTEX
  5
122
100
AcDbEntity
  8
s005-#def-solid-edge
  6
CONTINUOUS
 62
    7
420
    0
370
   30
100
AcDbVertex
100
AcDb2dVertex
 10
211.4164467831678
 20
-38.39377604899957
 30
0
  0
VERTEX
  5
123
100
AcDbEntity
  8
s005-#def-solid-edge
  6
CONTINUOUS
 62
    7
420
    0
370
   30
100
AcDbVertex
100
AcDb2dVertex
 10
211.3615502284601
 20
-38.35227486788629
 30
0
  0
VERTEX
  5
124
100
AcDbEntity
  8
s005-#def-solid-edge
  6
CONTINUOUS
 62
    7
420
    0
370
   30
100
AcDbVertex
100
AcDb2dVertex
 10
211.3200490473469
 20
-38.29737831317858
 30
0
  0
VERTEX
  5
125
100
AcDbEntity
  8
s005-#def-solid-edge
  6
CONTINUOUS
 62
    7
420
    0
370
   30
100
AcDbVertex
100
AcDb2dVertex
 10
211.2956863970895
 20
-38.23571091890357
 30
0
  0
VERTEX
  5
126
100
AcDbEntity
  8
s005-#def-solid-edge
  6
CONTINUOUS
 62
    7
420
    0
370
   30
100
AcDbVertex
100
AcDb2dVertex
 10
211.2883916880573
 20
-38.16980800951128
 30
0
  0
VERTEX
  5
127
100
AcDbEntity
  8
s005-#def-solid-edge
  6
CONTINUOUS
 62
    7
420
    0
370
   30
100
AcDbVertex
100
AcDb2dVertex
 10
211.2994126393362
 20
-38.10187776305655
 30
0
  0
VERTEX
  5
128
100
AcDbEntity
  8
s005-#def-solid-edge
  6
CONTINUOUS
 62
    7
420
    0
370
   30
100
AcDbVertex
100
AcDb2dVertex
 10
211.3285374820333
 20
-38.03952615288939
 30
0
  0
VERTEX
  5
129
100
AcDbEntity
  8
s005-#def-solid-edge
  6
CONTINUOUS
 62
    7
420
    0
370
   30
100
AcDbVertex
100
AcDb2dVertex
 10
211.3716602570901
 20
-37.98915917446467
 30
0
  0
VERTEX
  5
12A
100
AcDbEntity
  8
s005-#def-solid-edge
  6
CONTINUOUS
 62
    7
420
    0
370
   30
100
AcDbVertex
100
AcDb2dVertex
 10
211.4414103289368
 20
-37.9123253406862
 30
0
  0
VERTEX
  5
12B
100
AcDbEntity
  8
s005-#def-solid-edge
  6
CONTINUOUS
 62
    7
420
    0
370
   30
100
AcDbVertex
100
AcDb2dVertex
 10
211.4947623883444
 20
-37.82060532344664
 30
0
  0
VERTEX
  5
12C
100
AcDbEntity
  8
s005-#def-solid-edge
  6
CONTINUOUS
 62
    7
420
    0
370
   30
100
AcDbVertex
100
AcDb2dVertex
 10
211.5275584132211
 20
-37.71969236809467
 30
0
  0
VERTEX
  5
12D
100
AcDbEntity
  8
s005-#def-solid-edge
  6
CONTINUOUS
 62
    7
420
    0
370
   30
100
AcDbVertex
100
AcDb2dVertex
 10
211.5383269237568
 20
-37.61648117821471
 30
0
  0
VERTEX
  5
12E
100
AcDbEntity
  8
s005-#def-solid-edge
  6
CONTINUOUS
 62
    7
420
    0
370
   30
100
AcDbVertex
100
AcDb2dVertex
 10
211.5383269237568
 20
-35.43451516696461
 30
0
  0
VERTEX
  5
12F
100
AcDbEntity
  8
s005-#def-solid-edge
  6
CONTINUOUS
 62
    7
420
    0
370
   30
100
AcDbVertex
100
AcDb2dVertex
 10
211.527558413221
 20
-35.33130397708405
 30
0
  0
VERTEX
  5
130
100
AcDbEntity
  8
s005-#def-solid-edge
  6
CONTINUOUS
 62
    7
420
    0
370
   30
100
AcDbVertex
100
AcDb2dVertex
 10
211.4947623883444
 20
-35.23039102173269
 30
0
  0
VERTEX
  5
131
100
AcDbEntity
  8
s005-#def-solid-edge
  6
CONTINUOUS
 62
    7
420
    0
370
   30
100
AcDbVertex
100
AcDb2dVertex
 10
211.4414103289364
 20
-35.13867100449261
 30
0
  0
VERTEX
  5
132
100
AcDbEntity
  8
s005-#def-solid-edge
  6
CONTINUOUS
 62
    7
420
    0
370
   30
100
AcDbVertex
100
AcDb2dVertex
 10
211.3716602570901
 20
-35.06183717071466
 30
0
  0
VERTEX
  5
133
100
AcDbEntity
  8
s005-#def-solid-edge
  6
CONTINUOUS
 62
    7
420
    0
370
   30
100
AcDbVertex
100
AcDb2dVertex
 10
211.3285374820333
 20
-35.01147019228996
 30
0
  0
VERTEX
  5
134
100
AcDbEntity
  8
s005-#def-solid-edge
  6
CONTINUOUS
 62
    7
420
    0
370
   30
100
AcDbVertex
100
AcDb2dVertex
 10
211.2994126393362
 20
-34.94911858212276
 30
0
  0
VERTEX
  5
135
100
AcDbEntity
  8
s005-#def-solid-edge
  6
CONTINUOUS
 62
    7
420
    0
370
   30
100
AcDbVertex
100
AcDb2dVertex
 10
211.2883916880569
 20
-34.88118833565282
 30
0
  0
VERTEX
  5
136
100
AcDbEntity
  8
s005-#def-solid-edge
  6
CONTINUOUS
 62
    7
420
    0
370
   30
100
AcDbVertex
100
AcDb2dVertex
 10
211.2956863970895
 20
-34.81528542627574
 30
0
  0
VERTEX
  5
137
100
AcDbEntity
  8
s005-#def-solid-edge
  6
CONTINUOUS
 62
    7
420
    0
370
   30
100
AcDbVertex
100
AcDb2dVertex
 10
211.3200490473469
 20
-34.75361803200073
 30
0
  0
VERTEX
  5
138
100
AcDbEntity
  8
s005-#def-solid-edge
  6
CONTINUOUS
 62
    7
420
    0
370
   30
100
AcDbVertex
100
AcDb2dVertex
 10
211.3615502284601
 20
-34.69872147729302
 30
0
  0
VERTEX
  5
139
100
AcDbEntity
  8
s005-#def-solid-edge
  6
CONTINUOUS
 62
    7
420
    0
370
   30
100
AcDbVertex
100
AcDb2dVertex
 10
211.4164467831677
 20
-34.65722029617977
 30
0
  0
VERTEX
  5
13A
100
AcDbEntity
  8
s005-#def-solid-edge
  6
CONTINUOUS
 62
    7
420
    0
370
   30
100
AcDbVertex
100
AcDb2dVertex
 10
211.4781141774428
 20
-34.63285764592245
 30
0
  0
VERTEX
  5
13B
100
AcDbEntity
  8
s005-#def-solid-edge
  6
CONTINUOUS
 62
    7
420
    0
370
   30
100
AcDbVertex
100
AcDb2dVertex
 10
211.5440170868198
 20
-34.62556293688985
 30
0
  0
VERTEX
  5
13C
100
AcDbEntity
  8
s005-#def-solid-edge
  6
CONTINUOUS
 62
    7
420
    0
370
   30
100
AcDbVertex
100
AcDb2dVertex
 10
211.6119473332899
 20
-34.63658388816911
 30
0
  0
VERTEX
  5
13D
100
AcDbEntity
  8
s005-#def-solid-edge
  6
CONTINUOUS
 62
    7
420
    0
370
   30
100
AcDbVertex
100
AcDb2dVertex
 10
211.674298943457
 20
-34.66570873086624
 30
0
  0
VERTEX
  5
13E
100
AcDbEntity
  8
s005-#def-solid-edge
  6
CONTINUOUS
 62
    7
420
    0
370
   30
100
AcDbVertex
100
AcDb2dVertex
 10
211.7246659218818
 20
-34.70883150592299
 30
0
  0
VERTEX
  5
13F
100
AcDbEntity
  8
s005-#def-solid-edge
  6
CONTINUOUS
 62
    7
420
    0
370
   30
100
AcDbVertex
100
AcDb2dVertex
 10
211.8014997556597
 20
-34.77858157776933
 30
0
  0
VERTEX
  5
140
100
AcDbEntity
  8
s005-#def-solid-edge
  6
CONTINUOUS
 62
    7
420
    0
370
   30
100
AcDbVertex
100
AcDb2dVertex
 10
211.8932197728998
 20
-34.83193363717729
 30
0
  0
VERTEX
  5
141
100
AcDbEntity
  8
s005-#def-solid-edge
  6
CONTINUOUS
 62
    7
420
    0
370
   30
100
AcDbVertex
100
AcDb2dVertex
 10
211.9941327282518
 20
-34.86472966205407
 30
0
  0
VERTEX
  5
142
100
AcDbEntity
  8
s005-#def-solid-edge
  6
CONTINUOUS
 62
    7
420
    0
370
   30
100
AcDbVertex
100
AcDb2dVertex
 10
212.0973439181317
 20
-34.87549817258966
 30
0
  0
VERTEX
  5
143
100
AcDbEntity
  8
s005-#def-solid-edge
  6
CONTINUOUS
 62
    7
420
    0
370
   30
100
AcDbVertex
100
AcDb2dVertex
 10
230.9793099293817
 20
-34.87549817258966
 30
0
  0
SEQEND
  5
144
100
AcDbEntity
  8
s005-#def-solid-edge
  6
CONTINUOUS
 62
    7
420
    0
370
   30
  0
POLYLINE
  5
145
100
AcDbEntity
  8
s005-#def-solid-edge
  6
CONTINUOUS
 62
    7
420
    0
370
   30
100
AcDb2dPolyline
 10
0
 20
0
 30
0
 70
    0
  0
VERTEX
  5
146
100
AcDbEntity
  8
s005-#def-solid-edge
  6
CONTINUOUS
 62
    7
420
    0
370
   30
100
AcDbVertex
100
AcDb2dVertex
 10
277.5830642246268
 20
-38.17549817258966
 30
0
  0
VERTEX
  5
147
100
AcDbEntity
  8
s005-#def-solid-edge
  6
CONTINUOUS
 62
    7
420
    0
370
   30
100
AcDbVertex
100
AcDb2dVertex
 10
258.7010982133767
 20
-38.17549817258966
 30
0
  0
VERTEX
  5
148
100
AcDbEntity
  8
s005-#def-solid-edge
  6
CONTINUOUS
 62
    7
420
    0
370
   30
100
AcDbVertex
100
AcDb2dVertex
 10
258.5978870234961
 20
-38.18626668312538
 30
0
  0
VERTEX
  5
149
100
AcDbEntity
  8
s005-#def-solid-edge
  6
CONTINUOUS
 62
    7
420
    0
370
   30
100
AcDbVertex
100
AcDb2dVertex
 10
258.4969740681448
 20
-38.21906270800203
 30
0
  0
VERTEX
  5
14A
100
AcDbEntity
  8
s005-#def-solid-edge
  6
CONTINUOUS
 62
    7
420
    0
370
   30
100
AcDbVertex
100
AcDb2dVertex
 10
258.4052540509047
 20
-38.27241476740997
 30
0
  0
VERTEX
  5
14B
100
AcDbEntity
  8
s005-#def-solid-edge
  6
CONTINUOUS
 62
    7
420
    0
370
   30
100
AcDbVertex
100
AcDb2dVertex
 10
258.3284202171267
 20
-38.34216483925633
 30
0
  0
VERTEX
  5
14C
100
AcDbEntity
  8
s005-#def-solid-edge
  6
CONTINUOUS
 62
    7
420
    0
370
   30
100
AcDbVertex
100
AcDb2dVertex
 10
258.278053238702
 20
-38.38528761431306
 30
0
  0
VERTEX
  5
14D
100
AcDbEntity
  8
s005-#def-solid-edge
  6
CONTINUOUS
 62
    7
420
    0
370
   30
100
AcDbVertex
100
AcDb2dVertex
 10
258.2157016285348
 20
-38.41441245701019
 30
0
  0
VERTEX
  5
14E
100
AcDbEntity
  8
s005-#def-solid-edge
  6
CONTINUOUS
 62
    7
420
    0
370
   30
100
AcDbVertex
100
AcDb2dVertex
 10
258.1477713820649
 20
-38.42543340828945
 30
0
  0
VERTEX
  5
14F
100
AcDbEntity
  8
s005-#def-solid-edge
  6
CONTINUOUS
 62
    7
420
    0
370
   30
100
AcDbVertex
100
AcDb2dVertex
 10
258.0818684726878
 20
-38.41813869925685
 30
0
  0
VERTEX
  5
150
100
AcDbEntity
  8
s005-#def-solid-edge
  6
CONTINUOUS
 62
    7
420
    0
370
   30
100
AcDbVertex
100
AcDb2dVertex
 10
258.0202010784128
 20
-38.39377604899957
 30
0
  0
VERTEX
  5
151
100
AcDbEntity
  8
s005-#def-solid-edge
  6
CONTINUOUS
 62
    7
420
    0
370
   30
100
AcDbVertex
100
AcDb2dVertex
 10
257.9653045237051
 20
-38.35227486788629
 30
0
  0
VERTEX
  5
152
100
AcDbEntity
  8
s005-#def-solid-edge
  6
CONTINUOUS
 62
    7
420
    0
370
   30
100
AcDbVertex
100
AcDb2dVertex
 10
257.9238033425918
 20
-38.29737831317858
 30
0
  0
VERTEX
  5
153
100
AcDbEntity
  8
s005-#def-solid-edge
  6
CONTINUOUS
 62
    7
420
    0
370
   30
100
AcDbVertex
100
AcDb2dVertex
 10
257.8994406923346
 20
-38.23571091890357
 30
0
  0
VERTEX
  5
154
100
AcDbEntity
  8
s005-#def-solid-edge
  6
CONTINUOUS
 62
    7
420
    0
370
   30
100
AcDbVertex
100
AcDb2dVertex
 10
257.892145983302
 20
-38.16980800952655
 30
0
  0
VERTEX
  5
155
100
AcDbEntity
  8
s005-#def-solid-edge
  6
CONTINUOUS
 62
    7
420
    0
370
   30
100
AcDbVertex
100
AcDb2dVertex
 10
257.9031669345812
 20
-38.10187776305655
 30
0
  0
VERTEX
  5
156
100
AcDbEntity
  8
s005-#def-solid-edge
  6
CONTINUOUS
 62
    7
420
    0
370
   30
100
AcDbVertex
100
AcDb2dVertex
 10
257.9322917772783
 20
-38.0395261528894
 30
0
  0
VERTEX
  5
157
100
AcDbEntity
  8
s005-#def-solid-edge
  6
CONTINUOUS
 62
    7
420
    0
370
   30
100
AcDbVertex
100
AcDb2dVertex
 10
257.9754145523351
 20
-37.98915917446467
 30
0
  0
VERTEX
  5
158
100
AcDbEntity
  8
s005-#def-solid-edge
  6
CONTINUOUS
 62
    7
420
    0
370
   30
100
AcDbVertex
100
AcDb2dVertex
 10
258.0451646241818
 20
-37.91232534068619
 30
0
  0
VERTEX
  5
159
100
AcDbEntity
  8
s005-#def-solid-edge
  6
CONTINUOUS
 62
    7
420
    0
370
   30
100
AcDbVertex
100
AcDb2dVertex
 10
258.0985166835894
 20
-37.82060532344664
 30
0
  0
VERTEX
  5
15A
100
AcDbEntity
  8
s005-#def-solid-edge
  6
CONTINUOUS
 62
    7
420
    0
370
   30
100
AcDbVertex
100
AcDb2dVertex
 10
258.1313127084662
 20
-37.71969236809467
 30
0
  0
VERTEX
  5
15B
100
AcDbEntity
  8
s005-#def-solid-edge
  6
CONTINUOUS
 62
    7
420
    0
370
   30
100
AcDbVertex
100
AcDb2dVertex
 10
258.1420812190017
 20
-37.61648117821471
 30
0
  0
VERTEX
  5
15C
100
AcDbEntity
  8
s005-#def-solid-edge
  6
CONTINUOUS
 62
    7
420
    0
370
   30
100
AcDbVertex
100
AcDb2dVertex
 10
258.1420812190017
 20
-35.43451516696461
 30
0
  0
VERTEX
  5
15D
100
AcDbEntity
  8
s005-#def-solid-edge
  6
CONTINUOUS
 62
    7
420
    0
370
   30
100
AcDbVertex
100
AcDb2dVertex
 10
258.131312708466
 20
-35.33130397708405
 30
0
  0
VERTEX
  5
15E
100
AcDbEntity
  8
s005-#def-solid-edge
  6
CONTINUOUS
 62
    7
420
    0
370
   30
100
AcDbVertex
100
AcDb2dVertex
 10
258.0985166835894
 20
-35.23039102173268
 30
0
  0
VERTEX
  5
15F
100
AcDbEntity
  8
s005-#def-solid-edge
  6
CONTINUOUS
 62
    7
420
    0
370
   30
100
AcDbVertex
100
AcDb2dVertex
 10
258.0451646241815
 20
-35.13867100449261
 30
0
  0
VERTEX
  5
160
100
AcDbEntity
  8
s005-#def-solid-edge
  6
CONTINUOUS
 62
    7
420
    0
370
   30
100
AcDbVertex
100
AcDb2dVertex
 10
257.9754145523351
 20
-35.06183717071466
 30
0
  0
VERTEX
  5
161
100
AcDbEntity
  8
s005-#def-solid-edge
  6
CONTINUOUS
 62
    7
420
    0
370
   30
100
AcDbVertex
100
AcDb2dVertex
 10
257.93229177727
 20
-35.01147019227712
 30
0
  0
VERTEX
  5
162
100
AcDbEntity
  8
s005-#def-solid-edge
  6
CONTINUOUS
 62
    7
420
    0
370
   30
100
AcDbVertex
100
AcDb2dVertex
 10
257.9031669345812
 20
-34.94911858212275
 30
0
  0
VERTEX
  5
163
100
AcDbEntity
  8
s005-#def-solid-edge
  6
CONTINUOUS
 62
    7
420
    0
370
   30
100
AcDbVertex
100
AcDb2dVertex
 10
257.8921459833019
 20
-34.88118833565275
 30
0
  0
VERTEX
  5
164
100
AcDbEntity
  8
s005-#def-solid-edge
  6
CONTINUOUS
 62
    7
420
    0
370
   30
100
AcDbVertex
100
AcDb2dVertex
 10
257.8994406923345
 20
-34.81528542627574
 30
0
  0
VERTEX
  5
165
100
AcDbEntity
  8
s005-#def-solid-edge
  6
CONTINUOUS
 62
    7
420
    0
370
   30
100
AcDbVertex
100
AcDb2dVertex
 10
257.9238033425993
 20
-34.75361803198739
 30
0
  0
VERTEX
  5
166
100
AcDbEntity
  8
s005-#def-solid-edge
  6
CONTINUOUS
 62
    7
420
    0
370
   30
100
AcDbVertex
100
AcDb2dVertex
 10
257.9653045237051
 20
-34.69872147729302
 30
0
  0
VERTEX
  5
167
100
AcDbEntity
  8
s005-#def-solid-edge
  6
CONTINUOUS
 62
    7
420
    0
370
   30
100
AcDbVertex
100
AcDb2dVertex
 10
258.0202010784128
 20
-34.65722029617975
 30
0
  0
VERTEX
  5
168
100
AcDbEntity
  8
s005-#def-solid-edge
  6
CONTINUOUS
 62
    7
420
    0
370
   30
100
AcDbVertex
100
AcDb2dVertex
 10
258.0818684726878
 20
-34.63285764592245
 30
0
  0
VERTEX
  5
169
100
AcDbEntity
  8
s005-#def-solid-edge
  6
CONTINUOUS
 62
    7
420
    0
370
   30
100
AcDbVertex
100
AcDb2dVertex
 10
258.1477713820649
 20
-34.62556293688985
 30
0
  0
VERTEX
  5
16A
100
AcDbEntity
  8
s005-#def-solid-edge
  6
CONTINUOUS
 62
    7
420
    0
370
   30
100
AcDbVertex
100
AcDb2dVertex
 10
258.2157016285348
 20
-34.63658388816911
 30
0
  0
VERTEX
  5
16B
100
AcDbEntity
  8
s005-#def-solid-edge
  6
CONTINUOUS
 62
    7
420
    0
370
   30
100
AcDbVertex
100
AcDb2dVertex
 10
258.278053238702
 20
-34.66570873086624
 30
0
  0
VERTEX
  5
16C
100
AcDbEntity
  8
s005-#def-solid-edge
  6
CONTINUOUS
 62
    7
420
    0
370
   30
100
AcDbVertex
100
AcDb2dVertex
 10
258.3284202171267
 20
-34.70883150592299
 30
0
  0
VERTEX
  5
16D
100
AcDbEntity
  8
s005-#def-solid-edge
  6
CONTINUOUS
 62
    7
420
    0
370
   30
100
AcDbVertex
100
AcDb2dVertex
 10
258.4052540509046
 20
-34.77858157776933
 30
0
  0
VERTEX
  5
16E
100
AcDbEntity
  8
s005-#def-solid-edge
  6
CONTINUOUS
 62
    7
420
    0
370
   30
100
AcDbVertex
100
AcDb2dVertex
 10
258.4969740681447
 20
-34.83193363717729
 30
0
  0
VERTEX
  5
16F
100
AcDbEntity
  8
s005-#def-solid-edge
  6
CONTINUOUS
 62
    7
420
    0
370
   30
100
AcDbVertex
100
AcDb2dVertex
 10
258.5978870234968
 20
-34.86472966205407
 30
0
  0
VERTEX
  5
170
100
AcDbEntity
  8
s005-#def-solid-edge
  6
CONTINUOUS
 62
    7
420
    0
370
   30
100
AcDbVertex
100
AcDb2dVertex
 10
258.7010982133766
 20
-34.87549817258966
 30
0
  0
VERTEX
  5
171
100
AcDbEntity
  8
s005-#def-solid-edge
  6
CONTINUOUS
 62
    7
420
    0
370
   30
100
AcDbVertex
100
AcDb2dVertex
 10
277.5830642246268
 20
-34.87549817258966
 30
0
  0
VERTEX
  5
172
100
AcDbEntity
  8
s005-#def-solid-edge
  6
CONTINUOUS
 62
    7
420
    0
370
   30
100
AcDbVertex
100
AcDb2dVertex
 10
277.6862754145067
 20
-34.86472966205407
 30
0
  0
VERTEX
  5
173
100
AcDbEntity
  8
s005-#def-solid-edge
  6
CONTINUOUS
 62
    7
420
    0
370
   30
100
AcDbVertex
100
AcDb2dVertex
 10
277.7871883698587
 20
-34.83193363717729
 30
0
  0
VERTEX
  5
174
100
AcDbEntity
  8
s005-#def-solid-edge
  6
CONTINUOUS
 62
    7
420
    0
370
   30
100
AcDbVertex
100
AcDb2dVertex
 10
277.8789083870988
 20
-34.77858157776933
 30
0
  0
VERTEX
  5
175
100
AcDbEntity
  8
s005-#def-solid-edge
  6
CONTINUOUS
 62
    7
420
    0
370
   30
100
AcDbVertex
100
AcDb2dVertex
 10
277.9557422208768
 20
-34.708831505923
 30
0
  0
VERTEX
  5
176
100
AcDbEntity
  8
s005-#def-solid-edge
  6
CONTINUOUS
 62
    7
420
    0
370
   30
100
AcDbVertex
100
AcDb2dVertex
 10
278.0061091993014
 20
-34.66570873086626
 30
0
  0
VERTEX
  5
177
100
AcDbEntity
  8
s005-#def-solid-edge
  6
CONTINUOUS
 62
    7
420
    0
370
   30
100
AcDbVertex
100
AcDb2dVertex
 10
278.0684608094686
 20
-34.63658388816913
 30
0
  0
VERTEX
  5
178
100
AcDbEntity
  8
s005-#def-solid-edge
  6
CONTINUOUS
 62
    7
420
    0
370
   30
100
AcDbVertex
100
AcDb2dVertex
 10
278.1363910559386
 20
-34.62556293688986
 30
0
  0
VERTEX
  5
179
100
AcDbEntity
  8
s005-#def-solid-edge
  6
CONTINUOUS
 62
    7
420
    0
370
   30
100
AcDbVertex
100
AcDb2dVertex
 10
278.2022939653157
 20
-34.63285764592247
 30
0
  0
VERTEX
  5
17A
100
AcDbEntity
  8
s005-#def-solid-edge
  6
CONTINUOUS
 62
    7
420
    0
370
   30
100
AcDbVertex
100
AcDb2dVertex
 10
278.2639613595907
 20
-34.65722029617975
 30
0
  0
VERTEX
  5
17B
100
AcDbEntity
  8
s005-#def-solid-edge
  6
CONTINUOUS
 62
    7
420
    0
370
   30
100
AcDbVertex
100
AcDb2dVertex
 10
278.3188579142984
 20
-34.69872147729303
 30
0
  0
VERTEX
  5
17C
100
AcDbEntity
  8
s005-#def-solid-edge
  6
CONTINUOUS
 62
    7
420
    0
370
   30
100
AcDbVertex
100
AcDb2dVertex
 10
278.3603590954116
 20
-34.75361803200067
 30
0
  0
VERTEX
  5
17D
100
AcDbEntity
  8
s005-#def-solid-edge
  6
CONTINUOUS
 62
    7
420
    0
370
   30
100
AcDbVertex
100
AcDb2dVertex
 10
278.3847217456689
 20
-34.81528542627574
 30
0
  0
VERTEX
  5
17E
100
AcDbEntity
  8
s005-#def-solid-edge
  6
CONTINUOUS
 62
    7
420
    0
370
   30
100
AcDbVertex
100
AcDb2dVertex
 10
278.3920164547015
 20
-34.88118833565275
 30
0
  0
VERTEX
  5
17F
100
AcDbEntity
  8
s005-#def-solid-edge
  6
CONTINUOUS
 62
    7
420
    0
370
   30
100
AcDbVertex
100
AcDb2dVertex
 10
278.3809955034222
 20
-34.94911858212276
 30
0
  0
VERTEX
  5
180
100
AcDbEntity
  8
s005-#def-solid-edge
  6
CONTINUOUS
 62
    7
420
    0
370
   30
100
AcDbVertex
100
AcDb2dVertex
 10
278.3518706607252
 20
-35.01147019228996
 30
0
  0
VERTEX
  5
181
100
AcDbEntity
  8
s005-#def-solid-edge
  6
CONTINUOUS
 62
    7
420
    0
370
   30
100
AcDbVertex
100
AcDb2dVertex
 10
278.3087478856684
 20
-35.06183717071465
 30
0
  0
VERTEX
  5
182
100
AcDbEntity
  8
s005-#def-solid-edge
  6
CONTINUOUS
 62
    7
420
    0
370
   30
100
AcDbVertex
100
AcDb2dVertex
 10
278.2389978138217
 20
-35.1386710044931
 30
0
  0
VERTEX
  5
183
100
AcDbEntity
  8
s005-#def-solid-edge
  6
CONTINUOUS
 62
    7
420
    0
370
   30
100
AcDbVertex
100
AcDb2dVertex
 10
278.1856457544141
 20
-35.23039102173268
 30
0
  0
VERTEX
  5
184
100
AcDbEntity
  8
s005-#def-solid-edge
  6
CONTINUOUS
 62
    7
420
    0
370
   30
100
AcDbVertex
100
AcDb2dVertex
 10
278.1528497295373
 20
-35.33130397708465
 30
0
  0
VERTEX
  5
185
100
AcDbEntity
  8
s005-#def-solid-edge
  6
CONTINUOUS
 62
    7
420
    0
370
   30
100
AcDbVertex
100
AcDb2dVertex
 10
278.1420812190017
 20
-35.43451516696461
 30
0
  0
VERTEX
  5
186
100
AcDbEntity
  8
s005-#def-solid-edge
  6
CONTINUOUS
 62
    7
420
    0
370
   30
100
AcDbVertex
100
AcDb2dVertex
 10
278.1420812190017
 20
-37.61648117821471
 30
0
  0
VERTEX
  5
187
100
AcDbEntity
  8
s005-#def-solid-edge
  6
CONTINUOUS
 62
    7
420
    0
370
   30
100
AcDbVertex
100
AcDb2dVertex
 10
278.1528497295374
 20
-37.71969236809467
 30
0
  0
VERTEX
  5
188
100
AcDbEntity
  8
s005-#def-solid-edge
  6
CONTINUOUS
 62
    7
420
    0
370
   30
100
AcDbVertex
100
AcDb2dVertex
 10
278.1856457544141
 20
-37.82060532344664
 30
0
  0
VERTEX
  5
189
100
AcDbEntity
  8
s005-#def-solid-edge
  6
CONTINUOUS
 62
    7
420
    0
370
   30
100
AcDbVertex
100
AcDb2dVertex
 10
278.238997813822
 20
-37.9123253406867
 30
0
  0
VERTEX
  5
18A
100
AcDbEntity
  8
s005-#def-solid-edge
  6
CONTINUOUS
 62
    7
420
    0
370
   30
100
AcDbVertex
100
AcDb2dVertex
 10
278.3087478856684
 20
-37.98915917446466
 30
0
  0
VERTEX
  5
18B
100
AcDbEntity
  8
s005-#def-solid-edge
  6
CONTINUOUS
 62
    7
420
    0
370
   30
100
AcDbVertex
100
AcDb2dVertex
 10
278.3518706607252
 20
-38.03952615288934
 30
0
  0
VERTEX
  5
18C
100
AcDbEntity
  8
s005-#def-solid-edge
  6
CONTINUOUS
 62
    7
420
    0
370
   30
100
AcDbVertex
100
AcDb2dVertex
 10
278.3809955034222
 20
-38.10187776305654
 30
0
  0
VERTEX
  5
18D
100
AcDbEntity
  8
s005-#def-solid-edge
  6
CONTINUOUS
 62
    7
420
    0
370
   30
100
AcDbVertex
100
AcDb2dVertex
 10
278.3920164547015
 20
-38.16980800952655
 30
0
  0
VERTEX
  5
18E
100
AcDbEntity
  8
s005-#def-solid-edge
  6
CONTINUOUS
 62
    7
420
    0
370
   30
100
AcDbVertex
100
AcDb2dVertex
 10
278.3847217456689
 20
-38.23571091890359
 30
0
  0
VERTEX
  5
18F
100
AcDbEntity
  8
s005-#def-solid-edge
  6
CONTINUOUS
 62
    7
420
    0
370
   30
100
AcDbVertex
100
AcDb2dVertex
 10
278.3603590954118
 20
-38.29737831317859
 30
0
  0
VERTEX
  5
190
100
AcDbEntity
  8
s005-#def-solid-edge
  6
CONTINUOUS
 62
    7
420
    0
370
   30
100
AcDbVertex
100
AcDb2dVertex
 10
278.3188579142983
 20
-38.3522748678863
 30
0
  0
VERTEX
  5
191
100
AcDbEntity
  8
s005-#def-solid-edge
  6
CONTINUOUS
 62
    7
420
    0
370
   30
100
AcDbVertex
100
AcDb2dVertex
 10
278.2639613595907
 20
-38.3937760489996
 30
0
  0
VERTEX
  5
192
100
AcDbEntity
  8
s005-#def-solid-edge
  6
CONTINUOUS
 62
    7
420
    0
370
   30
100
AcDbVertex
100
AcDb2dVertex
 10
278.2022939653156
 20
-38.41813869925686
 30
0
  0
VERTEX
  5
193
100
AcDbEntity
  8
s005-#def-solid-edge
  6
CONTINUOUS
 62
    7
420
    0
370
   30
100
AcDbVertex
100
AcDb2dVertex
 10
278.1363910559387
 20
-38.42543340828947
 30
0
  0
VERTEX
  5
194
100
AcDbEntity
  8
s005-#def-solid-edge
  6
CONTINUOUS
 62
    7
420
    0
370
   30
100
AcDbVertex
100
AcDb2dVertex
 10
278.0684608094687
 20
-38.4144124570102
 30
0
  0
VERTEX
  5
195
100
AcDbEntity
  8
s005-#def-solid-edge
  6
CONTINUOUS
 62
    7
420
    0
370
   30
100
AcDbVertex
100
AcDb2dVertex
 10
278.0061091993014
 20
-38.38528761431307
 30
0
  0
VERTEX
  5
196
100
AcDbEntity
  8
s005-#def-solid-edge
  6
CONTINUOUS
 62
    7
420
    0
370
   30
100
AcDbVertex
100
AcDb2dVertex
 10
277.9557422208767
 20
-38.34216483925633
 30
0
  0
VERTEX
  5
197
100
AcDbEntity
  8
s005-#def-solid-edge
  6
CONTINUOUS
 62
    7
420
    0
370
   30
100
AcDbVertex
100
AcDb2dVertex
 10
277.8789083870983
 20
-38.27241476740964
 30
0
  0
VERTEX
  5
198
100
AcDbEntity
  8
s005-#def-solid-edge
  6
CONTINUOUS
 62
    7
420
    0
370
   30
100
AcDbVertex
100
AcDb2dVertex
 10
277.7871883698587
 20
-38.21906270800203
 30
0
  0
VERTEX
  5
199
100
AcDbEntity
  8
s005-#def-solid-edge
  6
CONTINUOUS
 62
    7
420
    0
370
   30
100
AcDbVertex
100
AcDb2dVertex
 10
277.6862754145067
 20
-38.18626668312525
 30
0
  0
VERTEX
  5
19A
100
AcDbEntity
  8
s005-#def-solid-edge
  6
CONTINUOUS
 62
    7
420
    0
370
   30
100
AcDbVertex
100
AcDb2dVertex
 10
277.5830642246268
 20
-38.17549817258966
 30
0
  0
SEQEND
  5
19B
100
AcDbEntity
  8
s005-#def-solid-edge
  6
CONTINUOUS
 62
    7
420
    0
370
   30
  0
POLYLINE
  5
19C
100
AcDbEntity
  8
s005-#def-solid-edge
  6
CONTINUOUS
 62
    7
420
    0
370
   30
100
AcDb2dPolyline
 10
0
 20
0
 30
0
 70
    0
  0
VERTEX
  5
19D
100
AcDbEntity
  8
s005-#def-solid-edge
  6
CONTINUOUS
 62
    7
420
    0
370
   30
100
AcDbVertex
100
AcDb2dVertex
 10
184.3755556341368
 20
-38.17549817258966
 30
0
  0
VERTEX
  5
19E
100
AcDbEntity
  8
s005-#def-solid-edge
  6
CONTINUOUS
 62
    7
420
    0
370
   30
100
AcDbVertex
100
AcDb2dVertex
 10
165.4935896228868
 20
-38.17549817258966
 30
0
  0
VERTEX
  5
19F
100
AcDbEntity
  8
s005-#def-solid-edge
  6
CONTINUOUS
 62
    7
420
    0
370
   30
100
AcDbVertex
100
AcDb2dVertex
 10
165.3903784330068
 20
-38.18626668312525
 30
0
  0
VERTEX
  5
1A0
100
AcDbEntity
  8
s005-#def-solid-edge
  6
CONTINUOUS
 62
    7
420
    0
370
   30
100
AcDbVertex
100
AcDb2dVertex
 10
165.2894654776549
 20
-38.21906270800201
 30
0
  0
VERTEX
  5
1A1
100
AcDbEntity
  8
s005-#def-solid-edge
  6
CONTINUOUS
 62
    7
420
    0
370
   30
100
AcDbVertex
100
AcDb2dVertex
 10
165.1977454604147
 20
-38.27241476740997
 30
0
  0
VERTEX
  5
1A2
100
AcDbEntity
  8
s005-#def-solid-edge
  6
CONTINUOUS
 62
    7
420
    0
370
   30
100
AcDbVertex
100
AcDb2dVertex
 10
165.1209116266367
 20
-38.34216483925631
 30
0
  0
VERTEX
  5
1A3
100
AcDbEntity
  8
s005-#def-solid-edge
  6
CONTINUOUS
 62
    7
420
    0
370
   30
100
AcDbVertex
100
AcDb2dVertex
 10
165.0705446482121
 20
-38.38528761431306
 30
0
  0
VERTEX
  5
1A4
100
AcDbEntity
  8
s005-#def-solid-edge
  6
CONTINUOUS
 62
    7
420
    0
370
   30
100
AcDbVertex
100
AcDb2dVertex
 10
165.0081930380449
 20
-38.41441245701019
 30
0
  0
VERTEX
  5
1A5
100
AcDbEntity
  8
s005-#def-solid-edge
  6
CONTINUOUS
 62
    7
420
    0
370
   30
100
AcDbVertex
100
AcDb2dVertex
 10
164.9402627915749
 20
-38.42543340828945
 30
0
  0
VERTEX
  5
1A6
100
AcDbEntity
  8
s005-#def-solid-edge
  6
CONTINUOUS
 62
    7
420
    0
370
   30
100
AcDbVertex
100
AcDb2dVertex
 10
164.8743598821978
 20
-38.41813869925685
 30
0
  0
VERTEX
  5
1A7
100
AcDbEntity
  8
s005-#def-solid-edge
  6
CONTINUOUS
 62
    7
420
    0
370
   30
100
AcDbVertex
100
AcDb2dVertex
 10
164.8126924879228
 20
-38.39377604899957
 30
0
  0
VERTEX
  5
1A8
100
AcDbEntity
  8
s005-#def-solid-edge
  6
CONTINUOUS
 62
    7
420
    0
370
   30
100
AcDbVertex
100
AcDb2dVertex
 10
164.7577959332152
 20
-38.3522748678863
 30
0
  0
VERTEX
  5
1A9
100
AcDbEntity
  8
s005-#def-solid-edge
  6
CONTINUOUS
 62
    7
420
    0
370
   30
100
AcDbVertex
100
AcDb2dVertex
 10
164.7162947521019
 20
-38.29737831317858
 30
0
  0
VERTEX
  5
1AA
100
AcDbEntity
  8
s005-#def-solid-edge
  6
CONTINUOUS
 62
    7
420
    0
370
   30
100
AcDbVertex
100
AcDb2dVertex
 10
164.6919321018446
 20
-38.23571091890357
 30
0
  0
VERTEX
  5
1AB
100
AcDbEntity
  8
s005-#def-solid-edge
  6
CONTINUOUS
 62
    7
420
    0
370
   30
100
AcDbVertex
100
AcDb2dVertex
 10
164.6846373928123
 20
-38.16980800951128
 30
0
  0
VERTEX
  5
1AC
100
AcDbEntity
  8
s005-#def-solid-edge
  6
CONTINUOUS
 62
    7
420
    0
370
   30
100
AcDbVertex
100
AcDb2dVertex
 10
164.6956583440913
 20
-38.10187776305655
 30
0
  0
VERTEX
  5
1AD
100
AcDbEntity
  8
s005-#def-solid-edge
  6
CONTINUOUS
 62
    7
420
    0
370
   30
100
AcDbVertex
100
AcDb2dVertex
 10
164.7247831867884
 20
-38.0395261528894
 30
0
  0
VERTEX
  5
1AE
100
AcDbEntity
  8
s005-#def-solid-edge
  6
CONTINUOUS
 62
    7
420
    0
370
   30
100
AcDbVertex
100
AcDb2dVertex
 10
164.7679059618451
 20
-37.98915917446467
 30
0
  0
VERTEX
  5
1AF
100
AcDbEntity
  8
s005-#def-solid-edge
  6
CONTINUOUS
 62
    7
420
    0
370
   30
100
AcDbVertex
100
AcDb2dVertex
 10
164.8376560336915
 20
-37.91232534068671
 30
0
  0
VERTEX
  5
1B0
100
AcDbEntity
  8
s005-#def-solid-edge
  6
CONTINUOUS
 62
    7
420
    0
370
   30
100
AcDbVertex
100
AcDb2dVertex
 10
164.8910080930994
 20
-37.82060532344664
 30
0
  0
VERTEX
  5
1B1
100
AcDbEntity
  8
s005-#def-solid-edge
  6
CONTINUOUS
 62
    7
420
    0
370
   30
100
AcDbVertex
100
AcDb2dVertex
 10
164.9238041179762
 20
-37.71969236809466
 30
0
  0
VERTEX
  5
1B2
100
AcDbEntity
  8
s005-#def-solid-edge
  6
CONTINUOUS
 62
    7
420
    0
370
   30
100
AcDbVertex
100
AcDb2dVertex
 10
164.9345726285118
 20
-37.61648117821471
 30
0
  0
VERTEX
  5
1B3
100
AcDbEntity
  8
s005-#def-solid-edge
  6
CONTINUOUS
 62
    7
420
    0
370
   30
100
AcDbVertex
100
AcDb2dVertex
 10
164.9345726285118
 20
-35.43451516696461
 30
0
  0
VERTEX
  5
1B4
100
AcDbEntity
  8
s005-#def-solid-edge
  6
CONTINUOUS
 62
    7
420
    0
370
   30
100
AcDbVertex
100
AcDb2dVertex
 10
164.9238041179763
 20
-35.33130397708465
 30
0
  0
VERTEX
  5
1B5
100
AcDbEntity
  8
s005-#def-solid-edge
  6
CONTINUOUS
 62
    7
420
    0
370
   30
100
AcDbVertex
100
AcDb2dVertex
 10
164.8910080930995
 20
-35.23039102173269
 30
0
  0
VERTEX
  5
1B6
100
AcDbEntity
  8
s005-#def-solid-edge
  6
CONTINUOUS
 62
    7
420
    0
370
   30
100
AcDbVertex
100
AcDb2dVertex
 10
164.8376560336915
 20
-35.13867100449261
 30
0
  0
VERTEX
  5
1B7
100
AcDbEntity
  8
s005-#def-solid-edge
  6
CONTINUOUS
 62
    7
420
    0
370
   30
100
AcDbVertex
100
AcDb2dVertex
 10
164.7679059618451
 20
-35.06183717071465
 30
0
  0
VERTEX
  5
1B8
100
AcDbEntity
  8
s005-#def-solid-edge
  6
CONTINUOUS
 62
    7
420
    0
370
   30
100
AcDbVertex
100
AcDb2dVertex
 10
164.7247831867883
 20
-35.01147019228996
 30
0
  0
VERTEX
  5
1B9
100
AcDbEntity
  8
s005-#def-solid-edge
  6
CONTINUOUS
 62
    7
420
    0
370
   30
100
AcDbVertex
100
AcDb2dVertex
 10
164.6956583440912
 20
-34.94911858212276
 30
0
  0
VERTEX
  5
1BA
100
AcDbEntity
  8
s005-#def-solid-edge
  6
CONTINUOUS
 62
    7
420
    0
370
   30
100
AcDbVertex
100
AcDb2dVertex
 10
164.6846373928119
 20
-34.88118833565275
 30
0
  0
VERTEX
  5
1BB
100
AcDbEntity
  8
s005-#def-solid-edge
  6
CONTINUOUS
 62
    7
420
    0
370
   30
100
AcDbVertex
100
AcDb2dVertex
 10
164.6919321018446
 20
-34.81528542627574
 30
0
  0
VERTEX
  5
1BC
100
AcDbEntity
  8
s005-#def-solid-edge
  6
CONTINUOUS
 62
    7
420
    0
370
   30
100
AcDbVertex
100
AcDb2dVertex
 10
164.7162947521093
 20
-34.75361803198739
 30
0
  0
VERTEX
  5
1BD
100
AcDbEntity
  8
s005-#def-solid-edge
  6
CONTINUOUS
 62
    7
420
    0
370
   30
100
AcDbVertex
100
AcDb2dVertex
 10
164.7577959332152
 20
-34.69872147729302
 30
0
  0
VERTEX
  5
1BE
100
AcDbEntity
  8
s005-#def-solid-edge
  6
CONTINUOUS
 62
    7
420
    0
370
   30
100
AcDbVertex
100
AcDb2dVertex
 10
164.8126924879228
 20
-34.65722029617973
 30
0
  0
VERTEX
  5
1BF
100
AcDbEntity
  8
s005-#def-solid-edge
  6
CONTINUOUS
 62
    7
420
    0
370
   30
100
AcDbVertex
100
AcDb2dVertex
 10
164.8743598821978
 20
-34.63285764592245
 30
0
  0
VERTEX
  5
1C0
100
AcDbEntity
  8
s005-#def-solid-edge
  6
CONTINUOUS
 62
    7
420
    0
370
   30
100
AcDbVertex
100
AcDb2dVertex
 10
164.9402627915749
 20
-34.62556293688985
 30
0
  0
VERTEX
  5
1C1
100
AcDbEntity
  8
s005-#def-solid-edge
  6
CONTINUOUS
 62
    7
420
    0
370
   30
100
AcDbVertex
100
AcDb2dVertex
 10
165.0081930380449
 20
-34.63658388816911
 30
0
  0
VERTEX
  5
1C2
100
AcDbEntity
  8
s005-#def-solid-edge
  6
CONTINUOUS
 62
    7
420
    0
370
   30
100
AcDbVertex
100
AcDb2dVertex
 10
165.070544648212
 20
-34.66570873086624
 30
0
  0
VERTEX
  5
1C3
100
AcDbEntity
  8
s005-#def-solid-edge
  6
CONTINUOUS
 62
    7
420
    0
370
   30
100
AcDbVertex
100
AcDb2dVertex
 10
165.1209116266368
 20
-34.70883150592299
 30
0
  0
VERTEX
  5
1C4
100
AcDbEntity
  8
s005-#def-solid-edge
  6
CONTINUOUS
 62
    7
420
    0
370
   30
100
AcDbVertex
100
AcDb2dVertex
 10
165.1977454604147
 20
-34.77858157776933
 30
0
  0
VERTEX
  5
1C5
100
AcDbEntity
  8
s005-#def-solid-edge
  6
CONTINUOUS
 62
    7
420
    0
370
   30
100
AcDbVertex
100
AcDb2dVertex
 10
165.2894654776548
 20
-34.8319336371773
 30
0
  0
VERTEX
  5
1C6
100
AcDbEntity
  8
s005-#def-solid-edge
  6
CONTINUOUS
 62
    7
420
    0
370
   30
100
AcDbVertex
100
AcDb2dVertex
 10
165.3903784330068
 20
-34.86472966205407
 30
0
  0
VERTEX
  5
1C7
100
AcDbEntity
  8
s005-#def-solid-edge
  6
CONTINUOUS
 62
    7
420
    0
370
   30
100
AcDbVertex
100
AcDb2dVertex
 10
165.4935896228868
 20
-34.87549817258966
 30
0
  0
VERTEX
  5
1C8
100
AcDbEntity
  8
s005-#def-solid-edge
  6
CONTINUOUS
 62
    7
420
    0
370
   30
100
AcDbVertex
100
AcDb2dVertex
 10
184.3755556341368
 20
-34.87549817258966
 30
0
  0
VERTEX
  5
1C9
100
AcDbEntity
  8
s005-#def-solid-edge
  6
CONTINUOUS
 62
    7
420
    0
370
   30
100
AcDbVertex
100
AcDb2dVertex
 10
184.4787668240168
 20
-34.86472966205407
 30
0
  0
VERTEX
  5
1CA
100
AcDbEntity
  8
s005-#def-solid-edge
  6
CONTINUOUS
 62
    7
420
    0
370
   30
100
AcDbVertex
100
AcDb2dVertex
 10
184.5796797793687
 20
-34.83193363717729
 30
0
  0
VERTEX
  5
1CB
100
AcDbEntity
  8
s005-#def-solid-edge
  6
CONTINUOUS
 62
    7
420
    0
370
   30
100
AcDbVertex
100
AcDb2dVertex
 10
184.6713997966088
 20
-34.77858157776933
 30
0
  0
VERTEX
  5
1CC
100
AcDbEntity
  8
s005-#def-solid-edge
  6
CONTINUOUS
 62
    7
420
    0
370
   30
100
AcDbVertex
100
AcDb2dVertex
 10
184.7482336303868
 20
-34.708831505923
 30
0
  0
VERTEX
  5
1CD
100
AcDbEntity
  8
s005-#def-solid-edge
  6
CONTINUOUS
 62
    7
420
    0
370
   30
100
AcDbVertex
100
AcDb2dVertex
 10
184.7986006088115
 20
-34.66570873086626
 30
0
  0
VERTEX
  5
1CE
100
AcDbEntity
  8
s005-#def-solid-edge
  6
CONTINUOUS
 62
    7
420
    0
370
   30
100
AcDbVertex
100
AcDb2dVertex
 10
184.8609522189786
 20
-34.63658388816913
 30
0
  0
VERTEX
  5
1CF
100
AcDbEntity
  8
s005-#def-solid-edge
  6
CONTINUOUS
 62
    7
420
    0
370
   30
100
AcDbVertex
100
AcDb2dVertex
 10
184.9288824654486
 20
-34.62556293688986
 30
0
  0
VERTEX
  5
1D0
100
AcDbEntity
  8
s005-#def-solid-edge
  6
CONTINUOUS
 62
    7
420
    0
370
   30
100
AcDbVertex
100
AcDb2dVertex
 10
184.9947853748257
 20
-34.63285764592247
 30
0
  0
VERTEX
  5
1D1
100
AcDbEntity
  8
s005-#def-solid-edge
  6
CONTINUOUS
 62
    7
420
    0
370
   30
100
AcDbVertex
100
AcDb2dVertex
 10
185.0564527691007
 20
-34.65722029617974
 30
0
  0
VERTEX
  5
1D2
100
AcDbEntity
  8
s005-#def-solid-edge
  6
CONTINUOUS
 62
    7
420
    0
370
   30
100
AcDbVertex
100
AcDb2dVertex
 10
185.1113493238084
 20
-34.69872147729303
 30
0
  0
VERTEX
  5
1D3
100
AcDbEntity
  8
s005-#def-solid-edge
  6
CONTINUOUS
 62
    7
420
    0
370
   30
100
AcDbVertex
100
AcDb2dVertex
 10
185.1528505049217
 20
-34.75361803200074
 30
0
  0
VERTEX
  5
1D4
100
AcDbEntity
  8
s005-#def-solid-edge
  6
CONTINUOUS
 62
    7
420
    0
370
   30
100
AcDbVertex
100
AcDb2dVertex
 10
185.1772131551789
 20
-34.81528542627574
 30
0
  0
VERTEX
  5
1D5
100
AcDbEntity
  8
s005-#def-solid-edge
  6
CONTINUOUS
 62
    7
420
    0
370
   30
100
AcDbVertex
100
AcDb2dVertex
 10
185.1845078642116
 20
-34.88118833565275
 30
0
  0
VERTEX
  5
1D6
100
AcDbEntity
  8
s005-#def-solid-edge
  6
CONTINUOUS
 62
    7
420
    0
370
   30
100
AcDbVertex
100
AcDb2dVertex
 10
185.1734869129323
 20
-34.94911858212276
 30
0
  0
VERTEX
  5
1D7
100
AcDbEntity
  8
s005-#def-solid-edge
  6
CONTINUOUS
 62
    7
420
    0
370
   30
100
AcDbVertex
100
AcDb2dVertex
 10
185.1443620702352
 20
-35.01147019228992
 30
0
  0
VERTEX
  5
1D8
100
AcDbEntity
  8
s005-#def-solid-edge
  6
CONTINUOUS
 62
    7
420
    0
370
   30
100
AcDbVertex
100
AcDb2dVertex
 10
185.1012392951785
 20
-35.06183717071465
 30
0
  0
VERTEX
  5
1D9
100
AcDbEntity
  8
s005-#def-solid-edge
  6
CONTINUOUS
 62
    7
420
    0
370
   30
100
AcDbVertex
100
AcDb2dVertex
 10
185.0314892233321
 20
-35.13867100449261
 30
0
  0
VERTEX
  5
1DA
100
AcDbEntity
  8
s005-#def-solid-edge
  6
CONTINUOUS
 62
    7
420
    0
370
   30
100
AcDbVertex
100
AcDb2dVertex
 10
184.9781371639241
 20
-35.23039102173267
 30
0
  0
VERTEX
  5
1DB
100
AcDbEntity
  8
s005-#def-solid-edge
  6
CONTINUOUS
 62
    7
420
    0
370
   30
100
AcDbVertex
100
AcDb2dVertex
 10
184.9453411390474
 20
-35.33130397708464
 30
0
  0
VERTEX
  5
1DC
100
AcDbEntity
  8
s005-#def-solid-edge
  6
CONTINUOUS
 62
    7
420
    0
370
   30
100
AcDbVertex
100
AcDb2dVertex
 10
184.9345726285118
 20
-35.43451516696461
 30
0
  0
VERTEX
  5
1DD
100
AcDbEntity
  8
s005-#def-solid-edge
  6
CONTINUOUS
 62
    7
420
    0
370
   30
100
AcDbVertex
100
AcDb2dVertex
 10
184.9345726285118
 20
-37.61648117821471
 30
0
  0
VERTEX
  5
1DE
100
AcDbEntity
  8
s005-#def-solid-edge
  6
CONTINUOUS
 62
    7
420
    0
370
   30
100
AcDbVertex
100
AcDb2dVertex
 10
184.9453411390473
 20
-37.71969236809467
 30
0
  0
VERTEX
  5
1DF
100
AcDbEntity
  8
s005-#def-solid-edge
  6
CONTINUOUS
 62
    7
420
    0
370
   30
100
AcDbVertex
100
AcDb2dVertex
 10
184.9781371639242
 20
-37.82060532344664
 30
0
  0
VERTEX
  5
1E0
100
AcDbEntity
  8
s005-#def-solid-edge
  6
CONTINUOUS
 62
    7
420
    0
370
   30
100
AcDbVertex
100
AcDb2dVertex
 10
185.0314892233321
 20
-37.9123253406867
 30
0
  0
VERTEX
  5
1E1
100
AcDbEntity
  8
s005-#def-solid-edge
  6
CONTINUOUS
 62
    7
420
    0
370
   30
100
AcDbVertex
100
AcDb2dVertex
 10
185.1012392951785
 20
-37.98915917446466
 30
0
  0
VERTEX
  5
1E2
100
AcDbEntity
  8
s005-#def-solid-edge
  6
CONTINUOUS
 62
    7
420
    0
370
   30
100
AcDbVertex
100
AcDb2dVertex
 10
185.1443620702353
 20
-38.03952615288934
 30
0
  0
VERTEX
  5
1E3
100
AcDbEntity
  8
s005-#def-solid-edge
  6
CONTINUOUS
 62
    7
420
    0
370
   30
100
AcDbVertex
100
AcDb2dVertex
 10
185.1734869129323
 20
-38.10187776305654
 30
0
  0
VERTEX
  5
1E4
100
AcDbEntity
  8
s005-#def-solid-edge
  6
CONTINUOUS
 62
    7
420
    0
370
   30
100
AcDbVertex
100
AcDb2dVertex
 10
185.1845078642116
 20
-38.16980800952655
 30
0
  0
VERTEX
  5
1E5
100
AcDbEntity
  8
s005-#def-solid-edge
  6
CONTINUOUS
 62
    7
420
    0
370
   30
100
AcDbVertex
100
AcDb2dVertex
 10
185.1772131551789
 20
-38.23571091890359
 30
0
  0
VERTEX
  5
1E6
100
AcDbEntity
  8
s005-#def-solid-edge
  6
CONTINUOUS
 62
    7
420
    0
370
   30
100
AcDbVertex
100
AcDb2dVertex
 10
185.1528505049217
 20
-38.29737831317858
 30
0
  0
VERTEX
  5
1E7
100
AcDbEntity
  8
s005-#def-solid-edge
  6
CONTINUOUS
 62
    7
420
    0
370
   30
100
AcDbVertex
100
AcDb2dVertex
 10
185.1113493238084
 20
-38.3522748678863
 30
0
  0
VERTEX
  5
1E8
100
AcDbEntity
  8
s005-#def-solid-edge
  6
CONTINUOUS
 62
    7
420
    0
370
   30
100
AcDbVertex
100
AcDb2dVertex
 10
185.0564527691006
 20
-38.3937760489996
 30
0
  0
VERTEX
  5
1E9
100
AcDbEntity
  8
s005-#def-solid-edge
  6
CONTINUOUS
 62
    7
420
    0
370
   30
100
AcDbVertex
100
AcDb2dVertex
 10
184.9947853748257
 20
-38.41813869925686
 30
0
  0
VERTEX
  5
1EA
100
AcDbEntity
  8
s005-#def-solid-edge
  6
CONTINUOUS
 62
    7
420
    0
370
   30
100
AcDbVertex
100
AcDb2dVertex
 10
184.9288824654487
 20
-38.42543340828947
 30
0
  0
VERTEX
  5
1EB
100
AcDbEntity
  8
s005-#def-solid-edge
  6
CONTINUOUS
 62
    7
420
    0
370
   30
100
AcDbVertex
100
AcDb2dVertex
 10
184.8609522189786
 20
-38.4144124570102
 30
0
  0
VERTEX
  5
1EC
100
AcDbEntity
  8
s005-#def-solid-edge
  6
CONTINUOUS
 62
    7
420
    0
370
   30
100
AcDbVertex
100
AcDb2dVertex
 10
184.7986006088115
 20
-38.38528761431307
 30
0
  0
VERTEX
  5
1ED
100
AcDbEntity
  8
s005-#def-solid-edge
  6
CONTINUOUS
 62
    7
420
    0
370
   30
100
AcDbVertex
100
AcDb2dVertex
 10
184.7482336303868
 20
-38.34216483925633
 30
0
  0
VERTEX
  5
1EE
100
AcDbEntity
  8
s005-#def-solid-edge
  6
CONTINUOUS
 62
    7
420
    0
370
   30
100
AcDbVertex
100
AcDb2dVertex
 10
184.6713997966083
 20
-38.27241476740963
 30
0
  0
VERTEX
  5
1EF
100
AcDbEntity
  8
s005-#def-solid-edge
  6
CONTINUOUS
 62
    7
420
    0
370
   30
100
AcDbVertex
100
AcDb2dVertex
 10
184.5796797793688
 20
-38.21906270800202
 30
0
  0
VERTEX
  5
1F0
100
AcDbEntity
  8
s005-#def-solid-edge
  6
CONTINUOUS
 62
    7
420
    0
370
   30
100
AcDbVertex
100
AcDb2dVertex
 10
184.4787668240168
 20
-38.18626668312525
 30
0
  0
VERTEX
  5
1F1
100
AcDbEntity
  8
s005-#def-solid-edge
  6
CONTINUOUS
 62
    7
420
    0
370
   30
100
AcDbVertex
100
AcDb2dVertex
 10
184.3755556341368
 20
-38.17549817258966
 30
0
  0
SEQEND
  5
1F2
100
AcDbEntity
  8
s005-#def-solid-edge
  6
CONTINUOUS
 62
    7
420
    0
370
   30
  0
POLYLINE
  5
1F3
100
AcDbEntity
  8
s005-#def-solid-edge
  6
CONTINUOUS
 62
    7
420
    0
370
   30
100
AcDb2dPolyline
 10
0
 20
0
 30
0
 70
    0
  0
VERTEX
  5
1F4
100
AcDbEntity
  8
s005-#def-solid-edge
  6
CONTINUOUS
 62
    7
420
    0
370
   30
100
AcDbVertex
100
AcDb2dVertex
 10
137.7718013388919
 20
-34.87549817258966
 30
0
  0
VERTEX
  5
1F5
100
AcDbEntity
  8
s005-#def-solid-edge
  6
CONTINUOUS
 62
    7
420
    0
370
   30
100
AcDbVertex
100
AcDb2dVertex
 10
137.8750125287717
 20
-34.86472966205407
 30
0
  0
VERTEX
  5
1F6
100
AcDbEntity
  8
s005-#def-solid-edge
  6
CONTINUOUS
 62
    7
420
    0
370
   30
100
AcDbVertex
100
AcDb2dVertex
 10
137.9759254841238
 20
-34.83193363717729
 30
0
  0
VERTEX
  5
1F7
100
AcDbEntity
  8
s005-#def-solid-edge
  6
CONTINUOUS
 62
    7
420
    0
370
   30
100
AcDbVertex
100
AcDb2dVertex
 10
138.0676455013638
 20
-34.77858157776934
 30
0
  0
VERTEX
  5
1F8
100
AcDbEntity
  8
s005-#def-solid-edge
  6
CONTINUOUS
 62
    7
420
    0
370
   30
100
AcDbVertex
100
AcDb2dVertex
 10
138.1444793351418
 20
-34.708831505923
 30
0
  0
VERTEX
  5
1F9
100
AcDbEntity
  8
s005-#def-solid-edge
  6
CONTINUOUS
 62
    7
420
    0
370
   30
100
AcDbVertex
100
AcDb2dVertex
 10
138.1948463135664
 20
-34.66570873086626
 30
0
  0
VERTEX
  5
1FA
100
AcDbEntity
  8
s005-#def-solid-edge
  6
CONTINUOUS
 62
    7
420
    0
370
   30
100
AcDbVertex
100
AcDb2dVertex
 10
138.2571979237337
 20
-34.63658388816913
 30
0
  0
VERTEX
  5
1FB
100
AcDbEntity
  8
s005-#def-solid-edge
  6
CONTINUOUS
 62
    7
420
    0
370
   30
100
AcDbVertex
100
AcDb2dVertex
 10
138.3251281702037
 20
-34.62556293688986
 30
0
  0
VERTEX
  5
1FC
100
AcDbEntity
  8
s005-#def-solid-edge
  6
CONTINUOUS
 62
    7
420
    0
370
   30
100
AcDbVertex
100
AcDb2dVertex
 10
138.3910310795807
 20
-34.63285764592247
 30
0
  0
VERTEX
  5
1FD
100
AcDbEntity
  8
s005-#def-solid-edge
  6
CONTINUOUS
 62
    7
420
    0
370
   30
100
AcDbVertex
100
AcDb2dVertex
 10
138.4526984738557
 20
-34.65722029617975
 30
0
  0
VERTEX
  5
1FE
100
AcDbEntity
  8
s005-#def-solid-edge
  6
CONTINUOUS
 62
    7
420
    0
370
   30
100
AcDbVertex
100
AcDb2dVertex
 10
138.5075950285634
 20
-34.69872147729303
 30
0
  0
VERTEX
  5
1FF
100
AcDbEntity
  8
s005-#def-solid-edge
  6
CONTINUOUS
 62
    7
420
    0
370
   30
100
AcDbVertex
100
AcDb2dVertex
 10
138.5490962096767
 20
-34.75361803200074
 30
0
  0
VERTEX
  5
200
100
AcDbEntity
  8
s005-#def-solid-edge
  6
CONTINUOUS
 62
    7
420
    0
370
   30
100
AcDbVertex
100
AcDb2dVertex
 10
138.573458859934
 20
-34.81528542627574
 30
0
  0
VERTEX
  5
201
100
AcDbEntity
  8
s005-#def-solid-edge
  6
CONTINUOUS
 62
    7
420
    0
370
   30
100
AcDbVertex
100
AcDb2dVertex
 10
138.5807535689665
 20
-34.88118833565275
 30
0
  0
VERTEX
  5
202
100
AcDbEntity
  8
s005-#def-solid-edge
  6
CONTINUOUS
 62
    7
420
    0
370
   30
100
AcDbVertex
100
AcDb2dVertex
 10
138.5697326176873
 20
-34.94911858212276
 30
0
  0
VERTEX
  5
203
100
AcDbEntity
  8
s005-#def-solid-edge
  6
CONTINUOUS
 62
    7
420
    0
370
   30
100
AcDbVertex
100
AcDb2dVertex
 10
138.5406077749902
 20
-35.01147019228996
 30
0
  0
VERTEX
  5
204
100
AcDbEntity
  8
s005-#def-solid-edge
  6
CONTINUOUS
 62
    7
420
    0
370
   30
100
AcDbVertex
100
AcDb2dVertex
 10
138.4974849999335
 20
-35.06183717071464
 30
0
  0
VERTEX
  5
205
100
AcDbEntity
  8
s005-#def-solid-edge
  6
CONTINUOUS
 62
    7
420
    0
370
   30
100
AcDbVertex
100
AcDb2dVertex
 10
138.4277349280867
 20
-35.1386710044931
 30
0
  0
VERTEX
  5
206
100
AcDbEntity
  8
s005-#def-solid-edge
  6
CONTINUOUS
 62
    7
420
    0
370
   30
100
AcDbVertex
100
AcDb2dVertex
 10
138.3743828686792
 20
-35.23039102173269
 30
0
  0
VERTEX
  5
207
100
AcDbEntity
  8
s005-#def-solid-edge
  6
CONTINUOUS
 62
    7
420
    0
370
   30
100
AcDbVertex
100
AcDb2dVertex
 10
138.3415868438024
 20
-35.33130397708464
 30
0
  0
VERTEX
  5
208
100
AcDbEntity
  8
s005-#def-solid-edge
  6
CONTINUOUS
 62
    7
420
    0
370
   30
100
AcDbVertex
100
AcDb2dVertex
 10
138.3308183332668
 20
-35.43451516696461
 30
0
  0
VERTEX
  5
209
100
AcDbEntity
  8
s005-#def-solid-edge
  6
CONTINUOUS
 62
    7
420
    0
370
   30
100
AcDbVertex
100
AcDb2dVertex
 10
138.3308183332668
 20
-37.61648117821471
 30
0
  0
VERTEX
  5
20A
100
AcDbEntity
  8
s005-#def-solid-edge
  6
CONTINUOUS
 62
    7
420
    0
370
   30
100
AcDbVertex
100
AcDb2dVertex
 10
138.3415868438024
 20
-37.71969236809467
 30
0
  0
VERTEX
  5
20B
100
AcDbEntity
  8
s005-#def-solid-edge
  6
CONTINUOUS
 62
    7
420
    0
370
   30
100
AcDbVertex
100
AcDb2dVertex
 10
138.3743828686792
 20
-37.82060532344664
 30
0
  0
VERTEX
  5
20C
100
AcDbEntity
  8
s005-#def-solid-edge
  6
CONTINUOUS
 62
    7
420
    0
370
   30
100
AcDbVertex
100
AcDb2dVertex
 10
138.4277349280871
 20
-37.91232534068669
 30
0
  0
VERTEX
  5
20D
100
AcDbEntity
  8
s005-#def-solid-edge
  6
CONTINUOUS
 62
    7
420
    0
370
   30
100
AcDbVertex
100
AcDb2dVertex
 10
138.4974849999335
 20
-37.98915917446467
 30
0
  0
VERTEX
  5
20E
100
AcDbEntity
  8
s005-#def-solid-edge
  6
CONTINUOUS
 62
    7
420
    0
370
   30
100
AcDbVertex
100
AcDb2dVertex
 10
138.5406077749902
 20
-38.03952615288934
 30
0
  0
VERTEX
  5
20F
100
AcDbEntity
  8
s005-#def-solid-edge
  6
CONTINUOUS
 62
    7
420
    0
370
   30
100
AcDbVertex
100
AcDb2dVertex
 10
138.5697326176873
 20
-38.10187776305654
 30
0
  0
VERTEX
  5
210
100
AcDbEntity
  8
s005-#def-solid-edge
  6
CONTINUOUS
 62
    7
420
    0
370
   30
100
AcDbVertex
100
AcDb2dVertex
 10
138.5807535689666
 20
-38.16980800952655
 30
0
  0
VERTEX
  5
211
100
AcDbEntity
  8
s005-#def-solid-edge
  6
CONTINUOUS
 62
    7
420
    0
370
   30
100
AcDbVertex
100
AcDb2dVertex
 10
138.573458859934
 20
-38.23571091890359
 30
0
  0
VERTEX
  5
212
100
AcDbEntity
  8
s005-#def-solid-edge
  6
CONTINUOUS
 62
    7
420
    0
370
   30
100
AcDbVertex
100
AcDb2dVertex
 10
138.5490962096768
 20
-38.29737831317858
 30
0
  0
VERTEX
  5
213
100
AcDbEntity
  8
s005-#def-solid-edge
  6
CONTINUOUS
 62
    7
420
    0
370
   30
100
AcDbVertex
100
AcDb2dVertex
 10
138.5075950285635
 20
-38.3522748678863
 30
0
  0
VERTEX
  5
214
100
AcDbEntity
  8
s005-#def-solid-edge
  6
CONTINUOUS
 62
    7
420
    0
370
   30
100
AcDbVertex
100
AcDb2dVertex
 10
138.4526984738557
 20
-38.3937760489996
 30
0
  0
VERTEX
  5
215
100
AcDbEntity
  8
s005-#def-solid-edge
  6
CONTINUOUS
 62
    7
420
    0
370
   30
100
AcDbVertex
100
AcDb2dVertex
 10
138.3910310795808
 20
-38.41813869925686
 30
0
  0
VERTEX
  5
216
100
AcDbEntity
  8
s005-#def-solid-edge
  6
CONTINUOUS
 62
    7
420
    0
370
   30
100
AcDbVertex
100
AcDb2dVertex
 10
138.3251281702037
 20
-38.42543340828947
 30
0
  0
VERTEX
  5
217
100
AcDbEntity
  8
s005-#def-solid-edge
  6
CONTINUOUS
 62
    7
420
    0
370
   30
100
AcDbVertex
100
AcDb2dVertex
 10
138.2571979237337
 20
-38.41441245701022
 30
0
  0
VERTEX
  5
218
100
AcDbEntity
  8
s005-#def-solid-edge
  6
CONTINUOUS
 62
    7
420
    0
370
   30
100
AcDbVertex
100
AcDb2dVertex
 10
138.1948463135666
 20
-38.38528761431311
 30
0
  0
VERTEX
  5
219
100
AcDbEntity
  8
s005-#def-solid-edge
  6
CONTINUOUS
 62
    7
420
    0
370
   30
100
AcDbVertex
100
AcDb2dVertex
 10
138.1444793351418
 20
-38.34216483925633
 30
0
  0
VERTEX
  5
21A
100
AcDbEntity
  8
s005-#def-solid-edge
  6
CONTINUOUS
 62
    7
420
    0
370
   30
100
AcDbVertex
100
AcDb2dVertex
 10
138.0676455013639
 20
-38.27241476740998
 30
0
  0
VERTEX
  5
21B
100
AcDbEntity
  8
s005-#def-solid-edge
  6
CONTINUOUS
 62
    7
420
    0
370
   30
100
AcDbVertex
100
AcDb2dVertex
 10
137.9759254841238
 20
-38.21906270800201
 30
0
  0
VERTEX
  5
21C
100
AcDbEntity
  8
s005-#def-solid-edge
  6
CONTINUOUS
 62
    7
420
    0
370
   30
100
AcDbVertex
100
AcDb2dVertex
 10
137.8750125287718
 20
-38.18626668312525
 30
0
  0
VERTEX
  5
21D
100
AcDbEntity
  8
s005-#def-solid-edge
  6
CONTINUOUS
 62
    7
420
    0
370
   30
100
AcDbVertex
100
AcDb2dVertex
 10
137.7718013388919
 20
-38.17549817258966
 30
0
  0
VERTEX
  5
21E
100
AcDbEntity
  8
s005-#def-solid-edge
  6
CONTINUOUS
 62
    7
420
    0
370
   30
100
AcDbVertex
100
AcDb2dVertex
 10
118.8898353276418
 20
-38.17549817258966
 30
0
  0
VERTEX
  5
21F
100
AcDbEntity
  8
s005-#def-solid-edge
  6
CONTINUOUS
 62
    7
420
    0
370
   30
100
AcDbVertex
100
AcDb2dVertex
 10
118.7866241377618
 20
-38.18626668312525
 30
0
  0
VERTEX
  5
220
100
AcDbEntity
  8
s005-#def-solid-edge
  6
CONTINUOUS
 62
    7
420
    0
370
   30
100
AcDbVertex
100
AcDb2dVertex
 10
118.6857111824098
 20
-38.21906270800202
 30
0
  0
VERTEX
  5
221
100
AcDbEntity
  8
s005-#def-solid-edge
  6
CONTINUOUS
 62
    7
420
    0
370
   30
100
AcDbVertex
100
AcDb2dVertex
 10
118.5939911651698
 20
-38.27241476740997
 30
0
  0
VERTEX
  5
222
100
AcDbEntity
  8
s005-#def-solid-edge
  6
CONTINUOUS
 62
    7
420
    0
370
   30
100
AcDbVertex
100
AcDb2dVertex
 10
118.5171573313918
 20
-38.34216483925631
 30
0
  0
VERTEX
  5
223
100
AcDbEntity
  8
s005-#def-solid-edge
  6
CONTINUOUS
 62
    7
420
    0
370
   30
100
AcDbVertex
100
AcDb2dVertex
 10
118.4667903529671
 20
-38.38528761431306
 30
0
  0
VERTEX
  5
224
100
AcDbEntity
  8
s005-#def-solid-edge
  6
CONTINUOUS
 62
    7
420
    0
370
   30
100
AcDbVertex
100
AcDb2dVertex
 10
118.4044387427999
 20
-38.41441245701019
 30
0
  0
VERTEX
  5
225
100
AcDbEntity
  8
s005-#def-solid-edge
  6
CONTINUOUS
 62
    7
420
    0
370
   30
100
AcDbVertex
100
AcDb2dVertex
 10
118.3365084963299
 20
-38.42543340828945
 30
0
  0
VERTEX
  5
226
100
AcDbEntity
  8
s005-#def-solid-edge
  6
CONTINUOUS
 62
    7
420
    0
370
   30
100
AcDbVertex
100
AcDb2dVertex
 10
118.2706055869529
 20
-38.41813869925685
 30
0
  0
VERTEX
  5
227
100
AcDbEntity
  8
s005-#def-solid-edge
  6
CONTINUOUS
 62
    7
420
    0
370
   30
100
AcDbVertex
100
AcDb2dVertex
 10
118.2089381926779
 20
-38.39377604899957
 30
0
  0
VERTEX
  5
228
100
AcDbEntity
  8
s005-#def-solid-edge
  6
CONTINUOUS
 62
    7
420
    0
370
   30
100
AcDbVertex
100
AcDb2dVertex
 10
118.1540416379702
 20
-38.35227486788629
 30
0
  0
VERTEX
  5
229
100
AcDbEntity
  8
s005-#def-solid-edge
  6
CONTINUOUS
 62
    7
420
    0
370
   30
100
AcDbVertex
100
AcDb2dVertex
 10
118.1125404568569
 20
-38.29737831317863
 30
0
  0
VERTEX
  5
22A
100
AcDbEntity
  8
s005-#def-solid-edge
  6
CONTINUOUS
 62
    7
420
    0
370
   30
100
AcDbVertex
100
AcDb2dVertex
 10
118.0881778065996
 20
-38.23571091890357
 30
0
  0
VERTEX
  5
22B
100
AcDbEntity
  8
s005-#def-solid-edge
  6
CONTINUOUS
 62
    7
420
    0
370
   30
100
AcDbVertex
100
AcDb2dVertex
 10
118.080883097567
 20
-38.16980800952655
 30
0
  0
VERTEX
  5
22C
100
AcDbEntity
  8
s005-#def-solid-edge
  6
CONTINUOUS
 62
    7
420
    0
370
   30
100
AcDbVertex
100
AcDb2dVertex
 10
118.0919040488463
 20
-38.10187776305656
 30
0
  0
VERTEX
  5
22D
100
AcDbEntity
  8
s005-#def-solid-edge
  6
CONTINUOUS
 62
    7
420
    0
370
   30
100
AcDbVertex
100
AcDb2dVertex
 10
118.1210288915434
 20
-38.03952615288936
 30
0
  0
VERTEX
  5
22E
100
AcDbEntity
  8
s005-#def-solid-edge
  6
CONTINUOUS
 62
    7
420
    0
370
   30
100
AcDbVertex
100
AcDb2dVertex
 10
118.1641516666001
 20
-37.98915917446467
 30
0
  0
VERTEX
  5
22F
100
AcDbEntity
  8
s005-#def-solid-edge
  6
CONTINUOUS
 62
    7
420
    0
370
   30
100
AcDbVertex
100
AcDb2dVertex
 10
118.2339017384465
 20
-37.91232534068671
 30
0
  0
VERTEX
  5
230
100
AcDbEntity
  8
s005-#def-solid-edge
  6
CONTINUOUS
 62
    7
420
    0
370
   30
100
AcDbVertex
100
AcDb2dVertex
 10
118.2872537978545
 20
-37.82060532344664
 30
0
  0
VERTEX
  5
231
100
AcDbEntity
  8
s005-#def-solid-edge
  6
CONTINUOUS
 62
    7
420
    0
370
   30
100
AcDbVertex
100
AcDb2dVertex
 10
118.3200498227312
 20
-37.71969236809467
 30
0
  0
VERTEX
  5
232
100
AcDbEntity
  8
s005-#def-solid-edge
  6
CONTINUOUS
 62
    7
420
    0
370
   30
100
AcDbVertex
100
AcDb2dVertex
 10
118.3308183332668
 20
-37.61648117821471
 30
0
  0
VERTEX
  5
233
100
AcDbEntity
  8
s005-#def-solid-edge
  6
CONTINUOUS
 62
    7
420
    0
370
   30
100
AcDbVertex
100
AcDb2dVertex
 10
118.3308183332668
 20
-35.43451516696461
 30
0
  0
VERTEX
  5
234
100
AcDbEntity
  8
s005-#def-solid-edge
  6
CONTINUOUS
 62
    7
420
    0
370
   30
100
AcDbVertex
100
AcDb2dVertex
 10
118.3200498227311
 20
-35.33130397708405
 30
0
  0
VERTEX
  5
235
100
AcDbEntity
  8
s005-#def-solid-edge
  6
CONTINUOUS
 62
    7
420
    0
370
   30
100
AcDbVertex
100
AcDb2dVertex
 10
118.2872537978544
 20
-35.23039102173269
 30
0
  0
VERTEX
  5
236
100
AcDbEntity
  8
s005-#def-solid-edge
  6
CONTINUOUS
 62
    7
420
    0
370
   30
100
AcDbVertex
100
AcDb2dVertex
 10
118.2339017384465
 20
-35.13867100449261
 30
0
  0
VERTEX
  5
237
100
AcDbEntity
  8
s005-#def-solid-edge
  6
CONTINUOUS
 62
    7
420
    0
370
   30
100
AcDbVertex
100
AcDb2dVertex
 10
118.1641516666002
 20
-35.06183717071466
 30
0
  0
VERTEX
  5
238
100
AcDbEntity
  8
s005-#def-solid-edge
  6
CONTINUOUS
 62
    7
420
    0
370
   30
100
AcDbVertex
100
AcDb2dVertex
 10
118.1210288915433
 20
-35.01147019228996
 30
0
  0
VERTEX
  5
239
100
AcDbEntity
  8
s005-#def-solid-edge
  6
CONTINUOUS
 62
    7
420
    0
370
   30
100
AcDbVertex
100
AcDb2dVertex
 10
118.0919040488463
 20
-34.94911858212276
 30
0
  0
VERTEX
  5
23A
100
AcDbEntity
  8
s005-#def-solid-edge
  6
CONTINUOUS
 62
    7
420
    0
370
   30
100
AcDbVertex
100
AcDb2dVertex
 10
118.080883097567
 20
-34.88118833565282
 30
0
  0
VERTEX
  5
23B
100
AcDbEntity
  8
s005-#def-solid-edge
  6
CONTINUOUS
 62
    7
420
    0
370
   30
100
AcDbVertex
100
AcDb2dVertex
 10
118.0881778065996
 20
-34.81528542627574
 30
0
  0
VERTEX
  5
23C
100
AcDbEntity
  8
s005-#def-solid-edge
  6
CONTINUOUS
 62
    7
420
    0
370
   30
100
AcDbVertex
100
AcDb2dVertex
 10
118.1125404568643
 20
-34.7536180319874
 30
0
  0
VERTEX
  5
23D
100
AcDbEntity
  8
s005-#def-solid-edge
  6
CONTINUOUS
 62
    7
420
    0
370
   30
100
AcDbVertex
100
AcDb2dVertex
 10
118.1540416379702
 20
-34.69872147729302
 30
0
  0
VERTEX
  5
23E
100
AcDbEntity
  8
s005-#def-solid-edge
  6
CONTINUOUS
 62
    7
420
    0
370
   30
100
AcDbVertex
100
AcDb2dVertex
 10
118.2089381926779
 20
-34.65722029617973
 30
0
  0
VERTEX
  5
23F
100
AcDbEntity
  8
s005-#def-solid-edge
  6
CONTINUOUS
 62
    7
420
    0
370
   30
100
AcDbVertex
100
AcDb2dVertex
 10
118.2706055869529
 20
-34.63285764592245
 30
0
  0
VERTEX
  5
240
100
AcDbEntity
  8
s005-#def-solid-edge
  6
CONTINUOUS
 62
    7
420
    0
370
   30
100
AcDbVertex
100
AcDb2dVertex
 10
118.3365084963299
 20
-34.62556293688985
 30
0
  0
VERTEX
  5
241
100
AcDbEntity
  8
s005-#def-solid-edge
  6
CONTINUOUS
 62
    7
420
    0
370
   30
100
AcDbVertex
100
AcDb2dVertex
 10
118.4044387427999
 20
-34.63658388816911
 30
0
  0
VERTEX
  5
242
100
AcDbEntity
  8
s005-#def-solid-edge
  6
CONTINUOUS
 62
    7
420
    0
370
   30
100
AcDbVertex
100
AcDb2dVertex
 10
118.4667903529671
 20
-34.66570873086624
 30
0
  0
VERTEX
  5
243
100
AcDbEntity
  8
s005-#def-solid-edge
  6
CONTINUOUS
 62
    7
420
    0
370
   30
100
AcDbVertex
100
AcDb2dVertex
 10
118.5171573313918
 20
-34.70883150592299
 30
0
  0
VERTEX
  5
244
100
AcDbEntity
  8
s005-#def-solid-edge
  6
CONTINUOUS
 62
    7
420
    0
370
   30
100
AcDbVertex
100
AcDb2dVertex
 10
118.5939911651698
 20
-34.77858157776933
 30
0
  0
VERTEX
  5
245
100
AcDbEntity
  8
s005-#def-solid-edge
  6
CONTINUOUS
 62
    7
420
    0
370
   30
100
AcDbVertex
100
AcDb2dVertex
 10
118.6857111824098
 20
-34.83193363717729
 30
0
  0
VERTEX
  5
246
100
AcDbEntity
  8
s005-#def-solid-edge
  6
CONTINUOUS
 62
    7
420
    0
370
   30
100
AcDbVertex
100
AcDb2dVertex
 10
118.7866241377618
 20
-34.86472966205407
 30
0
  0
VERTEX
  5
247
100
AcDbEntity
  8
s005-#def-solid-edge
  6
CONTINUOUS
 62
    7
420
    0
370
   30
100
AcDbVertex
100
AcDb2dVertex
 10
118.8898353276418
 20
-34.87549817258966
 30
0
  0
VERTEX
  5
248
100
AcDbEntity
  8
s005-#def-solid-edge
  6
CONTINUOUS
 62
    7
420
    0
370
   30
100
AcDbVertex
100
AcDb2dVertex
 10
137.7718013388919
 20
-34.87549817258966
 30
0
  0
SEQEND
  5
249
100
AcDbEntity
  8
s005-#def-solid-edge
  6
CONTINUOUS
 62
    7
420
    0
370
   30
  0
POLYLINE
  5
24A
100
AcDbEntity
  8
s005-#def-solid-edge
  6
CONTINUOUS
 62
    7
420
    0
370
   30
100
AcDb2dPolyline
 10
0
 20
0
 30
0
 70
    0
  0
VERTEX
  5
24B
100
AcDbEntity
  8
s005-#def-solid-edge
  6
CONTINUOUS
 62
    7
420
    0
370
   30
100
AcDbVertex
100
AcDb2dVertex
 10
44.5642927484019
 20
-38.17549817258966
 30
0
  0
VERTEX
  5
24C
100
AcDbEntity
  8
s005-#def-solid-edge
  6
CONTINUOUS
 62
    7
420
    0
370
   30
100
AcDbVertex
100
AcDb2dVertex
 10
25.68232673715181
 20
-38.17549817258966
 30
0
  0
VERTEX
  5
24D
100
AcDbEntity
  8
s005-#def-solid-edge
  6
CONTINUOUS
 62
    7
420
    0
370
   30
100
AcDbVertex
100
AcDb2dVertex
 10
25.57911554727181
 20
-38.18626668312525
 30
0
  0
VERTEX
  5
24E
100
AcDbEntity
  8
s005-#def-solid-edge
  6
CONTINUOUS
 62
    7
420
    0
370
   30
100
AcDbVertex
100
AcDb2dVertex
 10
25.47820259191988
 20
-38.21906270800202
 30
0
  0
VERTEX
  5
24F
100
AcDbEntity
  8
s005-#def-solid-edge
  6
CONTINUOUS
 62
    7
420
    0
370
   30
100
AcDbVertex
100
AcDb2dVertex
 10
25.38648257467982
 20
-38.27241476740998
 30
0
  0
VERTEX
  5
250
100
AcDbEntity
  8
s005-#def-solid-edge
  6
CONTINUOUS
 62
    7
420
    0
370
   30
100
AcDbVertex
100
AcDb2dVertex
 10
25.30964874090184
 20
-38.34216483925631
 30
0
  0
VERTEX
  5
251
100
AcDbEntity
  8
s005-#def-solid-edge
  6
CONTINUOUS
 62
    7
420
    0
370
   30
100
AcDbVertex
100
AcDb2dVertex
 10
25.25928176247717
 20
-38.38528761431306
 30
0
  0
VERTEX
  5
252
100
AcDbEntity
  8
s005-#def-solid-edge
  6
CONTINUOUS
 62
    7
420
    0
370
   30
100
AcDbVertex
100
AcDb2dVertex
 10
25.19693015230995
 20
-38.41441245701019
 30
0
  0
VERTEX
  5
253
100
AcDbEntity
  8
s005-#def-solid-edge
  6
CONTINUOUS
 62
    7
420
    0
370
   30
100
AcDbVertex
100
AcDb2dVertex
 10
25.12899990583999
 20
-38.42543340828945
 30
0
  0
VERTEX
  5
254
100
AcDbEntity
  8
s005-#def-solid-edge
  6
CONTINUOUS
 62
    7
420
    0
370
   30
100
AcDbVertex
100
AcDb2dVertex
 10
25.06309699646296
 20
-38.41813869925685
 30
0
  0
VERTEX
  5
255
100
AcDbEntity
  8
s005-#def-solid-edge
  6
CONTINUOUS
 62
    7
420
    0
370
   30
100
AcDbVertex
100
AcDb2dVertex
 10
25.00142960218795
 20
-38.39377604899957
 30
0
  0
VERTEX
  5
256
100
AcDbEntity
  8
s005-#def-solid-edge
  6
CONTINUOUS
 62
    7
420
    0
370
   30
100
AcDbVertex
100
AcDb2dVertex
 10
24.94653304748023
 20
-38.35227486788631
 30
0
  0
VERTEX
  5
257
100
AcDbEntity
  8
s005-#def-solid-edge
  6
CONTINUOUS
 62
    7
420
    0
370
   30
100
AcDbVertex
100
AcDb2dVertex
 10
24.90503186636695
 20
-38.29737831317862
 30
0
  0
VERTEX
  5
258
100
AcDbEntity
  8
s005-#def-solid-edge
  6
CONTINUOUS
 62
    7
420
    0
370
   30
100
AcDbVertex
100
AcDb2dVertex
 10
24.88066921610965
 20
-38.23571091890357
 30
0
  0
VERTEX
  5
259
100
AcDbEntity
  8
s005-#def-solid-edge
  6
CONTINUOUS
 62
    7
420
    0
370
   30
100
AcDbVertex
100
AcDb2dVertex
 10
24.87337450707709
 20
-38.16980800952655
 30
0
  0
VERTEX
  5
25A
100
AcDbEntity
  8
s005-#def-solid-edge
  6
CONTINUOUS
 62
    7
420
    0
370
   30
100
AcDbVertex
100
AcDb2dVertex
 10
24.88439545835629
 20
-38.10187776305656
 30
0
  0
VERTEX
  5
25B
100
AcDbEntity
  8
s005-#def-solid-edge
  6
CONTINUOUS
 62
    7
420
    0
370
   30
100
AcDbVertex
100
AcDb2dVertex
 10
24.91352030105342
 20
-38.0395261528894
 30
0
  0
VERTEX
  5
25C
100
AcDbEntity
  8
s005-#def-solid-edge
  6
CONTINUOUS
 62
    7
420
    0
370
   30
100
AcDbVertex
100
AcDb2dVertex
 10
24.9566430761102
 20
-37.98915917446467
 30
0
  0
VERTEX
  5
25D
100
AcDbEntity
  8
s005-#def-solid-edge
  6
CONTINUOUS
 62
    7
420
    0
370
   30
100
AcDbVertex
100
AcDb2dVertex
 10
25.0263931479569
 20
-37.91232534068622
 30
0
  0
VERTEX
  5
25E
100
AcDbEntity
  8
s005-#def-solid-edge
  6
CONTINUOUS
 62
    7
420
    0
370
   30
100
AcDbVertex
100
AcDb2dVertex
 10
25.0797452073645
 20
-37.82060532344664
 30
0
  0
VERTEX
  5
25F
100
AcDbEntity
  8
s005-#def-solid-edge
  6
CONTINUOUS
 62
    7
420
    0
370
   30
100
AcDbVertex
100
AcDb2dVertex
 10
25.11254123224133
 20
-37.71969236809467
 30
0
  0
VERTEX
  5
260
100
AcDbEntity
  8
s005-#def-solid-edge
  6
CONTINUOUS
 62
    7
420
    0
370
   30
100
AcDbVertex
100
AcDb2dVertex
 10
25.12330974277685
 20
-37.61648117821471
 30
0
  0
VERTEX
  5
261
100
AcDbEntity
  8
s005-#def-solid-edge
  6
CONTINUOUS
 62
    7
420
    0
370
   30
100
AcDbVertex
100
AcDb2dVertex
 10
25.12330974277688
 20
-35.4345151669646
 30
0
  0
VERTEX
  5
262
100
AcDbEntity
  8
s005-#def-solid-edge
  6
CONTINUOUS
 62
    7
420
    0
370
   30
100
AcDbVertex
100
AcDb2dVertex
 10
25.11254123224114
 20
-35.33130397708405
 30
0
  0
VERTEX
  5
263
100
AcDbEntity
  8
s005-#def-solid-edge
  6
CONTINUOUS
 62
    7
420
    0
370
   30
100
AcDbVertex
100
AcDb2dVertex
 10
25.0797452073645
 20
-35.23039102173268
 30
0
  0
VERTEX
  5
264
100
AcDbEntity
  8
s005-#def-solid-edge
  6
CONTINUOUS
 62
    7
420
    0
370
   30
100
AcDbVertex
100
AcDb2dVertex
 10
25.02639314795654
 20
-35.13867100449261
 30
0
  0
VERTEX
  5
265
100
AcDbEntity
  8
s005-#def-solid-edge
  6
CONTINUOUS
 62
    7
420
    0
370
   30
100
AcDbVertex
100
AcDb2dVertex
 10
24.9566430761102
 20
-35.06183717071465
 30
0
  0
VERTEX
  5
266
100
AcDbEntity
  8
s005-#def-solid-edge
  6
CONTINUOUS
 62
    7
420
    0
370
   30
100
AcDbVertex
100
AcDb2dVertex
 10
24.91352030104512
 20
-35.01147019227713
 30
0
  0
VERTEX
  5
267
100
AcDbEntity
  8
s005-#def-solid-edge
  6
CONTINUOUS
 62
    7
420
    0
370
   30
100
AcDbVertex
100
AcDb2dVertex
 10
24.88439545835631
 20
-34.94911858212276
 30
0
  0
VERTEX
  5
268
100
AcDbEntity
  8
s005-#def-solid-edge
  6
CONTINUOUS
 62
    7
420
    0
370
   30
100
AcDbVertex
100
AcDb2dVertex
 10
24.87337450707706
 20
-34.88118833565282
 30
0
  0
VERTEX
  5
269
100
AcDbEntity
  8
s005-#def-solid-edge
  6
CONTINUOUS
 62
    7
420
    0
370
   30
100
AcDbVertex
100
AcDb2dVertex
 10
24.88066921610965
 20
-34.81528542627574
 30
0
  0
VERTEX
  5
26A
100
AcDbEntity
  8
s005-#def-solid-edge
  6
CONTINUOUS
 62
    7
420
    0
370
   30
100
AcDbVertex
100
AcDb2dVertex
 10
24.90503186637437
 20
-34.7536180319874
 30
0
  0
VERTEX
  5
26B
100
AcDbEntity
  8
s005-#def-solid-edge
  6
CONTINUOUS
 62
    7
420
    0
370
   30
100
AcDbVertex
100
AcDb2dVertex
 10
24.94653304748022
 20
-34.69872147729301
 30
0
  0
VERTEX
  5
26C
100
AcDbEntity
  8
s005-#def-solid-edge
  6
CONTINUOUS
 62
    7
420
    0
370
   30
100
AcDbVertex
100
AcDb2dVertex
 10
25.00142960218795
 20
-34.65722029617973
 30
0
  0
VERTEX
  5
26D
100
AcDbEntity
  8
s005-#def-solid-edge
  6
CONTINUOUS
 62
    7
420
    0
370
   30
100
AcDbVertex
100
AcDb2dVertex
 10
25.06309699646295
 20
-34.63285764592245
 30
0
  0
VERTEX
  5
26E
100
AcDbEntity
  8
s005-#def-solid-edge
  6
CONTINUOUS
 62
    7
420
    0
370
   30
100
AcDbVertex
100
AcDb2dVertex
 10
25.12899990583999
 20
-34.62556293688985
 30
0
  0
VERTEX
  5
26F
100
AcDbEntity
  8
s005-#def-solid-edge
  6
CONTINUOUS
 62
    7
420
    0
370
   30
100
AcDbVertex
100
AcDb2dVertex
 10
25.19693015230995
 20
-34.63658388816911
 30
0
  0
VERTEX
  5
270
100
AcDbEntity
  8
s005-#def-solid-edge
  6
CONTINUOUS
 62
    7
420
    0
370
   30
100
AcDbVertex
100
AcDb2dVertex
 10
25.25928176247712
 20
-34.6657087308662
 30
0
  0
VERTEX
  5
271
100
AcDbEntity
  8
s005-#def-solid-edge
  6
CONTINUOUS
 62
    7
420
    0
370
   30
100
AcDbVertex
100
AcDb2dVertex
 10
25.30964874090185
 20
-34.70883150592299
 30
0
  0
VERTEX
  5
272
100
AcDbEntity
  8
s005-#def-solid-edge
  6
CONTINUOUS
 62
    7
420
    0
370
   30
100
AcDbVertex
100
AcDb2dVertex
 10
25.38648257468031
 20
-34.77858157776969
 30
0
  0
VERTEX
  5
273
100
AcDbEntity
  8
s005-#def-solid-edge
  6
CONTINUOUS
 62
    7
420
    0
370
   30
100
AcDbVertex
100
AcDb2dVertex
 10
25.47820259191987
 20
-34.83193363717729
 30
0
  0
VERTEX
  5
274
100
AcDbEntity
  8
s005-#def-solid-edge
  6
CONTINUOUS
 62
    7
420
    0
370
   30
100
AcDbVertex
100
AcDb2dVertex
 10
25.5791155472719
 20
-34.86472966205407
 30
0
  0
VERTEX
  5
275
100
AcDbEntity
  8
s005-#def-solid-edge
  6
CONTINUOUS
 62
    7
420
    0
370
   30
100
AcDbVertex
100
AcDb2dVertex
 10
25.68232673715181
 20
-34.87549817258966
 30
0
  0
VERTEX
  5
276
100
AcDbEntity
  8
s005-#def-solid-edge
  6
CONTINUOUS
 62
    7
420
    0
370
   30
100
AcDbVertex
100
AcDb2dVertex
 10
44.56429274840187
 20
-34.87549817258966
 30
0
  0
VERTEX
  5
277
100
AcDbEntity
  8
s005-#def-solid-edge
  6
CONTINUOUS
 62
    7
420
    0
370
   30
100
AcDbVertex
100
AcDb2dVertex
 10
44.66750393828185
 20
-34.86472966205407
 30
0
  0
VERTEX
  5
278
100
AcDbEntity
  8
s005-#def-solid-edge
  6
CONTINUOUS
 62
    7
420
    0
370
   30
100
AcDbVertex
100
AcDb2dVertex
 10
44.76841689363378
 20
-34.83193363717729
 30
0
  0
VERTEX
  5
279
100
AcDbEntity
  8
s005-#def-solid-edge
  6
CONTINUOUS
 62
    7
420
    0
370
   30
100
AcDbVertex
100
AcDb2dVertex
 10
44.86013691087388
 20
-34.77858157776933
 30
0
  0
VERTEX
  5
27A
100
AcDbEntity
  8
s005-#def-solid-edge
  6
CONTINUOUS
 62
    7
420
    0
370
   30
100
AcDbVertex
100
AcDb2dVertex
 10
44.93697074465189
 20
-34.708831505923
 30
0
  0
VERTEX
  5
27B
100
AcDbEntity
  8
s005-#def-solid-edge
  6
CONTINUOUS
 62
    7
420
    0
370
   30
100
AcDbVertex
100
AcDb2dVertex
 10
44.98733772307655
 20
-34.66570873086626
 30
0
  0
VERTEX
  5
27C
100
AcDbEntity
  8
s005-#def-solid-edge
  6
CONTINUOUS
 62
    7
420
    0
370
   30
100
AcDbVertex
100
AcDb2dVertex
 10
45.04968933324372
 20
-34.63658388816913
 30
0
  0
VERTEX
  5
27D
100
AcDbEntity
  8
s005-#def-solid-edge
  6
CONTINUOUS
 62
    7
420
    0
370
   30
100
AcDbVertex
100
AcDb2dVertex
 10
45.11761957971372
 20
-34.62556293688986
 30
0
  0
VERTEX
  5
27E
100
AcDbEntity
  8
s005-#def-solid-edge
  6
CONTINUOUS
 62
    7
420
    0
370
   30
100
AcDbVertex
100
AcDb2dVertex
 10
45.18352248909072
 20
-34.63285764592247
 30
0
  0
VERTEX
  5
27F
100
AcDbEntity
  8
s005-#def-solid-edge
  6
CONTINUOUS
 62
    7
420
    0
370
   30
100
AcDbVertex
100
AcDb2dVertex
 10
45.2451898833658
 20
-34.65722029617975
 30
0
  0
VERTEX
  5
280
100
AcDbEntity
  8
s005-#def-solid-edge
  6
CONTINUOUS
 62
    7
420
    0
370
   30
100
AcDbVertex
100
AcDb2dVertex
 10
45.30008643807344
 20
-34.69872147729303
 30
0
  0
VERTEX
  5
281
100
AcDbEntity
  8
s005-#def-solid-edge
  6
CONTINUOUS
 62
    7
420
    0
370
   30
100
AcDbVertex
100
AcDb2dVertex
 10
45.34158761918678
 20
-34.75361803200074
 30
0
  0
VERTEX
  5
282
100
AcDbEntity
  8
s005-#def-solid-edge
  6
CONTINUOUS
 62
    7
420
    0
370
   30
100
AcDbVertex
100
AcDb2dVertex
 10
45.36595026944406
 20
-34.81528542627574
 30
0
  0
VERTEX
  5
283
100
AcDbEntity
  8
s005-#def-solid-edge
  6
CONTINUOUS
 62
    7
420
    0
370
   30
100
AcDbVertex
100
AcDb2dVertex
 10
45.37324497847661
 20
-34.88118833565275
 30
0
  0
VERTEX
  5
284
100
AcDbEntity
  8
s005-#def-solid-edge
  6
CONTINUOUS
 62
    7
420
    0
370
   30
100
AcDbVertex
100
AcDb2dVertex
 10
45.36222402719739
 20
-34.94911858212276
 30
0
  0
VERTEX
  5
285
100
AcDbEntity
  8
s005-#def-solid-edge
  6
CONTINUOUS
 62
    7
420
    0
370
   30
100
AcDbVertex
100
AcDb2dVertex
 10
45.33309918450026
 20
-35.01147019228996
 30
0
  0
VERTEX
  5
286
100
AcDbEntity
  8
s005-#def-solid-edge
  6
CONTINUOUS
 62
    7
420
    0
370
   30
100
AcDbVertex
100
AcDb2dVertex
 10
45.28997640944351
 20
-35.06183717071464
 30
0
  0
VERTEX
  5
287
100
AcDbEntity
  8
s005-#def-solid-edge
  6
CONTINUOUS
 62
    7
420
    0
370
   30
100
AcDbVertex
100
AcDb2dVertex
 10
45.22022633759681
 20
-35.1386710044931
 30
0
  0
VERTEX
  5
288
100
AcDbEntity
  8
s005-#def-solid-edge
  6
CONTINUOUS
 62
    7
420
    0
370
   30
100
AcDbVertex
100
AcDb2dVertex
 10
45.1668742781892
 20
-35.23039102173269
 30
0
  0
VERTEX
  5
289
100
AcDbEntity
  8
s005-#def-solid-edge
  6
CONTINUOUS
 62
    7
420
    0
370
   30
100
AcDbVertex
100
AcDb2dVertex
 10
45.13407825331245
 20
-35.33130397708464
 30
0
  0
VERTEX
  5
28A
100
AcDbEntity
  8
s005-#def-solid-edge
  6
CONTINUOUS
 62
    7
420
    0
370
   30
100
AcDbVertex
100
AcDb2dVertex
 10
45.12330974277685
 20
-35.43451516696461
 30
0
  0
VERTEX
  5
28B
100
AcDbEntity
  8
s005-#def-solid-edge
  6
CONTINUOUS
 62
    7
420
    0
370
   30
100
AcDbVertex
100
AcDb2dVertex
 10
45.12330974277684
 20
-37.61648117821471
 30
0
  0
VERTEX
  5
28C
100
AcDbEntity
  8
s005-#def-solid-edge
  6
CONTINUOUS
 62
    7
420
    0
370
   30
100
AcDbVertex
100
AcDb2dVertex
 10
45.13407825331245
 20
-37.71969236809467
 30
0
  0
VERTEX
  5
28D
100
AcDbEntity
  8
s005-#def-solid-edge
  6
CONTINUOUS
 62
    7
420
    0
370
   30
100
AcDbVertex
100
AcDb2dVertex
 10
45.16687427818923
 20
-37.82060532344664
 30
0
  0
VERTEX
  5
28E
100
AcDbEntity
  8
s005-#def-solid-edge
  6
CONTINUOUS
 62
    7
420
    0
370
   30
100
AcDbVertex
100
AcDb2dVertex
 10
45.22022633759716
 20
-37.91232534068669
 30
0
  0
VERTEX
  5
28F
100
AcDbEntity
  8
s005-#def-solid-edge
  6
CONTINUOUS
 62
    7
420
    0
370
   30
100
AcDbVertex
100
AcDb2dVertex
 10
45.28997640944351
 20
-37.98915917446466
 30
0
  0
VERTEX
  5
290
100
AcDbEntity
  8
s005-#def-solid-edge
  6
CONTINUOUS
 62
    7
420
    0
370
   30
100
AcDbVertex
100
AcDb2dVertex
 10
45.33309918450031
 20
-38.03952615288934
 30
0
  0
VERTEX
  5
291
100
AcDbEntity
  8
s005-#def-solid-edge
  6
CONTINUOUS
 62
    7
420
    0
370
   30
100
AcDbVertex
100
AcDb2dVertex
 10
45.36222402719739
 20
-38.10187776305654
 30
0
  0
VERTEX
  5
292
100
AcDbEntity
  8
s005-#def-solid-edge
  6
CONTINUOUS
 62
    7
420
    0
370
   30
100
AcDbVertex
100
AcDb2dVertex
 10
45.37324497847666
 20
-38.16980800952655
 30
0
  0
VERTEX
  5
293
100
AcDbEntity
  8
s005-#def-solid-edge
  6
CONTINUOUS
 62
    7
420
    0
370
   30
100
AcDbVertex
100
AcDb2dVertex
 10
45.36595026944407
 20
-38.23571091890359
 30
0
  0
VERTEX
  5
294
100
AcDbEntity
  8
s005-#def-solid-edge
  6
CONTINUOUS
 62
    7
420
    0
370
   30
100
AcDbVertex
100
AcDb2dVertex
 10
45.34158761918683
 20
-38.29737831317858
 30
0
  0
VERTEX
  5
295
100
AcDbEntity
  8
s005-#def-solid-edge
  6
CONTINUOUS
 62
    7
420
    0
370
   30
100
AcDbVertex
100
AcDb2dVertex
 10
45.30008643807356
 20
-38.3522748678863
 30
0
  0
VERTEX
  5
296
100
AcDbEntity
  8
s005-#def-solid-edge
  6
CONTINUOUS
 62
    7
420
    0
370
   30
100
AcDbVertex
100
AcDb2dVertex
 10
45.24518988336581
 20
-38.3937760489996
 30
0
  0
VERTEX
  5
297
100
AcDbEntity
  8
s005-#def-solid-edge
  6
CONTINUOUS
 62
    7
420
    0
370
   30
100
AcDbVertex
100
AcDb2dVertex
 10
45.18352248909085
 20
-38.41813869925686
 30
0
  0
VERTEX
  5
298
100
AcDbEntity
  8
s005-#def-solid-edge
  6
CONTINUOUS
 62
    7
420
    0
370
   30
100
AcDbVertex
100
AcDb2dVertex
 10
45.11761957971379
 20
-38.42543340828947
 30
0
  0
VERTEX
  5
299
100
AcDbEntity
  8
s005-#def-solid-edge
  6
CONTINUOUS
 62
    7
420
    0
370
   30
100
AcDbVertex
100
AcDb2dVertex
 10
45.0496893332438
 20
-38.4144124570102
 30
0
  0
VERTEX
  5
29A
100
AcDbEntity
  8
s005-#def-solid-edge
  6
CONTINUOUS
 62
    7
420
    0
370
   30
100
AcDbVertex
100
AcDb2dVertex
 10
44.98733772307663
 20
-38.38528761431312
 30
0
  0
VERTEX
  5
29B
100
AcDbEntity
  8
s005-#def-solid-edge
  6
CONTINUOUS
 62
    7
420
    0
370
   30
100
AcDbVertex
100
AcDb2dVertex
 10
44.93697074465186
 20
-38.34216483925633
 30
0
  0
VERTEX
  5
29C
100
AcDbEntity
  8
s005-#def-solid-edge
  6
CONTINUOUS
 62
    7
420
    0
370
   30
100
AcDbVertex
100
AcDb2dVertex
 10
44.86013691087398
 20
-38.27241476740998
 30
0
  0
VERTEX
  5
29D
100
AcDbEntity
  8
s005-#def-solid-edge
  6
CONTINUOUS
 62
    7
420
    0
370
   30
100
AcDbVertex
100
AcDb2dVertex
 10
44.76841689363385
 20
-38.21906270800203
 30
0
  0
VERTEX
  5
29E
100
AcDbEntity
  8
s005-#def-solid-edge
  6
CONTINUOUS
 62
    7
420
    0
370
   30
100
AcDbVertex
100
AcDb2dVertex
 10
44.66750393828185
 20
-38.18626668312525
 30
0
  0
VERTEX
  5
29F
100
AcDbEntity
  8
s005-#def-solid-edge
  6
CONTINUOUS
 62
    7
420
    0
370
   30
100
AcDbVertex
100
AcDb2dVertex
 10
44.5642927484019
 20
-38.17549817258966
 30
0
  0
SEQEND
  5
2A0
100
AcDbEntity
  8
s005-#def-solid-edge
  6
CONTINUOUS
 62
    7
420
    0
370
   30
  0
POLYLINE
  5
2A1
100
AcDbEntity
  8
s005-#def-solid-edge
  6
CONTINUOUS
 62
    7
420
    0
370
   30
100
AcDb2dPolyline
 10
0
 20
0
 30
0
 70
    0
  0
VERTEX
  5
2A2
100
AcDbEntity
  8
s005-#def-solid-edge
  6
CONTINUOUS
 62
    7
420
    0
370
   30
100
AcDbVertex
100
AcDb2dVertex
 10
-20.92142755809316
 20
-34.87549817258966
 30
0
  0
VERTEX
  5
2A3
100
AcDbEntity
  8
s005-#def-solid-edge
  6
CONTINUOUS
 62
    7
420
    0
370
   30
100
AcDbVertex
100
AcDb2dVertex
 10
-2.039461546843071
 20
-34.87549817258966
 30
0
  0
VERTEX
  5
2A4
100
AcDbEntity
  8
s005-#def-solid-edge
  6
CONTINUOUS
 62
    7
420
    0
370
   30
100
AcDbVertex
100
AcDb2dVertex
 10
-1.936250356963129
 20
-34.86472966205407
 30
0
  0
VERTEX
  5
2A5
100
AcDbEntity
  8
s005-#def-solid-edge
  6
CONTINUOUS
 62
    7
420
    0
370
   30
100
AcDbVertex
100
AcDb2dVertex
 10
-1.835337401611156
 20
-34.83193363717729
 30
0
  0
VERTEX
  5
2A6
100
AcDbEntity
  8
s005-#def-solid-edge
  6
CONTINUOUS
 62
    7
420
    0
370
   30
100
AcDbVertex
100
AcDb2dVertex
 10
-1.743617384371092
 20
-34.77858157776933
 30
0
  0
VERTEX
  5
2A7
100
AcDbEntity
  8
s005-#def-solid-edge
  6
CONTINUOUS
 62
    7
420
    0
370
   30
100
AcDbVertex
100
AcDb2dVertex
 10
-1.666783550593109
 20
-34.708831505923
 30
0
  0
VERTEX
  5
2A8
100
AcDbEntity
  8
s005-#def-solid-edge
  6
CONTINUOUS
 62
    7
420
    0
370
   30
100
AcDbVertex
100
AcDb2dVertex
 10
-1.616416572168433
 20
-34.66570873086626
 30
0
  0
VERTEX
  5
2A9
100
AcDbEntity
  8
s005-#def-solid-edge
  6
CONTINUOUS
 62
    7
420
    0
370
   30
100
AcDbVertex
100
AcDb2dVertex
 10
-1.554064962001249
 20
-34.63658388816913
 30
0
  0
VERTEX
  5
2AA
100
AcDbEntity
  8
s005-#def-solid-edge
  6
CONTINUOUS
 62
    7
420
    0
370
   30
100
AcDbVertex
100
AcDb2dVertex
 10
-1.486134715531236
 20
-34.62556293688986
 30
0
  0
VERTEX
  5
2AB
100
AcDbEntity
  8
s005-#def-solid-edge
  6
CONTINUOUS
 62
    7
420
    0
370
   30
100
AcDbVertex
100
AcDb2dVertex
 10
-1.42023180615422
 20
-34.63285764592247
 30
0
  0
VERTEX
  5
2AC
100
AcDbEntity
  8
s005-#def-solid-edge
  6
CONTINUOUS
 62
    7
420
    0
370
   30
100
AcDbVertex
100
AcDb2dVertex
 10
-1.358564411879158
 20
-34.65722029617975
 30
0
  0
VERTEX
  5
2AD
100
AcDbEntity
  8
s005-#def-solid-edge
  6
CONTINUOUS
 62
    7
420
    0
370
   30
100
AcDbVertex
100
AcDb2dVertex
 10
-1.303667857171504
 20
-34.69872147729303
 30
0
  0
VERTEX
  5
2AE
100
AcDbEntity
  8
s005-#def-solid-edge
  6
CONTINUOUS
 62
    7
420
    0
370
   30
100
AcDbVertex
100
AcDb2dVertex
 10
-1.262166676058214
 20
-34.75361803200074
 30
0
  0
VERTEX
  5
2AF
100
AcDbEntity
  8
s005-#def-solid-edge
  6
CONTINUOUS
 62
    7
420
    0
370
   30
100
AcDbVertex
100
AcDb2dVertex
 10
-1.237804025800884
 20
-34.81528542627574
 30
0
  0
VERTEX
  5
2B0
100
AcDbEntity
  8
s005-#def-solid-edge
  6
CONTINUOUS
 62
    7
420
    0
370
   30
100
AcDbVertex
100
AcDb2dVertex
 10
-1.230509316768334
 20
-34.88118833565275
 30
0
  0
VERTEX
  5
2B1
100
AcDbEntity
  8
s005-#def-solid-edge
  6
CONTINUOUS
 62
    7
420
    0
370
   30
100
AcDbVertex
100
AcDb2dVertex
 10
-1.241530268047583
 20
-34.94911858212276
 30
0
  0
VERTEX
  5
2B2
100
AcDbEntity
  8
s005-#def-solid-edge
  6
CONTINUOUS
 62
    7
420
    0
370
   30
100
AcDbVertex
100
AcDb2dVertex
 10
-1.270655110744656
 20
-35.01147019228991
 30
0
  0
VERTEX
  5
2B3
100
AcDbEntity
  8
s005-#def-solid-edge
  6
CONTINUOUS
 62
    7
420
    0
370
   30
100
AcDbVertex
100
AcDb2dVertex
 10
-1.313777885801443
 20
-35.06183717071465
 30
0
  0
VERTEX
  5
2B4
100
AcDbEntity
  8
s005-#def-solid-edge
  6
CONTINUOUS
 62
    7
420
    0
370
   30
100
AcDbVertex
100
AcDb2dVertex
 10
-1.383527957647786
 20
-35.13867100449261
 30
0
  0
VERTEX
  5
2B5
100
AcDbEntity
  8
s005-#def-solid-edge
  6
CONTINUOUS
 62
    7
420
    0
370
   30
100
AcDbVertex
100
AcDb2dVertex
 10
-1.436880017055799
 20
-35.23039102173267
 30
0
  0
VERTEX
  5
2B6
100
AcDbEntity
  8
s005-#def-solid-edge
  6
CONTINUOUS
 62
    7
420
    0
370
   30
100
AcDbVertex
100
AcDb2dVertex
 10
-1.469676041932502
 20
-35.33130397708465
 30
0
  0
VERTEX
  5
2B7
100
AcDbEntity
  8
s005-#def-solid-edge
  6
CONTINUOUS
 62
    7
420
    0
370
   30
100
AcDbVertex
100
AcDb2dVertex
 10
-1.480444552468114
 20
-35.43451516696461
 30
0
  0
VERTEX
  5
2B8
100
AcDbEntity
  8
s005-#def-solid-edge
  6
CONTINUOUS
 62
    7
420
    0
370
   30
100
AcDbVertex
100
AcDb2dVertex
 10
-1.480444552468114
 20
-37.61648117821471
 30
0
  0
VERTEX
  5
2B9
100
AcDbEntity
  8
s005-#def-solid-edge
  6
CONTINUOUS
 62
    7
420
    0
370
   30
100
AcDbVertex
100
AcDb2dVertex
 10
-1.469676041932402
 20
-37.71969236809527
 30
0
  0
VERTEX
  5
2BA
100
AcDbEntity
  8
s005-#def-solid-edge
  6
CONTINUOUS
 62
    7
420
    0
370
   30
100
AcDbVertex
100
AcDb2dVertex
 10
-1.436880017055756
 20
-37.82060532344664
 30
0
  0
VERTEX
  5
2BB
100
AcDbEntity
  8
s005-#def-solid-edge
  6
CONTINUOUS
 62
    7
420
    0
370
   30
100
AcDbVertex
100
AcDb2dVertex
 10
-1.383527957647786
 20
-37.9123253406867
 30
0
  0
VERTEX
  5
2BC
100
AcDbEntity
  8
s005-#def-solid-edge
  6
CONTINUOUS
 62
    7
420
    0
370
   30
100
AcDbVertex
100
AcDb2dVertex
 10
-1.313777885801457
 20
-37.98915917446466
 30
0
  0
VERTEX
  5
2BD
100
AcDbEntity
  8
s005-#def-solid-edge
  6
CONTINUOUS
 62
    7
420
    0
370
   30
100
AcDbVertex
100
AcDb2dVertex
 10
-1.270655110736399
 20
-38.03952615290218
 30
0
  0
VERTEX
  5
2BE
100
AcDbEntity
  8
s005-#def-solid-edge
  6
CONTINUOUS
 62
    7
420
    0
370
   30
100
AcDbVertex
100
AcDb2dVertex
 10
-1.241530268047626
 20
-38.10187776305654
 30
0
  0
VERTEX
  5
2BF
100
AcDbEntity
  8
s005-#def-solid-edge
  6
CONTINUOUS
 62
    7
420
    0
370
   30
100
AcDbVertex
100
AcDb2dVertex
 10
-1.230509316768305
 20
-38.16980800952655
 30
0
  0
VERTEX
  5
2C0
100
AcDbEntity
  8
s005-#def-solid-edge
  6
CONTINUOUS
 62
    7
420
    0
370
   30
100
AcDbVertex
100
AcDb2dVertex
 10
-1.237804025800884
 20
-38.23571091890359
 30
0
  0
VERTEX
  5
2C1
100
AcDbEntity
  8
s005-#def-solid-edge
  6
CONTINUOUS
 62
    7
420
    0
370
   30
100
AcDbVertex
100
AcDb2dVertex
 10
-1.262166676058172
 20
-38.29737831317858
 30
0
  0
VERTEX
  5
2C2
100
AcDbEntity
  8
s005-#def-solid-edge
  6
CONTINUOUS
 62
    7
420
    0
370
   30
100
AcDbVertex
100
AcDb2dVertex
 10
-1.303667857171448
 20
-38.3522748678863
 30
0
  0
VERTEX
  5
2C3
100
AcDbEntity
  8
s005-#def-solid-edge
  6
CONTINUOUS
 62
    7
420
    0
370
   30
100
AcDbVertex
100
AcDb2dVertex
 10
-1.358564411879172
 20
-38.3937760489996
 30
0
  0
VERTEX
  5
2C4
100
AcDbEntity
  8
s005-#def-solid-edge
  6
CONTINUOUS
 62
    7
420
    0
370
   30
100
AcDbVertex
100
AcDb2dVertex
 10
-1.420231806154177
 20
-38.41813869925686
 30
0
  0
VERTEX
  5
2C5
100
AcDbEntity
  8
s005-#def-solid-edge
  6
CONTINUOUS
 62
    7
420
    0
370
   30
100
AcDbVertex
100
AcDb2dVertex
 10
-1.486134715531179
 20
-38.42543340828947
 30
0
  0
VERTEX
  5
2C6
100
AcDbEntity
  8
s005-#def-solid-edge
  6
CONTINUOUS
 62
    7
420
    0
370
   30
100
AcDbVertex
100
AcDb2dVertex
 10
-1.554064962001192
 20
-38.4144124570102
 30
0
  0
VERTEX
  5
2C7
100
AcDbEntity
  8
s005-#def-solid-edge
  6
CONTINUOUS
 62
    7
420
    0
370
   30
100
AcDbVertex
100
AcDb2dVertex
 10
-1.616416572168404
 20
-38.38528761431307
 30
0
  0
VERTEX
  5
2C8
100
AcDbEntity
  8
s005-#def-solid-edge
  6
CONTINUOUS
 62
    7
420
    0
370
   30
100
AcDbVertex
100
AcDb2dVertex
 10
-1.666783550593109
 20
-38.34216483925633
 30
0
  0
VERTEX
  5
2C9
100
AcDbEntity
  8
s005-#def-solid-edge
  6
CONTINUOUS
 62
    7
420
    0
370
   30
100
AcDbVertex
100
AcDb2dVertex
 10
-1.743617384371547
 20
-38.27241476740963
 30
0
  0
VERTEX
  5
2CA
100
AcDbEntity
  8
s005-#def-solid-edge
  6
CONTINUOUS
 62
    7
420
    0
370
   30
100
AcDbVertex
100
AcDb2dVertex
 10
-1.835337401611142
 20
-38.21906270800203
 30
0
  0
VERTEX
  5
2CB
100
AcDbEntity
  8
s005-#def-solid-edge
  6
CONTINUOUS
 62
    7
420
    0
370
   30
100
AcDbVertex
100
AcDb2dVertex
 10
-1.936250356963114
 20
-38.18626668312525
 30
0
  0
VERTEX
  5
2CC
100
AcDbEntity
  8
s005-#def-solid-edge
  6
CONTINUOUS
 62
    7
420
    0
370
   30
100
AcDbVertex
100
AcDb2dVertex
 10
-2.0394615468431
 20
-38.17549817258966
 30
0
  0
VERTEX
  5
2CD
100
AcDbEntity
  8
s005-#def-solid-edge
  6
CONTINUOUS
 62
    7
420
    0
370
   30
100
AcDbVertex
100
AcDb2dVertex
 10
-20.92142755809316
 20
-38.17549817258966
 30
0
  0
VERTEX
  5
2CE
100
AcDbEntity
  8
s005-#def-solid-edge
  6
CONTINUOUS
 62
    7
420
    0
370
   30
100
AcDbVertex
100
AcDb2dVertex
 10
-21.02463874797311
 20
-38.18626668312525
 30
0
  0
VERTEX
  5
2CF
100
AcDbEntity
  8
s005-#def-solid-edge
  6
CONTINUOUS
 62
    7
420
    0
370
   30
100
AcDbVertex
100
AcDb2dVertex
 10
-21.12555170332507
 20
-38.21906270800201
 30
0
  0
VERTEX
  5
2D0
100
AcDbEntity
  8
s005-#def-solid-edge
  6
CONTINUOUS
 62
    7
420
    0
370
   30
100
AcDbVertex
100
AcDb2dVertex
 10
-21.21727172056517
 20
-38.27241476740999
 30
0
  0
VERTEX
  5
2D1
100
AcDbEntity
  8
s005-#def-solid-edge
  6
CONTINUOUS
 62
    7
420
    0
370
   30
100
AcDbVertex
100
AcDb2dVertex
 10
-21.29410555434315
 20
-38.34216483925631
 30
0
  0
VERTEX
  5
2D2
100
AcDbEntity
  8
s005-#def-solid-edge
  6
CONTINUOUS
 62
    7
420
    0
370
   30
100
AcDbVertex
100
AcDb2dVertex
 10
-21.34447253276781
 20
-38.38528761431306
 30
0
  0
VERTEX
  5
2D3
100
AcDbEntity
  8
s005-#def-solid-edge
  6
CONTINUOUS
 62
    7
420
    0
370
   30
100
AcDbVertex
100
AcDb2dVertex
 10
-21.40682414293506
 20
-38.41441245701019
 30
0
  0
VERTEX
  5
2D4
100
AcDbEntity
  8
s005-#def-solid-edge
  6
CONTINUOUS
 62
    7
420
    0
370
   30
100
AcDbVertex
100
AcDb2dVertex
 10
-21.47475438940499
 20
-38.42543340828945
 30
0
  0
VERTEX
  5
2D5
100
AcDbEntity
  8
s005-#def-solid-edge
  6
CONTINUOUS
 62
    7
420
    0
370
   30
100
AcDbVertex
100
AcDb2dVertex
 10
-21.54065729878202
 20
-38.41813869925685
 30
0
  0
VERTEX
  5
2D6
100
AcDbEntity
  8
s005-#def-solid-edge
  6
CONTINUOUS
 62
    7
420
    0
370
   30
100
AcDbVertex
100
AcDb2dVertex
 10
-21.60232469305701
 20
-38.39377604899957
 30
0
  0
VERTEX
  5
2D7
100
AcDbEntity
  8
s005-#def-solid-edge
  6
CONTINUOUS
 62
    7
420
    0
370
   30
100
AcDbVertex
100
AcDb2dVertex
 10
-21.65722124776475
 20
-38.35227486788629
 30
0
  0
VERTEX
  5
2D8
100
AcDbEntity
  8
s005-#def-solid-edge
  6
CONTINUOUS
 62
    7
420
    0
370
   30
100
AcDbVertex
100
AcDb2dVertex
 10
-21.698722428878
 20
-38.29737831317864
 30
0
  0
VERTEX
  5
2D9
100
AcDbEntity
  8
s005-#def-solid-edge
  6
CONTINUOUS
 62
    7
420
    0
370
   30
100
AcDbVertex
100
AcDb2dVertex
 10
-21.72308507913532
 20
-38.23571091890357
 30
0
  0
VERTEX
  5
2DA
100
AcDbEntity
  8
s005-#def-solid-edge
  6
CONTINUOUS
 62
    7
420
    0
370
   30
100
AcDbVertex
100
AcDb2dVertex
 10
-21.73037978816787
 20
-38.16980800952655
 30
0
  0
VERTEX
  5
2DB
100
AcDbEntity
  8
s005-#def-solid-edge
  6
CONTINUOUS
 62
    7
420
    0
370
   30
100
AcDbVertex
100
AcDb2dVertex
 10
-21.71935883688863
 20
-38.10187776305656
 30
0
  0
VERTEX
  5
2DC
100
AcDbEntity
  8
s005-#def-solid-edge
  6
CONTINUOUS
 62
    7
420
    0
370
   30
100
AcDbVertex
100
AcDb2dVertex
 10
-21.69023399419147
 20
-38.03952615288936
 30
0
  0
VERTEX
  5
2DD
100
AcDbEntity
  8
s005-#def-solid-edge
  6
CONTINUOUS
 62
    7
420
    0
370
   30
100
AcDbVertex
100
AcDb2dVertex
 10
-21.64711121913477
 20
-37.98915917446467
 30
0
  0
VERTEX
  5
2DE
100
AcDbEntity
  8
s005-#def-solid-edge
  6
CONTINUOUS
 62
    7
420
    0
370
   30
100
AcDbVertex
100
AcDb2dVertex
 10
-21.57736114728844
 20
-37.91232534068671
 30
0
  0
VERTEX
  5
2DF
100
AcDbEntity
  8
s005-#def-solid-edge
  6
CONTINUOUS
 62
    7
420
    0
370
   30
100
AcDbVertex
100
AcDb2dVertex
 10
-21.52400908788047
 20
-37.82060532344663
 30
0
  0
VERTEX
  5
2E0
100
AcDbEntity
  8
s005-#def-solid-edge
  6
CONTINUOUS
 62
    7
420
    0
370
   30
100
AcDbVertex
100
AcDb2dVertex
 10
-21.49121306300373
 20
-37.71969236809466
 30
0
  0
VERTEX
  5
2E1
100
AcDbEntity
  8
s005-#def-solid-edge
  6
CONTINUOUS
 62
    7
420
    0
370
   30
100
AcDbVertex
100
AcDb2dVertex
 10
-21.48044455246814
 20
-37.61648117821471
 30
0
  0
VERTEX
  5
2E2
100
AcDbEntity
  8
s005-#def-solid-edge
  6
CONTINUOUS
 62
    7
420
    0
370
   30
100
AcDbVertex
100
AcDb2dVertex
 10
-21.48044455246816
 20
-35.43451516696461
 30
0
  0
VERTEX
  5
2E3
100
AcDbEntity
  8
s005-#def-solid-edge
  6
CONTINUOUS
 62
    7
420
    0
370
   30
100
AcDbVertex
100
AcDb2dVertex
 10
-21.49121306300385
 20
-35.33130397708405
 30
0
  0
VERTEX
  5
2E4
100
AcDbEntity
  8
s005-#def-solid-edge
  6
CONTINUOUS
 62
    7
420
    0
370
   30
100
AcDbVertex
100
AcDb2dVertex
 10
-21.52400908788046
 20
-35.23039102173268
 30
0
  0
VERTEX
  5
2E5
100
AcDbEntity
  8
s005-#def-solid-edge
  6
CONTINUOUS
 62
    7
420
    0
370
   30
100
AcDbVertex
100
AcDb2dVertex
 10
-21.57736114728844
 20
-35.13867100449261
 30
0
  0
VERTEX
  5
2E6
100
AcDbEntity
  8
s005-#def-solid-edge
  6
CONTINUOUS
 62
    7
420
    0
370
   30
100
AcDbVertex
100
AcDb2dVertex
 10
-21.64711121913477
 20
-35.06183717071465
 30
0
  0
VERTEX
  5
2E7
100
AcDbEntity
  8
s005-#def-solid-edge
  6
CONTINUOUS
 62
    7
420
    0
370
   30
100
AcDbVertex
100
AcDb2dVertex
 10
-21.69023399419154
 20
-35.01147019228996
 30
0
  0
VERTEX
  5
2E8
100
AcDbEntity
  8
s005-#def-solid-edge
  6
CONTINUOUS
 62
    7
420
    0
370
   30
100
AcDbVertex
100
AcDb2dVertex
 10
-21.71935883688866
 20
-34.94911858212275
 30
0
  0
VERTEX
  5
2E9
100
AcDbEntity
  8
s005-#def-solid-edge
  6
CONTINUOUS
 62
    7
420
    0
370
   30
100
AcDbVertex
100
AcDb2dVertex
 10
-21.73037978816792
 20
-34.88118833565282
 30
0
  0
VERTEX
  5
2EA
100
AcDbEntity
  8
s005-#def-solid-edge
  6
CONTINUOUS
 62
    7
420
    0
370
   30
100
AcDbVertex
100
AcDb2dVertex
 10
-21.72308507913532
 20
-34.81528542627574
 30
0
  0
VERTEX
  5
2EB
100
AcDbEntity
  8
s005-#def-solid-edge
  6
CONTINUOUS
 62
    7
420
    0
370
   30
100
AcDbVertex
100
AcDb2dVertex
 10
-21.6987224288706
 20
-34.75361803198739
 30
0
  0
VERTEX
  5
2EC
100
AcDbEntity
  8
s005-#def-solid-edge
  6
CONTINUOUS
 62
    7
420
    0
370
   30
100
AcDbVertex
100
AcDb2dVertex
 10
-21.65722124776478
 20
-34.69872147729301
 30
0
  0
VERTEX
  5
2ED
100
AcDbEntity
  8
s005-#def-solid-edge
  6
CONTINUOUS
 62
    7
420
    0
370
   30
100
AcDbVertex
100
AcDb2dVertex
 10
-21.6023246930571
 20
-34.65722029617976
 30
0
  0
VERTEX
  5
2EE
100
AcDbEntity
  8
s005-#def-solid-edge
  6
CONTINUOUS
 62
    7
420
    0
370
   30
100
AcDbVertex
100
AcDb2dVertex
 10
-21.54065729878202
 20
-34.63285764592245
 30
0
  0
VERTEX
  5
2EF
100
AcDbEntity
  8
s005-#def-solid-edge
  6
CONTINUOUS
 62
    7
420
    0
370
   30
100
AcDbVertex
100
AcDb2dVertex
 10
-21.47475438940499
 20
-34.62556293688985
 30
0
  0
VERTEX
  5
2F0
100
AcDbEntity
  8
s005-#def-solid-edge
  6
CONTINUOUS
 62
    7
420
    0
370
   30
100
AcDbVertex
100
AcDb2dVertex
 10
-21.40682414293498
 20
-34.63658388816911
 30
0
  0
VERTEX
  5
2F1
100
AcDbEntity
  8
s005-#def-solid-edge
  6
CONTINUOUS
 62
    7
420
    0
370
   30
100
AcDbVertex
100
AcDb2dVertex
 10
-21.34447253276788
 20
-34.6657087308662
 30
0
  0
VERTEX
  5
2F2
100
AcDbEntity
  8
s005-#def-solid-edge
  6
CONTINUOUS
 62
    7
420
    0
370
   30
100
AcDbVertex
100
AcDb2dVertex
 10
-21.29410555434312
 20
-34.70883150592299
 30
0
  0
VERTEX
  5
2F3
100
AcDbEntity
  8
s005-#def-solid-edge
  6
CONTINUOUS
 62
    7
420
    0
370
   30
100
AcDbVertex
100
AcDb2dVertex
 10
-21.21727172056464
 20
-34.77858157776971
 30
0
  0
VERTEX
  5
2F4
100
AcDbEntity
  8
s005-#def-solid-edge
  6
CONTINUOUS
 62
    7
420
    0
370
   30
100
AcDbVertex
100
AcDb2dVertex
 10
-21.12555170332512
 20
-34.83193363717729
 30
0
  0
VERTEX
  5
2F5
100
AcDbEntity
  8
s005-#def-solid-edge
  6
CONTINUOUS
 62
    7
420
    0
370
   30
100
AcDbVertex
100
AcDb2dVertex
 10
-21.0246387479731
 20
-34.86472966205407
 30
0
  0
VERTEX
  5
2F6
100
AcDbEntity
  8
s005-#def-solid-edge
  6
CONTINUOUS
 62
    7
420
    0
370
   30
100
AcDbVertex
100
AcDb2dVertex
 10
-20.92142755809316
 20
-34.87549817258966
 30
0
  0
SEQEND
  5
2F7
100
AcDbEntity
  8
s005-#def-solid-edge
  6
CONTINUOUS
 62
    7
420
    0
370
   30
  0
POLYLINE
  5
2F8
100
AcDbEntity
  8
s005-#def-solid-edge
  6
CONTINUOUS
 62
    7
420
    0
370
   30
100
AcDb2dPolyline
 10
0
 20
0
 30
0
 70
    0
  0
VERTEX
  5
2F9
100
AcDbEntity
  8
s005-#def-solid-edge
  6
CONTINUOUS
 62
    7
420
    0
370
   30
100
AcDbVertex
100
AcDb2dVertex
 10
-109.3341988477131
 20
-25.62549817258966
 30
0
  0
VERTEX
  5
2FA
100
AcDbEntity
  8
s005-#def-solid-edge
  6
CONTINUOUS
 62
    7
420
    0
370
   30
100
AcDbVertex
100
AcDb2dVertex
 10
-109.1411166756348
 20
-24.61323772129451
 30
0
  0
VERTEX
  5
2FB
100
AcDbEntity
  8
s005-#def-solid-edge
  6
CONTINUOUS
 62
    7
420
    0
370
   30
100
AcDbVertex
100
AcDb2dVertex
 10
-108.5287424959761
 20
-23.68095452432665
 30
0
  0
VERTEX
  5
2FC
100
AcDbEntity
  8
s005-#def-solid-edge
  6
CONTINUOUS
 62
    7
420
    0
370
   30
100
AcDbVertex
100
AcDb2dVertex
 10
-107.5964592990083
 20
-23.06858034466798
 30
0
  0
VERTEX
  5
2FD
100
AcDbEntity
  8
s005-#def-solid-edge
  6
CONTINUOUS
 62
    7
420
    0
370
   30
100
AcDbVertex
100
AcDb2dVertex
 10
-106.5841988477131
 20
-22.87549817258965
 30
0
  0
VERTEX
  5
2FE
100
AcDbEntity
  8
s005-#def-solid-edge
  6
CONTINUOUS
 62
    7
420
    0
370
   30
100
AcDbVertex
100
AcDb2dVertex
 10
-105.571938396418
 20
-23.06858034466798
 30
0
  0
VERTEX
  5
2FF
100
AcDbEntity
  8
s005-#def-solid-edge
  6
CONTINUOUS
 62
    7
420
    0
370
   30
100
AcDbVertex
100
AcDb2dVertex
 10
-104.6396551994501
 20
-23.68095452432664
 30
0
  0
VERTEX
  5
300
100
AcDbEntity
  8
s005-#def-solid-edge
  6
CONTINUOUS
 62
    7
420
    0
370
   30
100
AcDbVertex
100
AcDb2dVertex
 10
-104.0272810197915
 20
-24.61323772129451
 30
0
  0
VERTEX
  5
301
100
AcDbEntity
  8
s005-#def-solid-edge
  6
CONTINUOUS
 62
    7
420
    0
370
   30
100
AcDbVertex
100
AcDb2dVertex
 10
-103.8341988477131
 20
-25.62549817258966
 30
0
  0
VERTEX
  5
302
100
AcDbEntity
  8
s005-#def-solid-edge
  6
CONTINUOUS
 62
    7
420
    0
370
   30
100
AcDbVertex
100
AcDb2dVertex
 10
-104.0272810197914
 20
-26.63775862388481
 30
0
  0
VERTEX
  5
303
100
AcDbEntity
  8
s005-#def-solid-edge
  6
CONTINUOUS
 62
    7
420
    0
370
   30
100
AcDbVertex
100
AcDb2dVertex
 10
-104.6396551994501
 20
-27.57004182085267
 30
0
  0
VERTEX
  5
304
100
AcDbEntity
  8
s005-#def-solid-edge
  6
CONTINUOUS
 62
    7
420
    0
370
   30
100
AcDbVertex
100
AcDb2dVertex
 10
-105.571938396418
 20
-28.18241600051134
 30
0
  0
VERTEX
  5
305
100
AcDbEntity
  8
s005-#def-solid-edge
  6
CONTINUOUS
 62
    7
420
    0
370
   30
100
AcDbVertex
100
AcDb2dVertex
 10
-106.5841988477131
 20
-28.37549817258966
 30
0
  0
VERTEX
  5
306
100
AcDbEntity
  8
s005-#def-solid-edge
  6
CONTINUOUS
 62
    7
420
    0
370
   30
100
AcDbVertex
100
AcDb2dVertex
 10
-107.5964592990083
 20
-28.18241600051135
 30
0
  0
VERTEX
  5
307
100
AcDbEntity
  8
s005-#def-solid-edge
  6
CONTINUOUS
 62
    7
420
    0
370
   30
100
AcDbVertex
100
AcDb2dVertex
 10
-108.5287424959761
 20
-27.57004182085267
 30
0
  0
VERTEX
  5
308
100
AcDbEntity
  8
s005-#def-solid-edge
  6
CONTINUOUS
 62
    7
420
    0
370
   30
100
AcDbVertex
100
AcDb2dVertex
 10
-109.1411166756348
 20
-26.63775862388481
 30
0
  0
VERTEX
  5
309
100
AcDbEntity
  8
s005-#def-solid-edge
  6
CONTINUOUS
 62
    7
420
    0
370
   30
100
AcDbVertex
100
AcDb2dVertex
 10
-109.3341988477131
 20
-25.62549817258966
 30
0
  0
SEQEND
  5
30A
100
AcDbEntity
  8
s005-#def-solid-edge
  6
CONTINUOUS
 62
    7
420
    0
370
   30
  0
POLYLINE
  5
30B
100
AcDbEntity
  8
s005-#def-solid-edge
  6
CONTINUOUS
 62
    7
420
    0
370
   30
100
AcDb2dPolyline
 10
0
 20
0
 30
0
 70
    0
  0
VERTEX
  5
30C
100
AcDbEntity
  8
s005-#def-solid-edge
  6
CONTINUOUS
 62
    7
420
    0
370
   30
100
AcDbVertex
100
AcDb2dVertex
 10
-48.64321584208805
 20
-38.17549817258966
 30
0
  0
VERTEX
  5
30D
100
AcDbEntity
  8
s005-#def-solid-edge
  6
CONTINUOUS
 62
    7
420
    0
370
   30
100
AcDbVertex
100
AcDb2dVertex
 10
-67.52518185333814
 20
-38.17549817258966
 30
0
  0
VERTEX
  5
30E
100
AcDbEntity
  8
s005-#def-solid-edge
  6
CONTINUOUS
 62
    7
420
    0
370
   30
100
AcDbVertex
100
AcDb2dVertex
 10
-67.62839304321874
 20
-38.18626668312538
 30
0
  0
VERTEX
  5
30F
100
AcDbEntity
  8
s005-#def-solid-edge
  6
CONTINUOUS
 62
    7
420
    0
370
   30
100
AcDbVertex
100
AcDb2dVertex
 10
-67.72930599857007
 20
-38.21906270800202
 30
0
  0
VERTEX
  5
310
100
AcDbEntity
  8
s005-#def-solid-edge
  6
CONTINUOUS
 62
    7
420
    0
370
   30
100
AcDbVertex
100
AcDb2dVertex
 10
-67.82102601581015
 20
-38.27241476740999
 30
0
  0
VERTEX
  5
311
100
AcDbEntity
  8
s005-#def-solid-edge
  6
CONTINUOUS
 62
    7
420
    0
370
   30
100
AcDbVertex
100
AcDb2dVertex
 10
-67.8978598495881
 20
-38.34216483925631
 30
0
  0
VERTEX
  5
312
100
AcDbEntity
  8
s005-#def-solid-edge
  6
CONTINUOUS
 62
    7
420
    0
370
   30
100
AcDbVertex
100
AcDb2dVertex
 10
-67.94822682801278
 20
-38.38528761431306
 30
0
  0
VERTEX
  5
313
100
AcDbEntity
  8
s005-#def-solid-edge
  6
CONTINUOUS
 62
    7
420
    0
370
   30
100
AcDbVertex
100
AcDb2dVertex
 10
-68.01057843818005
 20
-38.41441245701019
 30
0
  0
VERTEX
  5
314
100
AcDbEntity
  8
s005-#def-solid-edge
  6
CONTINUOUS
 62
    7
420
    0
370
   30
100
AcDbVertex
100
AcDb2dVertex
 10
-68.07850868464998
 20
-38.42543340828945
 30
0
  0
VERTEX
  5
315
100
AcDbEntity
  8
s005-#def-solid-edge
  6
CONTINUOUS
 62
    7
420
    0
370
   30
100
AcDbVertex
100
AcDb2dVertex
 10
-68.14441159402701
 20
-38.41813869925684
 30
0
  0
VERTEX
  5
316
100
AcDbEntity
  8
s005-#def-solid-edge
  6
CONTINUOUS
 62
    7
420
    0
370
   30
100
AcDbVertex
100
AcDb2dVertex
 10
-68.20607898831538
 20
-38.39377604899211
 30
0
  0
VERTEX
  5
317
100
AcDbEntity
  8
s005-#def-solid-edge
  6
CONTINUOUS
 62
    7
420
    0
370
   30
100
AcDbVertex
100
AcDb2dVertex
 10
-68.26097554300971
 20
-38.35227486788631
 30
0
  0
VERTEX
  5
318
100
AcDbEntity
  8
s005-#def-solid-edge
  6
CONTINUOUS
 62
    7
420
    0
370
   30
100
AcDbVertex
100
AcDb2dVertex
 10
-68.30247672412294
 20
-38.29737831317865
 30
0
  0
VERTEX
  5
319
100
AcDbEntity
  8
s005-#def-solid-edge
  6
CONTINUOUS
 62
    7
420
    0
370
   30
100
AcDbVertex
100
AcDb2dVertex
 10
-68.3268393743803
 20
-38.23571091890357
 30
0
  0
VERTEX
  5
31A
100
AcDbEntity
  8
s005-#def-solid-edge
  6
CONTINUOUS
 62
    7
420
    0
370
   30
100
AcDbVertex
100
AcDb2dVertex
 10
-68.33413408341256
 20
-38.16980800951128
 30
0
  0
VERTEX
  5
31B
100
AcDbEntity
  8
s005-#def-solid-edge
  6
CONTINUOUS
 62
    7
420
    0
370
   30
100
AcDbVertex
100
AcDb2dVertex
 10
-68.32311313213363
 20
-38.10187776305656
 30
0
  0
VERTEX
  5
31C
100
AcDbEntity
  8
s005-#def-solid-edge
  6
CONTINUOUS
 62
    7
420
    0
370
   30
100
AcDbVertex
100
AcDb2dVertex
 10
-68.29398828943648
 20
-38.03952615288936
 30
0
  0
VERTEX
  5
31D
100
AcDbEntity
  8
s005-#def-solid-edge
  6
CONTINUOUS
 62
    7
420
    0
370
   30
100
AcDbVertex
100
AcDb2dVertex
 10
-68.25086551437975
 20
-37.98915917446467
 30
0
  0
VERTEX
  5
31E
100
AcDbEntity
  8
s005-#def-solid-edge
  6
CONTINUOUS
 62
    7
420
    0
370
   30
100
AcDbVertex
100
AcDb2dVertex
 10
-68.18111544253306
 20
-37.91232534068621
 30
0
  0
VERTEX
  5
31F
100
AcDbEntity
  8
s005-#def-solid-edge
  6
CONTINUOUS
 62
    7
420
    0
370
   30
100
AcDbVertex
100
AcDb2dVertex
 10
-68.12776338312541
 20
-37.82060532344663
 30
0
  0
VERTEX
  5
320
100
AcDbEntity
  8
s005-#def-solid-edge
  6
CONTINUOUS
 62
    7
420
    0
370
   30
100
AcDbVertex
100
AcDb2dVertex
 10
-68.09496735824867
 20
-37.71969236809467
 30
0
  0
VERTEX
  5
321
100
AcDbEntity
  8
s005-#def-solid-edge
  6
CONTINUOUS
 62
    7
420
    0
370
   30
100
AcDbVertex
100
AcDb2dVertex
 10
-68.0841988477131
 20
-37.61648117821471
 30
0
  0
VERTEX
  5
322
100
AcDbEntity
  8
s005-#def-solid-edge
  6
CONTINUOUS
 62
    7
420
    0
370
   30
100
AcDbVertex
100
AcDb2dVertex
 10
-68.0841988477131
 20
-35.43451516696461
 30
0
  0
VERTEX
  5
323
100
AcDbEntity
  8
s005-#def-solid-edge
  6
CONTINUOUS
 62
    7
420
    0
370
   30
100
AcDbVertex
100
AcDb2dVertex
 10
-68.09496735824878
 20
-35.33130397708406
 30
0
  0
VERTEX
  5
324
100
AcDbEntity
  8
s005-#def-solid-edge
  6
CONTINUOUS
 62
    7
420
    0
370
   30
100
AcDbVertex
100
AcDb2dVertex
 10
-68.12776338312547
 20
-35.23039102173267
 30
0
  0
VERTEX
  5
325
100
AcDbEntity
  8
s005-#def-solid-edge
  6
CONTINUOUS
 62
    7
420
    0
370
   30
100
AcDbVertex
100
AcDb2dVertex
 10
-68.1811154425334
 20
-35.13867100449261
 30
0
  0
VERTEX
  5
326
100
AcDbEntity
  8
s005-#def-solid-edge
  6
CONTINUOUS
 62
    7
420
    0
370
   30
100
AcDbVertex
100
AcDb2dVertex
 10
-68.25086551437978
 20
-35.06183717071466
 30
0
  0
VERTEX
  5
327
100
AcDbEntity
  8
s005-#def-solid-edge
  6
CONTINUOUS
 62
    7
420
    0
370
   30
100
AcDbVertex
100
AcDb2dVertex
 10
-68.29398828943651
 20
-35.01147019228996
 30
0
  0
VERTEX
  5
328
100
AcDbEntity
  8
s005-#def-solid-edge
  6
CONTINUOUS
 62
    7
420
    0
370
   30
100
AcDbVertex
100
AcDb2dVertex
 10
-68.32311313213366
 20
-34.94911858212276
 30
0
  0
VERTEX
  5
329
100
AcDbEntity
  8
s005-#def-solid-edge
  6
CONTINUOUS
 62
    7
420
    0
370
   30
100
AcDbVertex
100
AcDb2dVertex
 10
-68.33413408341291
 20
-34.88118833565275
 30
0
  0
VERTEX
  5
32A
100
AcDbEntity
  8
s005-#def-solid-edge
  6
CONTINUOUS
 62
    7
420
    0
370
   30
100
AcDbVertex
100
AcDb2dVertex
 10
-68.3268393743803
 20
-34.81528542627574
 30
0
  0
VERTEX
  5
32B
100
AcDbEntity
  8
s005-#def-solid-edge
  6
CONTINUOUS
 62
    7
420
    0
370
   30
100
AcDbVertex
100
AcDb2dVertex
 10
-68.30247672412303
 20
-34.75361803200073
 30
0
  0
VERTEX
  5
32C
100
AcDbEntity
  8
s005-#def-solid-edge
  6
CONTINUOUS
 62
    7
420
    0
370
   30
100
AcDbVertex
100
AcDb2dVertex
 10
-68.26097554300974
 20
-34.69872147729302
 30
0
  0
VERTEX
  5
32D
100
AcDbEntity
  8
s005-#def-solid-edge
  6
CONTINUOUS
 62
    7
420
    0
370
   30
100
AcDbVertex
100
AcDb2dVertex
 10
-68.20607898830208
 20
-34.65722029617977
 30
0
  0
VERTEX
  5
32E
100
AcDbEntity
  8
s005-#def-solid-edge
  6
CONTINUOUS
 62
    7
420
    0
370
   30
100
AcDbVertex
100
AcDb2dVertex
 10
-68.14441159402701
 20
-34.63285764592245
 30
0
  0
VERTEX
  5
32F
100
AcDbEntity
  8
s005-#def-solid-edge
  6
CONTINUOUS
 62
    7
420
    0
370
   30
100
AcDbVertex
100
AcDb2dVertex
 10
-68.07850868465
 20
-34.62556293688985
 30
0
  0
VERTEX
  5
330
100
AcDbEntity
  8
s005-#def-solid-edge
  6
CONTINUOUS
 62
    7
420
    0
370
   30
100
AcDbVertex
100
AcDb2dVertex
 10
-68.01057843817999
 20
-34.63658388816911
 30
0
  0
VERTEX
  5
331
100
AcDbEntity
  8
s005-#def-solid-edge
  6
CONTINUOUS
 62
    7
420
    0
370
   30
100
AcDbVertex
100
AcDb2dVertex
 10
-67.94822682801278
 20
-34.66570873086624
 30
0
  0
VERTEX
  5
332
100
AcDbEntity
  8
s005-#def-solid-edge
  6
CONTINUOUS
 62
    7
420
    0
370
   30
100
AcDbVertex
100
AcDb2dVertex
 10
-67.8978598495881
 20
-34.70883150592299
 30
0
  0
VERTEX
  5
333
100
AcDbEntity
  8
s005-#def-solid-edge
  6
CONTINUOUS
 62
    7
420
    0
370
   30
100
AcDbVertex
100
AcDb2dVertex
 10
-67.82102601580964
 20
-34.7785815777697
 30
0
  0
VERTEX
  5
334
100
AcDbEntity
  8
s005-#def-solid-edge
  6
CONTINUOUS
 62
    7
420
    0
370
   30
100
AcDbVertex
100
AcDb2dVertex
 10
-67.72930599857013
 20
-34.83193363717729
 30
0
  0
VERTEX
  5
335
100
AcDbEntity
  8
s005-#def-solid-edge
  6
CONTINUOUS
 62
    7
420
    0
370
   30
100
AcDbVertex
100
AcDb2dVertex
 10
-67.62839304321811
 20
-34.86472966205407
 30
0
  0
VERTEX
  5
336
100
AcDbEntity
  8
s005-#def-solid-edge
  6
CONTINUOUS
 62
    7
420
    0
370
   30
100
AcDbVertex
100
AcDb2dVertex
 10
-67.52518185333814
 20
-34.87549817258966
 30
0
  0
VERTEX
  5
337
100
AcDbEntity
  8
s005-#def-solid-edge
  6
CONTINUOUS
 62
    7
420
    0
370
   30
100
AcDbVertex
100
AcDb2dVertex
 10
-48.64321584208803
 20
-34.87549817258966
 30
0
  0
VERTEX
  5
338
100
AcDbEntity
  8
s005-#def-solid-edge
  6
CONTINUOUS
 62
    7
420
    0
370
   30
100
AcDbVertex
100
AcDb2dVertex
 10
-48.54000465220811
 20
-34.86472966205407
 30
0
  0
VERTEX
  5
339
100
AcDbEntity
  8
s005-#def-solid-edge
  6
CONTINUOUS
 62
    7
420
    0
370
   30
100
AcDbVertex
100
AcDb2dVertex
 10
-48.43909169685615
 20
-34.83193363717729
 30
0
  0
VERTEX
  5
33A
100
AcDbEntity
  8
s005-#def-solid-edge
  6
CONTINUOUS
 62
    7
420
    0
370
   30
100
AcDbVertex
100
AcDb2dVertex
 10
-48.34737167961613
 20
-34.77858157776933
 30
0
  0
VERTEX
  5
33B
100
AcDbEntity
  8
s005-#def-solid-edge
  6
CONTINUOUS
 62
    7
420
    0
370
   30
100
AcDbVertex
100
AcDb2dVertex
 10
-48.27053784583809
 20
-34.708831505923
 30
0
  0
VERTEX
  5
33C
100
AcDbEntity
  8
s005-#def-solid-edge
  6
CONTINUOUS
 62
    7
420
    0
370
   30
100
AcDbVertex
100
AcDb2dVertex
 10
-48.22017086741344
 20
-34.66570873086626
 30
0
  0
VERTEX
  5
33D
100
AcDbEntity
  8
s005-#def-solid-edge
  6
CONTINUOUS
 62
    7
420
    0
370
   30
100
AcDbVertex
100
AcDb2dVertex
 10
-48.15781925724623
 20
-34.63658388816913
 30
0
  0
VERTEX
  5
33E
100
AcDbEntity
  8
s005-#def-solid-edge
  6
CONTINUOUS
 62
    7
420
    0
370
   30
100
AcDbVertex
100
AcDb2dVertex
 10
-48.08988901077622
 20
-34.62556293688986
 30
0
  0
VERTEX
  5
33F
100
AcDbEntity
  8
s005-#def-solid-edge
  6
CONTINUOUS
 62
    7
420
    0
370
   30
100
AcDbVertex
100
AcDb2dVertex
 10
-48.02398610139919
 20
-34.63285764592247
 30
0
  0
VERTEX
  5
340
100
AcDbEntity
  8
s005-#def-solid-edge
  6
CONTINUOUS
 62
    7
420
    0
370
   30
100
AcDbVertex
100
AcDb2dVertex
 10
-47.96231870712417
 20
-34.65722029617974
 30
0
  0
VERTEX
  5
341
100
AcDbEntity
  8
s005-#def-solid-edge
  6
CONTINUOUS
 62
    7
420
    0
370
   30
100
AcDbVertex
100
AcDb2dVertex
 10
-47.90742215241646
 20
-34.69872147729303
 30
0
  0
VERTEX
  5
342
100
AcDbEntity
  8
s005-#def-solid-edge
  6
CONTINUOUS
 62
    7
420
    0
370
   30
100
AcDbVertex
100
AcDb2dVertex
 10
-47.86592097130317
 20
-34.75361803200074
 30
0
  0
VERTEX
  5
343
100
AcDbEntity
  8
s005-#def-solid-edge
  6
CONTINUOUS
 62
    7
420
    0
370
   30
100
AcDbVertex
100
AcDb2dVertex
 10
-47.84155832104589
 20
-34.81528542627574
 30
0
  0
VERTEX
  5
344
100
AcDbEntity
  8
s005-#def-solid-edge
  6
CONTINUOUS
 62
    7
420
    0
370
   30
100
AcDbVertex
100
AcDb2dVertex
 10
-47.83426361201332
 20
-34.88118833565275
 30
0
  0
VERTEX
  5
345
100
AcDbEntity
  8
s005-#def-solid-edge
  6
CONTINUOUS
 62
    7
420
    0
370
   30
100
AcDbVertex
100
AcDb2dVertex
 10
-47.84528456329259
 20
-34.94911858212276
 30
0
  0
VERTEX
  5
346
100
AcDbEntity
  8
s005-#def-solid-edge
  6
CONTINUOUS
 62
    7
420
    0
370
   30
100
AcDbVertex
100
AcDb2dVertex
 10
-47.87440940598968
 20
-35.01147019228996
 30
0
  0
VERTEX
  5
347
100
AcDbEntity
  8
s005-#def-solid-edge
  6
CONTINUOUS
 62
    7
420
    0
370
   30
100
AcDbVertex
100
AcDb2dVertex
 10
-47.91753218104644
 20
-35.06183717071465
 30
0
  0
VERTEX
  5
348
100
AcDbEntity
  8
s005-#def-solid-edge
  6
CONTINUOUS
 62
    7
420
    0
370
   30
100
AcDbVertex
100
AcDb2dVertex
 10
-47.98728225289277
 20
-35.13867100449261
 30
0
  0
VERTEX
  5
349
100
AcDbEntity
  8
s005-#def-solid-edge
  6
CONTINUOUS
 62
    7
420
    0
370
   30
100
AcDbVertex
100
AcDb2dVertex
 10
-48.04063431230072
 20
-35.23039102173267
 30
0
  0
VERTEX
  5
34A
100
AcDbEntity
  8
s005-#def-solid-edge
  6
CONTINUOUS
 62
    7
420
    0
370
   30
100
AcDbVertex
100
AcDb2dVertex
 10
-48.0734303371775
 20
-35.33130397708465
 30
0
  0
VERTEX
  5
34B
100
AcDbEntity
  8
s005-#def-solid-edge
  6
CONTINUOUS
 62
    7
420
    0
370
   30
100
AcDbVertex
100
AcDb2dVertex
 10
-48.0841988477131
 20
-35.43451516696461
 30
0
  0
VERTEX
  5
34C
100
AcDbEntity
  8
s005-#def-solid-edge
  6
CONTINUOUS
 62
    7
420
    0
370
   30
100
AcDbVertex
100
AcDb2dVertex
 10
-48.0841988477131
 20
-37.61648117821471
 30
0
  0
VERTEX
  5
34D
100
AcDbEntity
  8
s005-#def-solid-edge
  6
CONTINUOUS
 62
    7
420
    0
370
   30
100
AcDbVertex
100
AcDb2dVertex
 10
-48.07343033717736
 20
-37.71969236809527
 30
0
  0
VERTEX
  5
34E
100
AcDbEntity
  8
s005-#def-solid-edge
  6
CONTINUOUS
 62
    7
420
    0
370
   30
100
AcDbVertex
100
AcDb2dVertex
 10
-48.04063431230072
 20
-37.82060532344664
 30
0
  0
VERTEX
  5
34F
100
AcDbEntity
  8
s005-#def-solid-edge
  6
CONTINUOUS
 62
    7
420
    0
370
   30
100
AcDbVertex
100
AcDb2dVertex
 10
-47.98728225289277
 20
-37.91232534068668
 30
0
  0
VERTEX
  5
350
100
AcDbEntity
  8
s005-#def-solid-edge
  6
CONTINUOUS
 62
    7
420
    0
370
   30
100
AcDbVertex
100
AcDb2dVertex
 10
-47.91753218104644
 20
-37.98915917446467
 30
0
  0
VERTEX
  5
351
100
AcDbEntity
  8
s005-#def-solid-edge
  6
CONTINUOUS
 62
    7
420
    0
370
   30
100
AcDbVertex
100
AcDb2dVertex
 10
-47.87440940598968
 20
-38.03952615288934
 30
0
  0
VERTEX
  5
352
100
AcDbEntity
  8
s005-#def-solid-edge
  6
CONTINUOUS
 62
    7
420
    0
370
   30
100
AcDbVertex
100
AcDb2dVertex
 10
-47.84528456329254
 20
-38.10187776305654
 30
0
  0
VERTEX
  5
353
100
AcDbEntity
  8
s005-#def-solid-edge
  6
CONTINUOUS
 62
    7
420
    0
370
   30
100
AcDbVertex
100
AcDb2dVertex
 10
-47.83426361201329
 20
-38.16980800952655
 30
0
  0
VERTEX
  5
354
100
AcDbEntity
  8
s005-#def-solid-edge
  6
CONTINUOUS
 62
    7
420
    0
370
   30
100
AcDbVertex
100
AcDb2dVertex
 10
-47.84155832104589
 20
-38.23571091890359
 30
0
  0
VERTEX
  5
355
100
AcDbEntity
  8
s005-#def-solid-edge
  6
CONTINUOUS
 62
    7
420
    0
370
   30
100
AcDbVertex
100
AcDb2dVertex
 10
-47.86592097130314
 20
-38.29737831317859
 30
0
  0
VERTEX
  5
356
100
AcDbEntity
  8
s005-#def-solid-edge
  6
CONTINUOUS
 62
    7
420
    0
370
   30
100
AcDbVertex
100
AcDb2dVertex
 10
-47.90742215241646
 20
-38.3522748678863
 30
0
  0
VERTEX
  5
357
100
AcDbEntity
  8
s005-#def-solid-edge
  6
CONTINUOUS
 62
    7
420
    0
370
   30
100
AcDbVertex
100
AcDb2dVertex
 10
-47.96231870712417
 20
-38.3937760489996
 30
0
  0
VERTEX
  5
358
100
AcDbEntity
  8
s005-#def-solid-edge
  6
CONTINUOUS
 62
    7
420
    0
370
   30
100
AcDbVertex
100
AcDb2dVertex
 10
-48.02398610139919
 20
-38.41813869925686
 30
0
  0
VERTEX
  5
359
100
AcDbEntity
  8
s005-#def-solid-edge
  6
CONTINUOUS
 62
    7
420
    0
370
   30
100
AcDbVertex
100
AcDb2dVertex
 10
-48.08988901077619
 20
-38.42543340828947
 30
0
  0
VERTEX
  5
35A
100
AcDbEntity
  8
s005-#def-solid-edge
  6
CONTINUOUS
 62
    7
420
    0
370
   30
100
AcDbVertex
100
AcDb2dVertex
 10
-48.15781925724617
 20
-38.4144124570102
 30
0
  0
VERTEX
  5
35B
100
AcDbEntity
  8
s005-#def-solid-edge
  6
CONTINUOUS
 62
    7
420
    0
370
   30
100
AcDbVertex
100
AcDb2dVertex
 10
-48.22017086741336
 20
-38.38528761431307
 30
0
  0
VERTEX
  5
35C
100
AcDbEntity
  8
s005-#def-solid-edge
  6
CONTINUOUS
 62
    7
420
    0
370
   30
100
AcDbVertex
100
AcDb2dVertex
 10
-48.27053784583809
 20
-38.34216483925633
 30
0
  0
VERTEX
  5
35D
100
AcDbEntity
  8
s005-#def-solid-edge
  6
CONTINUOUS
 62
    7
420
    0
370
   30
100
AcDbVertex
100
AcDb2dVertex
 10
-48.34737167961653
 20
-38.27241476740964
 30
0
  0
VERTEX
  5
35E
100
AcDbEntity
  8
s005-#def-solid-edge
  6
CONTINUOUS
 62
    7
420
    0
370
   30
100
AcDbVertex
100
AcDb2dVertex
 10
-48.43909169685612
 20
-38.21906270800203
 30
0
  0
VERTEX
  5
35F
100
AcDbEntity
  8
s005-#def-solid-edge
  6
CONTINUOUS
 62
    7
420
    0
370
   30
100
AcDbVertex
100
AcDb2dVertex
 10
-48.54000465220808
 20
-38.18626668312525
 30
0
  0
VERTEX
  5
360
100
AcDbEntity
  8
s005-#def-solid-edge
  6
CONTINUOUS
 62
    7
420
    0
370
   30
100
AcDbVertex
100
AcDb2dVertex
 10
-48.64321584208805
 20
-38.17549817258966
 30
0
  0
SEQEND
  5
361
100
AcDbEntity
  8
s005-#def-solid-edge
  6
CONTINUOUS
 62
    7
420
    0
370
   30
  0
POLYLINE
  5
362
100
AcDbEntity
  8
s005-#def-solid-edge
  6
CONTINUOUS
 62
    7
420
    0
370
   30
100
AcDb2dPolyline
 10
0
 20
0
 30
0
 70
    0
  0
VERTEX
  5
363
100
AcDbEntity
  8
s005-#def-solid-edge
  6
CONTINUOUS
 62
    7
420
    0
370
   30
100
AcDbVertex
100
AcDb2dVertex
 10
318.9727189802086
 20
0.3867622787054898
 30
0
  0
VERTEX
  5
364
100
AcDbEntity
  8
s005-#def-solid-edge
  6
CONTINUOUS
 62
    7
420
    0
370
   30
100
AcDbVertex
100
AcDb2dVertex
 10
319.1658011522869
 20
-0.6254981725896585
 30
0
  0
VERTEX
  5
365
100
AcDbEntity
  8
s005-#def-solid-edge
  6
CONTINUOUS
 62
    7
420
    0
370
   30
100
AcDbVertex
100
AcDb2dVertex
 10
318.9727189802086
 20
-1.637758623884807
 30
0
  0
VERTEX
  5
366
100
AcDbEntity
  8
s005-#def-solid-edge
  6
CONTINUOUS
 62
    7
420
    0
370
   30
100
AcDbVertex
100
AcDb2dVertex
 10
318.3603448005499
 20
-2.570041820852659
 30
0
  0
VERTEX
  5
367
100
AcDbEntity
  8
s005-#def-solid-edge
  6
CONTINUOUS
 62
    7
420
    0
370
   30
100
AcDbVertex
100
AcDb2dVertex
 10
317.4280616037843
 20
-3.182416000431296
 30
0
  0
VERTEX
  5
368
100
AcDbEntity
  8
s005-#def-solid-edge
  6
CONTINUOUS
 62
    7
420
    0
370
   30
100
AcDbVertex
100
AcDb2dVertex
 10
316.4158011522869
 20
-3.375498172589658
 30
0
  0
VERTEX
  5
369
100
AcDbEntity
  8
s005-#def-solid-edge
  6
CONTINUOUS
 62
    7
420
    0
370
   30
100
AcDbVertex
100
AcDb2dVertex
 10
315.4035407009918
 20
-3.182416000511338
 30
0
  0
VERTEX
  5
36A
100
AcDbEntity
  8
s005-#def-solid-edge
  6
CONTINUOUS
 62
    7
420
    0
370
   30
100
AcDbVertex
100
AcDb2dVertex
 10
314.4712575040239
 20
-2.570041820852673
 30
0
  0
VERTEX
  5
36B
100
AcDbEntity
  8
s005-#def-solid-edge
  6
CONTINUOUS
 62
    7
420
    0
370
   30
100
AcDbVertex
100
AcDb2dVertex
 10
313.8588833243652
 20
-1.6377586238848
 30
0
  0
VERTEX
  5
36C
100
AcDbEntity
  8
s005-#def-solid-edge
  6
CONTINUOUS
 62
    7
420
    0
370
   30
100
AcDbVertex
100
AcDb2dVertex
 10
313.665801152287
 20
-0.6254981725896585
 30
0
  0
VERTEX
  5
36D
100
AcDbEntity
  8
s005-#def-solid-edge
  6
CONTINUOUS
 62
    7
420
    0
370
   30
100
AcDbVertex
100
AcDb2dVertex
 10
313.8588833243653
 20
0.3867622787054827
 30
0
  0
VERTEX
  5
36E
100
AcDbEntity
  8
s005-#def-solid-edge
  6
CONTINUOUS
 62
    7
420
    0
370
   30
100
AcDbVertex
100
AcDb2dVertex
 10
314.4712575040239
 20
1.319045475673356
 30
0
  0
VERTEX
  5
36F
100
AcDbEntity
  8
s005-#def-solid-edge
  6
CONTINUOUS
 62
    7
420
    0
370
   30
100
AcDbVertex
100
AcDb2dVertex
 10
315.4035407009918
 20
1.931419655332022
 30
0
  0
VERTEX
  5
370
100
AcDbEntity
  8
s005-#def-solid-edge
  6
CONTINUOUS
 62
    7
420
    0
370
   30
100
AcDbVertex
100
AcDb2dVertex
 10
316.415801152287
 20
2.124501827410349
 30
0
  0
VERTEX
  5
371
100
AcDbEntity
  8
s005-#def-solid-edge
  6
CONTINUOUS
 62
    7
420
    0
370
   30
100
AcDbVertex
100
AcDb2dVertex
 10
317.4280616035821
 20
1.931419655332022
 30
0
  0
VERTEX
  5
372
100
AcDbEntity
  8
s005-#def-solid-edge
  6
CONTINUOUS
 62
    7
420
    0
370
   30
100
AcDbVertex
100
AcDb2dVertex
 10
318.3603448005499
 20
1.319045475673349
 30
0
  0
VERTEX
  5
373
100
AcDbEntity
  8
s005-#def-solid-edge
  6
CONTINUOUS
 62
    7
420
    0
370
   30
100
AcDbVertex
100
AcDb2dVertex
 10
318.9727189802086
 20
0.3867622787054898
 30
0
  0
SEQEND
  5
374
100
AcDbEntity
  8
s005-#def-solid-edge
  6
CONTINUOUS
 62
    7
420
    0
370
   30
  0
POLYLINE
  5
375
100
AcDbEntity
  8
s005-#def-solid-edge
  6
CONTINUOUS
 62
    7
420
    0
370
   30
100
AcDb2dPolyline
 10
0
 20
0
 30
0
 70
    0
  0
VERTEX
  5
376
100
AcDbEntity
  8
s005-#def-solid-edge
  6
CONTINUOUS
 62
    7
420
    0
370
   30
100
AcDbVertex
100
AcDb2dVertex
 10
-106.5841988477131
 20
2.124501827410349
 30
0
  0
VERTEX
  5
377
100
AcDbEntity
  8
s005-#def-solid-edge
  6
CONTINUOUS
 62
    7
420
    0
370
   30
100
AcDbVertex
100
AcDb2dVertex
 10
-105.5719383964179
 20
1.931419655332022
 30
0
  0
VERTEX
  5
378
100
AcDbEntity
  8
s005-#def-solid-edge
  6
CONTINUOUS
 62
    7
420
    0
370
   30
100
AcDbVertex
100
AcDb2dVertex
 10
-104.6396551994501
 20
1.319045475673349
 30
0
  0
VERTEX
  5
379
100
AcDbEntity
  8
s005-#def-solid-edge
  6
CONTINUOUS
 62
    7
420
    0
370
   30
100
AcDbVertex
100
AcDb2dVertex
 10
-104.0272810197914
 20
0.3867622787054898
 30
0
  0
VERTEX
  5
37A
100
AcDbEntity
  8
s005-#def-solid-edge
  6
CONTINUOUS
 62
    7
420
    0
370
   30
100
AcDbVertex
100
AcDb2dVertex
 10
-103.8341988477132
 20
-0.6254981725896585
 30
0
  0
VERTEX
  5
37B
100
AcDbEntity
  8
s005-#def-solid-edge
  6
CONTINUOUS
 62
    7
420
    0
370
   30
100
AcDbVertex
100
AcDb2dVertex
 10
-104.0272810197913
 20
-1.637758623884814
 30
0
  0
VERTEX
  5
37C
100
AcDbEntity
  8
s005-#def-solid-edge
  6
CONTINUOUS
 62
    7
420
    0
370
   30
100
AcDbVertex
100
AcDb2dVertex
 10
-104.6396551994502
 20
-2.570041820852659
 30
0
  0
VERTEX
  5
37D
100
AcDbEntity
  8
s005-#def-solid-edge
  6
CONTINUOUS
 62
    7
420
    0
370
   30
100
AcDbVertex
100
AcDb2dVertex
 10
-105.571938396418
 20
-3.182416000511338
 30
0
  0
VERTEX
  5
37E
100
AcDbEntity
  8
s005-#def-solid-edge
  6
CONTINUOUS
 62
    7
420
    0
370
   30
100
AcDbVertex
100
AcDb2dVertex
 10
-106.5841988477131
 20
-3.375498172589658
 30
0
  0
VERTEX
  5
37F
100
AcDbEntity
  8
s005-#def-solid-edge
  6
CONTINUOUS
 62
    7
420
    0
370
   30
100
AcDbVertex
100
AcDb2dVertex
 10
-107.5964592990083
 20
-3.182416000511338
 30
0
  0
VERTEX
  5
380
100
AcDbEntity
  8
s005-#def-solid-edge
  6
CONTINUOUS
 62
    7
420
    0
370
   30
100
AcDbVertex
100
AcDb2dVertex
 10
-108.5287424959761
 20
-2.570041820852651
 30
0
  0
VERTEX
  5
381
100
AcDbEntity
  8
s005-#def-solid-edge
  6
CONTINUOUS
 62
    7
420
    0
370
   30
100
AcDbVertex
100
AcDb2dVertex
 10
-109.1411166755548
 20
-1.63775862408697
 30
0
  0
VERTEX
  5
382
100
AcDbEntity
  8
s005-#def-solid-edge
  6
CONTINUOUS
 62
    7
420
    0
370
   30
100
AcDbVertex
100
AcDb2dVertex
 10
-109.3341988477131
 20
-0.6254981725896585
 30
0
  0
VERTEX
  5
383
100
AcDbEntity
  8
s005-#def-solid-edge
  6
CONTINUOUS
 62
    7
420
    0
370
   30
100
AcDbVertex
100
AcDb2dVertex
 10
-109.1411166756348
 20
0.3867622787054898
 30
0
  0
VERTEX
  5
384
100
AcDbEntity
  8
s005-#def-solid-edge
  6
CONTINUOUS
 62
    7
420
    0
370
   30
100
AcDbVertex
100
AcDb2dVertex
 10
-108.5287424959761
 20
1.319045475673349
 30
0
  0
VERTEX
  5
385
100
AcDbEntity
  8
s005-#def-solid-edge
  6
CONTINUOUS
 62
    7
420
    0
370
   30
100
AcDbVertex
100
AcDb2dVertex
 10
-107.5964592992105
 20
1.931419655251979
 30
0
  0
VERTEX
  5
386
100
AcDbEntity
  8
s005-#def-solid-edge
  6
CONTINUOUS
 62
    7
420
    0
370
   30
100
AcDbVertex
100
AcDb2dVertex
 10
-106.5841988477131
 20
2.124501827410349
 30
0
  0
SEQEND
  5
387
100
AcDbEntity
  8
s005-#def-solid-edge
  6
CONTINUOUS
 62
    7
420
    0
370
   30
  0
POLYLINE
  5
388
100
AcDbEntity
  8
s005-#def-solid-edge
  6
CONTINUOUS
 62
    7
420
    0
370
   30
100
AcDb2dPolyline
 10
0
 20
0
 30
0
 70
    0
  0
VERTEX
  5
389
100
AcDbEntity
  8
s005-#def-solid-edge
  6
CONTINUOUS
 62
    7
420
    0
370
   30
100
AcDbVertex
100
AcDb2dVertex
 10
314.4712575040239
 20
-23.68095452432665
 30
0
  0
VERTEX
  5
38A
100
AcDbEntity
  8
s005-#def-solid-edge
  6
CONTINUOUS
 62
    7
420
    0
370
   30
100
AcDbVertex
100
AcDb2dVertex
 10
315.4035407009918
 20
-23.06858034466798
 30
0
  0
VERTEX
  5
38B
100
AcDbEntity
  8
s005-#def-solid-edge
  6
CONTINUOUS
 62
    7
420
    0
370
   30
100
AcDbVertex
100
AcDb2dVertex
 10
316.4158011522869
 20
-22.87549817258965
 30
0
  0
VERTEX
  5
38C
100
AcDbEntity
  8
s005-#def-solid-edge
  6
CONTINUOUS
 62
    7
420
    0
370
   30
100
AcDbVertex
100
AcDb2dVertex
 10
317.4280616035821
 20
-23.06858034466798
 30
0
  0
VERTEX
  5
38D
100
AcDbEntity
  8
s005-#def-solid-edge
  6
CONTINUOUS
 62
    7
420
    0
370
   30
100
AcDbVertex
100
AcDb2dVertex
 10
318.3603448005499
 20
-23.68095452432665
 30
0
  0
VERTEX
  5
38E
100
AcDbEntity
  8
s005-#def-solid-edge
  6
CONTINUOUS
 62
    7
420
    0
370
   30
100
AcDbVertex
100
AcDb2dVertex
 10
318.9727189802086
 20
-24.61323772129451
 30
0
  0
VERTEX
  5
38F
100
AcDbEntity
  8
s005-#def-solid-edge
  6
CONTINUOUS
 62
    7
420
    0
370
   30
100
AcDbVertex
100
AcDb2dVertex
 10
319.1658011522869
 20
-25.62549817258966
 30
0
  0
VERTEX
  5
390
100
AcDbEntity
  8
s005-#def-solid-edge
  6
CONTINUOUS
 62
    7
420
    0
370
   30
100
AcDbVertex
100
AcDb2dVertex
 10
318.9727189802086
 20
-26.63775862388481
 30
0
  0
VERTEX
  5
391
100
AcDbEntity
  8
s005-#def-solid-edge
  6
CONTINUOUS
 62
    7
420
    0
370
   30
100
AcDbVertex
100
AcDb2dVertex
 10
318.3603448005499
 20
-27.57004182085266
 30
0
  0
VERTEX
  5
392
100
AcDbEntity
  8
s005-#def-solid-edge
  6
CONTINUOUS
 62
    7
420
    0
370
   30
100
AcDbVertex
100
AcDb2dVertex
 10
317.4280616037843
 20
-28.18241600043128
 30
0
  0
VERTEX
  5
393
100
AcDbEntity
  8
s005-#def-solid-edge
  6
CONTINUOUS
 62
    7
420
    0
370
   30
100
AcDbVertex
100
AcDb2dVertex
 10
316.4158011522869
 20
-28.37549817258966
 30
0
  0
VERTEX
  5
394
100
AcDbEntity
  8
s005-#def-solid-edge
  6
CONTINUOUS
 62
    7
420
    0
370
   30
100
AcDbVertex
100
AcDb2dVertex
 10
315.4035407009918
 20
-28.18241600051134
 30
0
  0
VERTEX
  5
395
100
AcDbEntity
  8
s005-#def-solid-edge
  6
CONTINUOUS
 62
    7
420
    0
370
   30
100
AcDbVertex
100
AcDb2dVertex
 10
314.471257504024
 20
-27.57004182085267
 30
0
  0
VERTEX
  5
396
100
AcDbEntity
  8
s005-#def-solid-edge
  6
CONTINUOUS
 62
    7
420
    0
370
   30
100
AcDbVertex
100
AcDb2dVertex
 10
313.8588833243653
 20
-26.63775862388481
 30
0
  0
VERTEX
  5
397
100
AcDbEntity
  8
s005-#def-solid-edge
  6
CONTINUOUS
 62
    7
420
    0
370
   30
100
AcDbVertex
100
AcDb2dVertex
 10
313.6658011522869
 20
-25.62549817258966
 30
0
  0
VERTEX
  5
398
100
AcDbEntity
  8
s005-#def-solid-edge
  6
CONTINUOUS
 62
    7
420
    0
370
   30
100
AcDbVertex
100
AcDb2dVertex
 10
313.8588833243653
 20
-24.61323772129451
 30
0
  0
VERTEX
  5
399
100
AcDbEntity
  8
s005-#def-solid-edge
  6
CONTINUOUS
 62
    7
420
    0
370
   30
100
AcDbVertex
100
AcDb2dVertex
 10
314.4712575040239
 20
-23.68095452432665
 30
0
  0
SEQEND
  5
39A
100
AcDbEntity
  8
s005-#def-solid-edge
  6
CONTINUOUS
 62
    7
420
    0
370
   30
  0
POLYLINE
  5
39B
100
AcDbEntity
  8
s005-#def-solid-edge
  6
CONTINUOUS
 62
    7
420
    0
370
   30
100
AcDb2dPolyline
 10
0
 20
0
 30
0
 70
    0
  0
VERTEX
  5
39C
100
AcDbEntity
  8
s005-#def-solid-edge
  6
CONTINUOUS
 62
    7
420
    0
370
   30
100
AcDbVertex
100
AcDb2dVertex
 10
91.90384073331848
 20
-38.3522748678863
 30
0
  0
VERTEX
  5
39D
100
AcDbEntity
  8
s005-#def-solid-edge
  6
CONTINUOUS
 62
    7
420
    0
370
   30
100
AcDbVertex
100
AcDb2dVertex
 10
91.84894417861074
 20
-38.3937760489996
 30
0
  0
VERTEX
  5
39E
100
AcDbEntity
  8
s005-#def-solid-edge
  6
CONTINUOUS
 62
    7
420
    0
370
   30
100
AcDbVertex
100
AcDb2dVertex
 10
91.78727678433577
 20
-38.41813869925686
 30
0
  0
VERTEX
  5
39F
100
AcDbEntity
  8
s005-#def-solid-edge
  6
CONTINUOUS
 62
    7
420
    0
370
   30
100
AcDbVertex
100
AcDb2dVertex
 10
91.72137387495876
 20
-38.42543340828947
 30
0
  0
VERTEX
  5
3A0
100
AcDbEntity
  8
s005-#def-solid-edge
  6
CONTINUOUS
 62
    7
420
    0
370
   30
100
AcDbVertex
100
AcDb2dVertex
 10
91.65344362848874
 20
-38.41441245701021
 30
0
  0
VERTEX
  5
3A1
100
AcDbEntity
  8
s005-#def-solid-edge
  6
CONTINUOUS
 62
    7
420
    0
370
   30
100
AcDbVertex
100
AcDb2dVertex
 10
91.59109201832158
 20
-38.38528761431307
 30
0
  0
VERTEX
  5
3A2
100
AcDbEntity
  8
s005-#def-solid-edge
  6
CONTINUOUS
 62
    7
420
    0
370
   30
100
AcDbVertex
100
AcDb2dVertex
 10
91.54072503989681
 20
-38.34216483925633
 30
0
  0
VERTEX
  5
3A3
100
AcDbEntity
  8
s005-#def-solid-edge
  6
CONTINUOUS
 62
    7
420
    0
370
   30
100
AcDbVertex
100
AcDb2dVertex
 10
91.46389120611892
 20
-38.27241476740998
 30
0
  0
VERTEX
  5
3A4
100
AcDbEntity
  8
s005-#def-solid-edge
  6
CONTINUOUS
 62
    7
420
    0
370
   30
100
AcDbVertex
100
AcDb2dVertex
 10
91.37217118887882
 20
-38.21906270800203
 30
0
  0
VERTEX
  5
3A5
100
AcDbEntity
  8
s005-#def-solid-edge
  6
CONTINUOUS
 62
    7
420
    0
370
   30
100
AcDbVertex
100
AcDb2dVertex
 10
91.27125823352681
 20
-38.18626668312525
 30
0
  0
VERTEX
  5
3A6
100
AcDbEntity
  8
s005-#def-solid-edge
  6
CONTINUOUS
 62
    7
420
    0
370
   30
100
AcDbVertex
100
AcDb2dVertex
 10
91.16804704364685
 20
-38.17549817258966
 30
0
  0
VERTEX
  5
3A7
100
AcDbEntity
  8
s005-#def-solid-edge
  6
CONTINUOUS
 62
    7
420
    0
370
   30
100
AcDbVertex
100
AcDb2dVertex
 10
72.28608103239678
 20
-38.17549817258966
 30
0
  0
VERTEX
  5
3A8
100
AcDbEntity
  8
s005-#def-solid-edge
  6
CONTINUOUS
 62
    7
420
    0
370
   30
100
AcDbVertex
100
AcDb2dVertex
 10
72.1828698425162
 20
-38.18626668312538
 30
0
  0
VERTEX
  5
3A9
100
AcDbEntity
  8
s005-#def-solid-edge
  6
CONTINUOUS
 62
    7
420
    0
370
   30
100
AcDbVertex
100
AcDb2dVertex
 10
72.08195688716486
 20
-38.21906270800201
 30
0
  0
VERTEX
  5
3AA
100
AcDbEntity
  8
s005-#def-solid-edge
  6
CONTINUOUS
 62
    7
420
    0
370
   30
100
AcDbVertex
100
AcDb2dVertex
 10
71.99023686992477
 20
-38.27241476740999
 30
0
  0
VERTEX
  5
3AB
100
AcDbEntity
  8
s005-#def-solid-edge
  6
CONTINUOUS
 62
    7
420
    0
370
   30
100
AcDbVertex
100
AcDb2dVertex
 10
71.91340303614679
 20
-38.34216483925631
 30
0
  0
VERTEX
  5
3AC
100
AcDbEntity
  8
s005-#def-solid-edge
  6
CONTINUOUS
 62
    7
420
    0
370
   30
100
AcDbVertex
100
AcDb2dVertex
 10
71.86303605772211
 20
-38.38528761431306
 30
0
  0
VERTEX
  5
3AD
100
AcDbEntity
  8
s005-#def-solid-edge
  6
CONTINUOUS
 62
    7
420
    0
370
   30
100
AcDbVertex
100
AcDb2dVertex
 10
71.80068444755493
 20
-38.41441245701019
 30
0
  0
VERTEX
  5
3AE
100
AcDbEntity
  8
s005-#def-solid-edge
  6
CONTINUOUS
 62
    7
420
    0
370
   30
100
AcDbVertex
100
AcDb2dVertex
 10
71.73275420108494
 20
-38.42543340828945
 30
0
  0
VERTEX
  5
3AF
100
AcDbEntity
  8
s005-#def-solid-edge
  6
CONTINUOUS
 62
    7
420
    0
370
   30
100
AcDbVertex
100
AcDb2dVertex
 10
71.66685129170793
 20
-38.41813869925685
 30
0
  0
VERTEX
  5
3B0
100
AcDbEntity
  8
s005-#def-solid-edge
  6
CONTINUOUS
 62
    7
420
    0
370
   30
100
AcDbVertex
100
AcDb2dVertex
 10
71.60518389743289
 20
-38.39377604899957
 30
0
  0
VERTEX
  5
3B1
100
AcDbEntity
  8
s005-#def-solid-edge
  6
CONTINUOUS
 62
    7
420
    0
370
   30
100
AcDbVertex
100
AcDb2dVertex
 10
71.5502873427252
 20
-38.35227486788631
 30
0
  0
VERTEX
  5
3B2
100
AcDbEntity
  8
s005-#def-solid-edge
  6
CONTINUOUS
 62
    7
420
    0
370
   30
100
AcDbVertex
100
AcDb2dVertex
 10
71.50878616161194
 20
-38.29737831317864
 30
0
  0
VERTEX
  5
3B3
100
AcDbEntity
  8
s005-#def-solid-edge
  6
CONTINUOUS
 62
    7
420
    0
370
   30
100
AcDbVertex
100
AcDb2dVertex
 10
71.48442351135462
 20
-38.23571091890357
 30
0
  0
VERTEX
  5
3B4
100
AcDbEntity
  8
s005-#def-solid-edge
  6
CONTINUOUS
 62
    7
420
    0
370
   30
100
AcDbVertex
100
AcDb2dVertex
 10
71.47712880232237
 20
-38.16980800951128
 30
0
  0
VERTEX
  5
3B5
100
AcDbEntity
  8
s005-#def-solid-edge
  6
CONTINUOUS
 62
    7
420
    0
370
   30
100
AcDbVertex
100
AcDb2dVertex
 10
71.48814975360129
 20
-38.10187776305655
 30
0
  0
VERTEX
  5
3B6
100
AcDbEntity
  8
s005-#def-solid-edge
  6
CONTINUOUS
 62
    7
420
    0
370
   30
100
AcDbVertex
100
AcDb2dVertex
 10
71.51727459629839
 20
-38.03952615288939
 30
0
  0
VERTEX
  5
3B7
100
AcDbEntity
  8
s005-#def-solid-edge
  6
CONTINUOUS
 62
    7
420
    0
370
   30
100
AcDbVertex
100
AcDb2dVertex
 10
71.56039737135517
 20
-37.98915917446467
 30
0
  0
VERTEX
  5
3B8
100
AcDbEntity
  8
s005-#def-solid-edge
  6
CONTINUOUS
 62
    7
420
    0
370
   30
100
AcDbVertex
100
AcDb2dVertex
 10
71.63014744320188
 20
-37.91232534068621
 30
0
  0
VERTEX
  5
3B9
100
AcDbEntity
  8
s005-#def-solid-edge
  6
CONTINUOUS
 62
    7
420
    0
370
   30
100
AcDbVertex
100
AcDb2dVertex
 10
71.68349950260946
 20
-37.82060532344664
 30
0
  0
VERTEX
  5
3BA
100
AcDbEntity
  8
s005-#def-solid-edge
  6
CONTINUOUS
 62
    7
420
    0
370
   30
100
AcDbVertex
100
AcDb2dVertex
 10
71.71629552748624
 20
-37.71969236809467
 30
0
  0
VERTEX
  5
3BB
100
AcDbEntity
  8
s005-#def-solid-edge
  6
CONTINUOUS
 62
    7
420
    0
370
   30
100
AcDbVertex
100
AcDb2dVertex
 10
71.72706403802182
 20
-37.61648117821471
 30
0
  0
VERTEX
  5
3BC
100
AcDbEntity
  8
s005-#def-solid-edge
  6
CONTINUOUS
 62
    7
420
    0
370
   30
100
AcDbVertex
100
AcDb2dVertex
 10
71.72706403802182
 20
-35.43451516696461
 30
0
  0
VERTEX
  5
3BD
100
AcDbEntity
  8
s005-#def-solid-edge
  6
CONTINUOUS
 62
    7
420
    0
370
   30
100
AcDbVertex
100
AcDb2dVertex
 10
71.71629552748624
 20
-35.33130397708465
 30
0
  0
VERTEX
  5
3BE
100
AcDbEntity
  8
s005-#def-solid-edge
  6
CONTINUOUS
 62
    7
420
    0
370
   30
100
AcDbVertex
100
AcDb2dVertex
 10
71.68349950260946
 20
-35.23039102173268
 30
0
  0
VERTEX
  5
3BF
100
AcDbEntity
  8
s005-#def-solid-edge
  6
CONTINUOUS
 62
    7
420
    0
370
   30
100
AcDbVertex
100
AcDb2dVertex
 10
71.63014744320151
 20
-35.13867100449261
 30
0
  0
VERTEX
  5
3C0
100
AcDbEntity
  8
s005-#def-solid-edge
  6
CONTINUOUS
 62
    7
420
    0
370
   30
100
AcDbVertex
100
AcDb2dVertex
 10
71.56039737135517
 20
-35.06183717071465
 30
0
  0
VERTEX
  5
3C1
100
AcDbEntity
  8
s005-#def-solid-edge
  6
CONTINUOUS
 62
    7
420
    0
370
   30
100
AcDbVertex
100
AcDb2dVertex
 10
71.51727459629009
 20
-35.01147019227713
 30
0
  0
VERTEX
  5
3C2
100
AcDbEntity
  8
s005-#def-solid-edge
  6
CONTINUOUS
 62
    7
420
    0
370
   30
100
AcDbVertex
100
AcDb2dVertex
 10
71.48814975360128
 20
-34.94911858212275
 30
0
  0
VERTEX
  5
3C3
100
AcDbEntity
  8
s005-#def-solid-edge
  6
CONTINUOUS
 62
    7
420
    0
370
   30
100
AcDbVertex
100
AcDb2dVertex
 10
71.47712880232203
 20
-34.88118833565282
 30
0
  0
VERTEX
  5
3C4
100
AcDbEntity
  8
s005-#def-solid-edge
  6
CONTINUOUS
 62
    7
420
    0
370
   30
100
AcDbVertex
100
AcDb2dVertex
 10
71.48442351135462
 20
-34.81528542627574
 30
0
  0
VERTEX
  5
3C5
100
AcDbEntity
  8
s005-#def-solid-edge
  6
CONTINUOUS
 62
    7
420
    0
370
   30
100
AcDbVertex
100
AcDb2dVertex
 10
71.50878616161935
 20
-34.7536180319874
 30
0
  0
VERTEX
  5
3C6
100
AcDbEntity
  8
s005-#def-solid-edge
  6
CONTINUOUS
 62
    7
420
    0
370
   30
100
AcDbVertex
100
AcDb2dVertex
 10
71.5502873427252
 20
-34.69872147729302
 30
0
  0
VERTEX
  5
3C7
100
AcDbEntity
  8
s005-#def-solid-edge
  6
CONTINUOUS
 62
    7
420
    0
370
   30
100
AcDbVertex
100
AcDb2dVertex
 10
71.60518389743285
 20
-34.65722029617977
 30
0
  0
VERTEX
  5
3C8
100
AcDbEntity
  8
s005-#def-solid-edge
  6
CONTINUOUS
 62
    7
420
    0
370
   30
100
AcDbVertex
100
AcDb2dVertex
 10
71.66685129170791
 20
-34.63285764592245
 30
0
  0
VERTEX
  5
3C9
100
AcDbEntity
  8
s005-#def-solid-edge
  6
CONTINUOUS
 62
    7
420
    0
370
   30
100
AcDbVertex
100
AcDb2dVertex
 10
71.73275420108492
 20
-34.62556293688985
 30
0
  0
VERTEX
  5
3CA
100
AcDbEntity
  8
s005-#def-solid-edge
  6
CONTINUOUS
 62
    7
420
    0
370
   30
100
AcDbVertex
100
AcDb2dVertex
 10
71.80068444755493
 20
-34.63658388816911
 30
0
  0
VERTEX
  5
3CB
100
AcDbEntity
  8
s005-#def-solid-edge
  6
CONTINUOUS
 62
    7
420
    0
370
   30
100
AcDbVertex
100
AcDb2dVertex
 10
71.86303605772211
 20
-34.66570873086624
 30
0
  0
VERTEX
  5
3CC
100
AcDbEntity
  8
s005-#def-solid-edge
  6
CONTINUOUS
 62
    7
420
    0
370
   30
100
AcDbVertex
100
AcDb2dVertex
 10
71.91340303614683
 20
-34.70883150592299
 30
0
  0
VERTEX
  5
3CD
100
AcDbEntity
  8
s005-#def-solid-edge
  6
CONTINUOUS
 62
    7
420
    0
370
   30
100
AcDbVertex
100
AcDb2dVertex
 10
71.99023686992476
 20
-34.77858157776933
 30
0
  0
VERTEX
  5
3CE
100
AcDbEntity
  8
s005-#def-solid-edge
  6
CONTINUOUS
 62
    7
420
    0
370
   30
100
AcDbVertex
100
AcDb2dVertex
 10
72.08195688716484
 20
-34.83193363717729
 30
0
  0
VERTEX
  5
3CF
100
AcDbEntity
  8
s005-#def-solid-edge
  6
CONTINUOUS
 62
    7
420
    0
370
   30
100
AcDbVertex
100
AcDb2dVertex
 10
72.18286984251684
 20
-34.86472966205407
 30
0
  0
VERTEX
  5
3D0
100
AcDbEntity
  8
s005-#def-solid-edge
  6
CONTINUOUS
 62
    7
420
    0
370
   30
100
AcDbVertex
100
AcDb2dVertex
 10
72.28608103239678
 20
-34.87549817258966
 30
0
  0
VERTEX
  5
3D1
100
AcDbEntity
  8
s005-#def-solid-edge
  6
CONTINUOUS
 62
    7
420
    0
370
   30
100
AcDbVertex
100
AcDb2dVertex
 10
91.16804704364684
 20
-34.87549817258966
 30
0
  0
VERTEX
  5
3D2
100
AcDbEntity
  8
s005-#def-solid-edge
  6
CONTINUOUS
 62
    7
420
    0
370
   30
100
AcDbVertex
100
AcDb2dVertex
 10
91.27125823352681
 20
-34.86472966205407
 30
0
  0
VERTEX
  5
3D3
100
AcDbEntity
  8
s005-#def-solid-edge
  6
CONTINUOUS
 62
    7
420
    0
370
   30
100
AcDbVertex
100
AcDb2dVertex
 10
91.37217118887878
 20
-34.83193363717729
 30
0
  0
VERTEX
  5
3D4
100
AcDbEntity
  8
s005-#def-solid-edge
  6
CONTINUOUS
 62
    7
420
    0
370
   30
100
AcDbVertex
100
AcDb2dVertex
 10
91.46389120611884
 20
-34.77858157776933
 30
0
  0
VERTEX
  5
3D5
100
AcDbEntity
  8
s005-#def-solid-edge
  6
CONTINUOUS
 62
    7
420
    0
370
   30
100
AcDbVertex
100
AcDb2dVertex
 10
91.54072503989683
 20
-34.708831505923
 30
0
  0
VERTEX
  5
3D6
100
AcDbEntity
  8
s005-#def-solid-edge
  6
CONTINUOUS
 62
    7
420
    0
370
   30
100
AcDbVertex
100
AcDb2dVertex
 10
91.59109201832152
 20
-34.66570873086626
 30
0
  0
VERTEX
  5
3D7
100
AcDbEntity
  8
s005-#def-solid-edge
  6
CONTINUOUS
 62
    7
420
    0
370
   30
100
AcDbVertex
100
AcDb2dVertex
 10
91.65344362848866
 20
-34.63658388816913
 30
0
  0
VERTEX
  5
3D8
100
AcDbEntity
  8
s005-#def-solid-edge
  6
CONTINUOUS
 62
    7
420
    0
370
   30
100
AcDbVertex
100
AcDb2dVertex
 10
91.72137387495867
 20
-34.62556293688986
 30
0
  0
VERTEX
  5
3D9
100
AcDbEntity
  8
s005-#def-solid-edge
  6
CONTINUOUS
 62
    7
420
    0
370
   30
100
AcDbVertex
100
AcDb2dVertex
 10
91.78727678433575
 20
-34.63285764592247
 30
0
  0
VERTEX
  5
3DA
100
AcDbEntity
  8
s005-#def-solid-edge
  6
CONTINUOUS
 62
    7
420
    0
370
   30
100
AcDbVertex
100
AcDb2dVertex
 10
91.84894417861075
 20
-34.65722029617975
 30
0
  0
VERTEX
  5
3DB
100
AcDbEntity
  8
s005-#def-solid-edge
  6
CONTINUOUS
 62
    7
420
    0
370
   30
100
AcDbVertex
100
AcDb2dVertex
 10
91.90384073331848
 20
-34.69872147729303
 30
0
  0
VERTEX
  5
3DC
100
AcDbEntity
  8
s005-#def-solid-edge
  6
CONTINUOUS
 62
    7
420
    0
370
   30
100
AcDbVertex
100
AcDb2dVertex
 10
91.94534191443172
 20
-34.75361803200074
 30
0
  0
VERTEX
  5
3DD
100
AcDbEntity
  8
s005-#def-solid-edge
  6
CONTINUOUS
 62
    7
420
    0
370
   30
100
AcDbVertex
100
AcDb2dVertex
 10
91.96970456468902
 20
-34.81528542627574
 30
0
  0
VERTEX
  5
3DE
100
AcDbEntity
  8
s005-#def-solid-edge
  6
CONTINUOUS
 62
    7
420
    0
370
   30
100
AcDbVertex
100
AcDb2dVertex
 10
91.97699927372162
 20
-34.88118833565275
 30
0
  0
VERTEX
  5
3DF
100
AcDbEntity
  8
s005-#def-solid-edge
  6
CONTINUOUS
 62
    7
420
    0
370
   30
100
AcDbVertex
100
AcDb2dVertex
 10
91.96597832244235
 20
-34.94911858212276
 30
0
  0
VERTEX
  5
3E0
100
AcDbEntity
  8
s005-#def-solid-edge
  6
CONTINUOUS
 62
    7
420
    0
370
   30
100
AcDbVertex
100
AcDb2dVertex
 10
91.93685347974521
 20
-35.01147019228996
 30
0
  0
VERTEX
  5
3E1
100
AcDbEntity
  8
s005-#def-solid-edge
  6
CONTINUOUS
 62
    7
420
    0
370
   30
100
AcDbVertex
100
AcDb2dVertex
 10
91.89373070468849
 20
-35.06183717071465
 30
0
  0
VERTEX
  5
3E2
100
AcDbEntity
  8
s005-#def-solid-edge
  6
CONTINUOUS
 62
    7
420
    0
370
   30
100
AcDbVertex
100
AcDb2dVertex
 10
91.82398063284177
 20
-35.1386710044931
 30
0
  0
VERTEX
  5
3E3
100
AcDbEntity
  8
s005-#def-solid-edge
  6
CONTINUOUS
 62
    7
420
    0
370
   30
100
AcDbVertex
100
AcDb2dVertex
 10
91.77062857343418
 20
-35.23039102173268
 30
0
  0
VERTEX
  5
3E4
100
AcDbEntity
  8
s005-#def-solid-edge
  6
CONTINUOUS
 62
    7
420
    0
370
   30
100
AcDbVertex
100
AcDb2dVertex
 10
91.73783254855741
 20
-35.33130397708464
 30
0
  0
VERTEX
  5
3E5
100
AcDbEntity
  8
s005-#def-solid-edge
  6
CONTINUOUS
 62
    7
420
    0
370
   30
100
AcDbVertex
100
AcDb2dVertex
 10
91.72706403802182
 20
-35.43451516696461
 30
0
  0
VERTEX
  5
3E6
100
AcDbEntity
  8
s005-#def-solid-edge
  6
CONTINUOUS
 62
    7
420
    0
370
   30
100
AcDbVertex
100
AcDb2dVertex
 10
91.72706403802182
 20
-37.61648117821471
 30
0
  0
VERTEX
  5
3E7
100
AcDbEntity
  8
s005-#def-solid-edge
  6
CONTINUOUS
 62
    7
420
    0
370
   30
100
AcDbVertex
100
AcDb2dVertex
 10
91.73783254855739
 20
-37.71969236809467
 30
0
  0
VERTEX
  5
3E8
100
AcDbEntity
  8
s005-#def-solid-edge
  6
CONTINUOUS
 62
    7
420
    0
370
   30
100
AcDbVertex
100
AcDb2dVertex
 10
91.77062857343418
 20
-37.82060532344664
 30
0
  0
VERTEX
  5
3E9
100
AcDbEntity
  8
s005-#def-solid-edge
  6
CONTINUOUS
 62
    7
420
    0
370
   30
100
AcDbVertex
100
AcDb2dVertex
 10
91.82398063284214
 20
-37.91232534068669
 30
0
  0
VERTEX
  5
3EA
100
AcDbEntity
  8
s005-#def-solid-edge
  6
CONTINUOUS
 62
    7
420
    0
370
   30
100
AcDbVertex
100
AcDb2dVertex
 10
91.89373070468848
 20
-37.98915917446466
 30
0
  0
VERTEX
  5
3EB
100
AcDbEntity
  8
s005-#def-solid-edge
  6
CONTINUOUS
 62
    7
420
    0
370
   30
100
AcDbVertex
100
AcDb2dVertex
 10
91.93685347974527
 20
-38.03952615288934
 30
0
  0
VERTEX
  5
3EC
100
AcDbEntity
  8
s005-#def-solid-edge
  6
CONTINUOUS
 62
    7
420
    0
370
   30
100
AcDbVertex
100
AcDb2dVertex
 10
91.96597832244238
 20
-38.10187776305654
 30
0
  0
VERTEX
  5
3ED
100
AcDbEntity
  8
s005-#def-solid-edge
  6
CONTINUOUS
 62
    7
420
    0
370
   30
100
AcDbVertex
100
AcDb2dVertex
 10
91.9769992737216
 20
-38.16980800952655
 30
0
  0
VERTEX
  5
3EE
100
AcDbEntity
  8
s005-#def-solid-edge
  6
CONTINUOUS
 62
    7
420
    0
370
   30
100
AcDbVertex
100
AcDb2dVertex
 10
91.96970456468902
 20
-38.23571091890359
 30
0
  0
VERTEX
  5
3EF
100
AcDbEntity
  8
s005-#def-solid-edge
  6
CONTINUOUS
 62
    7
420
    0
370
   30
100
AcDbVertex
100
AcDb2dVertex
 10
91.94534191443178
 20
-38.29737831317858
 30
0
  0
VERTEX
  5
3F0
100
AcDbEntity
  8
s005-#def-solid-edge
  6
CONTINUOUS
 62
    7
420
    0
370
   30
100
AcDbVertex
100
AcDb2dVertex
 10
91.90384073331848
 20
-38.3522748678863
 30
0
  0
SEQEND
  5
3F1
100
AcDbEntity
  8
s005-#def-solid-edge
  6
CONTINUOUS
 62
    7
420
    0
370
   30
  0
ENDSEC
  0
SECTION
  2
OBJECTS
  0
DICTIONARY
  5
C
330
0
100
AcDbDictionary
281
    1
  3
ACAD_GROUP
350
D
  0
DICTIONARY
  5
D
330
C
100
AcDbDictionary
281
    1
  0
ENDSEC
  0
EOF
