999
dxfrw 0.6.3
  0
SECTION
  2
HEADER
  9
$ACADVER
  1
AC1021
  9
$DWGCODEPAGE
  3
ANSI_1252
  9
$INSBASE
 10
0
 20
0
 30
0
  9
$EXTMIN
 10
1e+20
 20
1e+20
 30
1e+20
  9
$EXTMAX
 10
-1e+20
 20
-1e+20
 30
-1e+20
  9
$LIMMIN
 10
0
 20
0
  9
$LIMMAX
 10
420
 20
297
  9
$ORTHOMODE
 70
    0
  9
$REGENMODE
 70
    1
  9
$FILLMODE
 70
    1
  9
$QTEXTMODE
 70
    0
  9
$MIRRTEXT
 70
    0
  9
$LTSCALE
 40
1
  9
$ATTMODE
 70
    0
  9
$TEXTSIZE
 40
2.5
  9
$TRACEWID
 40
15.68
  9
$TEXTSTYLE
  7
STANDARD
  9
$CLAYER
  8
0
  9
$CELTYPE
  6
BYLAYER
  9
$CECOLOR
 62
  256
  9
$CELTSCALE
 40
1
  9
$DISPSILH
 70
    0
  9
$DIMSCALE
 40
1
  9
$DIMASZ
 40
2.5
  9
$DIMEXO
 40
0.625
  9
$DIMDLI
 40
3.75
  9
$DIMRND
 40
0
  9
$DIMDLE
 40
0
  9
$DIMEXE
 40
1.25
  9
$DIMTP
 40
0
  9
$DIMTM
 40
0
  9
$DIMTXT
 40
2.5
  9
$DIMCEN
 40
2.5
  9
$DIMTSZ
 40
0
  9
$DIMTOL
 70
    0
  9
$DIMLIM
 70
    0
  9
$DIMTIH
 70
    0
  9
$DIMTOH
 70
    0
  9
$DIMSE1
 70
    0
  9
$DIMSE2
 70
    0
  9
$DIMTAD
 70
    1
  9
$DIMZIN
 70
    8
  9
$DIMBLK
  1

  9
$DIMASO
 70
    1
  9
$DIMSHO
 70
    1
  9
$DIMPOST
  1

  9
$DIMAPOST
  1

  9
$DIMALT
 70
    0
  9
$DIMALTD
 70
    3
  9
$DIMALTF
 40
0.03937
  9
$DIMLFAC
 40
1
  9
$DIMTOFL
 70
    1
  9
$DIMTVP
 40
0
  9
$DIMTIX
 70
    0
  9
$DIMSOXD
 70
    0
  9
$DIMSAH
 70
    0
  9
$DIMBLK1
  1

  9
$DIMBLK2
  1

  9
$DIMSTYLE
  2
STANDARD
  9
$DIMCLRD
 70
    0
  9
$DIMCLRE
 70
    0
  9
$DIMCLRT
 70
    0
  9
$DIMTFAC
 40
1
  9
$DIMGAP
 40
0.625
  9
$DIMJUST
 70
    0
  9
$DIMSD1
 70
    0
  9
$DIMSD2
 70
    0
  9
$DIMTOLJ
 70
    0
  9
$DIMTZIN
 70
    8
  9
$DIMALTZ
 70
    0
  9
$DIMALTTZ
 70
    0
  9
$DIMUPT
 70
    0
  9
$DIMDEC
 70
    2
  9
$DIMTDEC
 70
    2
  9
$DIMALTU
 70
    2
  9
$DIMALTTD
 70
    3
  9
$DIMTXSTY
  7
STANDARD
  9
$DIMAUNIT
 70
    0
  9
$DIMADEC
 70
    0
  9
$DIMALTRND
 40
0
  9
$DIMAZIN
 70
    0
  9
$DIMDSEP
 70
   44
  9
$DIMATFIT
 70
    3
  9
$DIMFRAC
 70
    0
  9
$DIMLDRBLK
  1
STANDARD
  9
$DIMLUNIT
 70
    2
  9
$DIMLWD
 70
   -2
  9
$DIMLWE
 70
   -2
  9
$DIMTMOVE
 70
    0
  9
$DIMFXL
 40
1
  9
$DIMFXLON
 70
    0
  9
$DIMJOGANG
 40
0.7854
  9
$DIMTFILL
 70
    0
  9
$DIMTFILLCLR
 70
    0
  9
$DIMARCSYM
 70
    0
  9
$DIMLTYPE
  6

  9
$DIMLTEX1
  6

  9
$DIMLTEX2
  6

  9
$LUNITS
 70
    2
  9
$LUPREC
 70
    4
  9
$SKETCHINC
 40
1
  9
$FILLETRAD
 40
0
  9
$AUNITS
 70
    0
  9
$AUPREC
 70
    2
  9
$MENU
  1
.
  9
$ELEVATION
 40
0
  9
$PELEVATION
 40
0
  9
$THICKNESS
 40
0
  9
$LIMCHECK
 70
    0
  9
$CHAMFERA
 40
0
  9
$CHAMFERB
 40
0
  9
$CHAMFERC
 40
0
  9
$CHAMFERD
 40
0
  9
$SKPOLY
 70
    0
  9
$USRTIMER
 70
    1
  9
$ANGBASE
 50
0
  9
$ANGDIR
 70
    0
  9
$PDMODE
 70
   34
  9
$PDSIZE
 40
0
  9
$PLINEWID
 40
0
  9
$SPLFRAME
 70
    0
  9
$SPLINETYPE
 70
    2
  9
$SPLINESEGS
 70
    8
  9
$HANDSEED
  5
20000
  9
$SURFTAB1
 70
    6
  9
$SURFTAB2
 70
    6
  9
$SURFTYPE
 70
    6
  9
$SURFU
 70
    6
  9
$SURFV
 70
    6
  9
$UCSBASE
  2

  9
$UCSNAME
  2

  9
$UCSORG
 10
0
 20
0
 30
0
  9
$UCSXDIR
 10
1
 20
0
 30
0
  9
$UCSYDIR
 10
0
 20
1
 30
0
  9
$UCSORTHOREF
  2

  9
$UCSORTHOVIEW
 70
    0
  9
$UCSORGTOP
 10
0
 20
0
 30
0
  9
$UCSORGBOTTOM
 10
0
 20
0
 30
0
  9
$UCSORGLEFT
 10
0
 20
0
 30
0
  9
$UCSORGRIGHT
 10
0
 20
0
 30
0
  9
$UCSORGFRONT
 10
0
 20
0
 30
0
  9
$UCSORGBACK
 10
0
 20
0
 30
0
  9
$PUCSBASE
  2

  9
$PUCSNAME
  2

  9
$PUCSORG
 10
0
 20
0
 30
0
  9
$PUCSXDIR
 10
1
 20
0
 30
0
  9
$PUCSYDIR
 10
0
 20
1
 30
0
  9
$PUCSORTHOREF
  2

  9
$PUCSORTHOVIEW
 70
    0
  9
$PUCSORGTOP
 10
0
 20
0
 30
0
  9
$PUCSORGBOTTOM
 10
0
 20
0
 30
0
  9
$PUCSORGLEFT
 10
0
 20
0
 30
0
  9
$PUCSORGRIGHT
 10
0
 20
0
 30
0
  9
$PUCSORGFRONT
 10
0
 20
0
 30
0
  9
$PUCSORGBACK
 10
0
 20
0
 30
0
  9
$USERI1
 70
    0
  9
$USERI2
 70
    0
  9
$USERI3
 70
    0
  9
$USERI4
 70
    0
  9
$USERI5
 70
    0
  9
$USERR1
 40
0
  9
$USERR2
 40
0
  9
$USERR3
 40
0
  9
$USERR4
 40
0
  9
$USERR5
 40
0
  9
$WORLDVIEW
 70
    1
  9
$SHADEDGE
 70
    3
  9
$SHADEDIF
 70
   70
  9
$TILEMODE
 70
    1
  9
$MAXACTVP
 70
   64
  9
$PINSBASE
 10
0
 20
0
 30
0
  9
$PLIMCHECK
 70
    0
  9
$PEXTMIN
 10
0
 20
0
 30
0
  9
$PEXTMAX
 10
0
 20
0
 30
0
  9
$PLIMMIN
 10
0
 20
0
  9
$PLIMMAX
 10
297
 20
210
  9
$UNITMODE
 70
    0
  9
$VISRETAIN
 70
    1
  9
$PLINEGEN
 70
    0
  9
$PSLTSCALE
 70
    1
  9
$TREEDEPTH
 70
 3020
  9
$CMLSTYLE
  2
Standard
  9
$CMLJUST
 70
    0
  9
$CMLSCALE
 40
20
  9
$PROXYGRAPHICS
 70
    1
  9
$MEASUREMENT
 70
    1
  9
$CELWEIGHT
370
   -1
  9
$ENDCAPS
280
    0
  9
$JOINSTYLE
280
    0
  9
$LWDISPLAY
290
    0
  9
$INSUNITS
 70
    0
  9
$HYPERLINKBASE
  1

  9
$STYLESHEET
  1

  9
$XEDIT
290
    1
  9
$CEPSNTYPE
380
    0
  9
$PSTYLEMODE
290
    1
  9
$EXTNAMES
290
    1
  9
$PSVPSCALE
 40
0
  9
$OLESTARTUP
290
    0
  9
$SORTENTS
280
  127
  9
$INDEXCTL
280
    0
  9
$HIDETEXT
280
    1
  9
$XCLIPFRAME
290
    0
  9
$HALOGAP
280
    0
  9
$OBSCOLOR
 70
  257
  9
$OBSLTYPE
280
    0
  9
$INTERSECTIONDISPLAY
280
    0
  9
$INTERSECTIONCOLOR
 70
  257
  9
$DIMASSOC
280
    1
  9
$PROJECTNAME
  1

  9
$CAMERADISPLAY
290
    0
  9
$LENSLENGTH
 40
50
  9
$CAMERAHEIGHT
 40
0
  9
$STEPSPERSEC
 40
2
  9
$STEPSIZE
 40
50
  9
$3DDWFPREC
 40
2
  9
$PSOLWIDTH
 40
5
  9
$PSOLHEIGHT
 40
80
  9
$LOFTANG1
 40
1.570796326794897
  9
$LOFTANG2
 40
1.570796326794897
  9
$LOFTMAG1
 40
0
  9
$LOFTMAG2
 40
0
  9
$LOFTPARAM
 70
    7
  9
$LOFTNORMALS
280
    1
  9
$LATITUDE
 40
1
  9
$LONGITUDE
 40
1
  9
$NORTHDIRECTION
 40
0
  9
$TIMEZONE
 70
-8000
  9
$LIGHTGLYPHDISPLAY
280
    1
  9
$TILEMODELIGHTSYNCH
280
    1
  9
$SOLIDHIST
280
    1
  9
$SHOWHIST
280
    1
  9
$DWFFRAME
280
    2
  9
$DGNFRAME
280
    0
  9
$REALWORLDSCALE
290
    1
  9
$INTERFERECOLOR
 62
    1
  9
$CSHADOW
280
    0
  9
$SHADOWPLANELOCATION
 40
0
  0
ENDSEC
  0
SECTION
  2
CLASSES
  0
ENDSEC
  0
SECTION
  2
TABLES
  0
TABLE
  2
VPORT
  5
8
330
0
100
AcDbSymbolTable
 70
    1
  0
VPORT
  5
31
330
2
100
AcDbSymbolTableRecord
100
AcDbViewportTableRecord
  2
*ACTIVE
 70
    0
 10
0
 20
0
 11
1
 21
1
 12
0.651828
 22
-0.16
 13
0
 23
0
 14
10
 24
10
 15
10
 25
10
 16
0
 26
0
 36
1
 17
0
 27
0
 37
0
 40
5.13732
 41
2.4426877
 42
50
 43
0
 44
0
 50
0
 51
0
 71
    0
 72
  100
 73
    1
 74
    3
 75
    0
 76
    0
 77
    0
 78
    0
281
    0
 65
    1
110
0
120
0
130
0
111
1
121
0
131
0
112
0
122
1
132
0
 79
    0
146
0
348
10020
 60
    7
 61
    5
292
1
282
    1
141
0
142
0
 63
  250
421
3358443
  0
ENDTAB
  0
TABLE
  2
LTYPE
  5
5
330
0
100
AcDbSymbolTable
 70
    4
  0
LTYPE
  5
14
330
5
100
AcDbSymbolTableRecord
100
AcDbLinetypeTableRecord
  2
ByBlock
 70
    0
  3

 72
   65
 73
    0
 40
0
  0
LTYPE
  5
15
330
5
100
AcDbSymbolTableRecord
100
AcDbLinetypeTableRecord
  2
ByLayer
 70
    0
  3

 72
   65
 73
    0
 40
0
  0
LTYPE
  5
16
330
5
100
AcDbSymbolTableRecord
100
AcDbLinetypeTableRecord
  2
Continuous
 70
    0
  3
Solid line
 72
   65
 73
    0
 40
0
  0
LTYPE
  5
32
330
5
100
AcDbSymbolTableRecord
100
AcDbLinetypeTableRecord
  2
DASHED
 70
    0
  3

 72
   65
 73
    2
 40
3
 49
1
 74
    0
 49
-2
 74
    0
  0
LTYPE
  5
33
330
5
100
AcDbSymbolTableRecord
100
AcDbLinetypeTableRecord
  2
DASHED
 70
    0
  3

 72
   65
 73
    2
 40
2
 49
1
 74
    0
 49
-1
 74
    0
  0
LTYPE
  5
34
330
5
100
AcDbSymbolTableRecord
100
AcDbLinetypeTableRecord
  2
DASHEDX2
 70
    0
  3

 72
   65
 73
    2
 40
3
 49
2
 74
    0
 49
-1
 74
    0
  0
LTYPE
  5
35
330
5
100
AcDbSymbolTableRecord
100
AcDbLinetypeTableRecord
  2
DASHDOT
 70
    0
  3

 72
   65
 73
    4
 40
3
 49
1
 74
    0
 49
-1
 74
    0
 49
0
 74
    0
 49
-1
 74
    0
  0
LTYPE
  5
36
330
5
100
AcDbSymbolTableRecord
100
AcDbLinetypeTableRecord
  2
DIVIDE
 70
    0
  3

 72
   65
 73
    6
 40
4
 49
1
 74
    0
 49
-1
 74
    0
 49
0
 74
    0
 49
-1
 74
    0
 49
0
 74
    0
 49
-1
 74
    0
  0
LTYPE
  5
37
330
5
100
AcDbSymbolTableRecord
100
AcDbLinetypeTableRecord
  2
DOT
 70
    0
  3

 72
   65
 73
    2
 40
1
 49
1
 74
    0
 49
0
 74
    0
  0
ENDTAB
  0
TABLE
  2
LAYER
  5
2
330
0
100
AcDbSymbolTable
 70
    1
  0
LAYER
  5
38
330
2
100
AcDbSymbolTableRecord
100
AcDbLayerTableRecord
  2
dimensions
 70
    0
 62
    7
  6
CONTINUOUS
370
   -3
390
F
  0
LAYER
  5
39
330
2
100
AcDbSymbolTableRecord
100
AcDbLayerTableRecord
  2
text
 70
    0
 62
    7
  6
CONTINUOUS
370
   -3
390
F
  0
LAYER
  5
3A
330
2
100
AcDbSymbolTableRecord
100
AcDbLayerTableRecord
  2
s005-#def-solid-edge
 70
    0
 62
    7
  6
CONTINUOUS
370
   -3
390
F
  0
LAYER
  5
10
330
2
100
AcDbSymbolTableRecord
100
AcDbLayerTableRecord
  2
0
 70
    0
 62
    7
  6
CONTINUOUS
370
   -3
390
F
  0
ENDTAB
  0
TABLE
  2
STYLE
  5
3
330
0
100
AcDbSymbolTable
 70
    3
  0
STYLE
  5
3B
330
2
100
AcDbSymbolTableRecord
100
AcDbTextStyleTableRecord
  2
unicode
 70
    0
 40
0
 41
1
 50
0
 71
    0
 42
1
  3
unicode
  4

  0
STYLE
  5
3C
330
2
100
AcDbSymbolTableRecord
100
AcDbTextStyleTableRecord
  2
Standard
 70
    0
 40
0
 41
1
 50
0
 71
    0
 42
1
  3
txt
  4

  0
ENDTAB
  0
TABLE
  2
VIEW
  5
6
330
0
100
AcDbSymbolTable
 70
    0
  0
ENDTAB
  0
TABLE
  2
UCS
  5
7
330
0
100
AcDbSymbolTable
 70
    0
  0
ENDTAB
  0
TABLE
  2
APPID
  5
9
330
0
100
AcDbSymbolTable
 70
    1
  0
APPID
  5
12
330
9
100
AcDbSymbolTableRecord
100
AcDbRegAppTableRecord
  2
ACAD
 70
    0
  0
ENDTAB
  0
TABLE
  2
DIMSTYLE
  5
A
330
0
100
AcDbSymbolTable
 70
    1
100
AcDbDimStyleTable
 71
    1
  0
DIMSTYLE
105
3D
330
A
100
AcDbSymbolTableRecord
100
AcDbDimStyleTableRecord
  2
Standard
 70
    0
 40
1
 41
2.5
 42
0.625
 43
3.75
 44
1.25
 45
0
 46
0
 47
0
 48
0
140
2.5
141
2.5
142
0
143
0.03937007874015748
144
1
145
0
146
1
147
0.625
148
0
 71
    0
 72
    0
 73
    0
 74
    0
 75
    0
 76
    0
 77
    1
 78
    8
 79
    0
170
    0
171
    3
172
    1
173
    0
174
    0
175
    0
176
    0
177
    0
178
    0
179
    0
271
    2
272
    2
273
    2
274
    3
275
    0
276
    0
277
    2
278
   44
279
    0
280
    0
281
    0
282
    0
283
    0
284
    8
285
    0
286
    0
288
    0
289
    3
341

371
   -2
372
   -2
  0
ENDTAB
  0
TABLE
  2
BLOCK_RECORD
  5
1
330
0
100
AcDbSymbolTable
 70
    2
  0
BLOCK_RECORD
  5
1F
330
1
100
AcDbSymbolTableRecord
100
AcDbBlockTableRecord
  2
*Model_Space
 70
    0
280
    1
281
    0
  0
BLOCK_RECORD
  5
1E
330
1
100
AcDbSymbolTableRecord
100
AcDbBlockTableRecord
  2
*Paper_Space
 70
    0
280
    1
281
    0
  0
ENDTAB
  0
ENDSEC
  0
SECTION
  2
BLOCKS
  0
BLOCK
  5
20
330
1F
100
AcDbEntity
  8
0
100
AcDbBlockBegin
  2
*Model_Space
 70
    0
 10
0
 20
0
 30
0
  3
*Model_Space
  1

  0
ENDBLK
  5
21
330
1F
100
AcDbEntity
  8
0
100
AcDbBlockEnd
  0
BLOCK
  5
1C
330
1B
100
AcDbEntity
  8
0
100
AcDbBlockBegin
  2
*Paper_Space
 70
    0
 10
0
 20
0
 30
0
  3
*Paper_Space
  1

  0
ENDBLK
  5
1D
330
1F
100
AcDbEntity
  8
0
100
AcDbBlockEnd
  0
ENDSEC
  0
SECTION
  2
ENTITIES
  0
POLYLINE
  5
3E
100
AcDbEntity
  8
s005-#def-solid-edge
  6
CONTINUOUS
 62
    7
420
    0
370
   35
100
AcDb2dPolyline
 10
0
 20
0
 30
0
 70
    0
  0
VERTEX
  5
3F
100
AcDbEntity
  8
s005-#def-solid-edge
  6
CONTINUOUS
 62
    7
420
    0
370
   35
100
AcDbVertex
100
AcDb2dVertex
 10
84.79862630829422
 20
104.7429227394508
 30
0
  0
VERTEX
  5
40
100
AcDbEntity
  8
s005-#def-solid-edge
  6
CONTINUOUS
 62
    7
420
    0
370
   35
100
AcDbVertex
100
AcDb2dVertex
 10
84.79862630829422
 20
163.7429227394508
 30
0
  0
VERTEX
  5
41
100
AcDbEntity
  8
s005-#def-solid-edge
  6
CONTINUOUS
 62
    7
420
    0
370
   35
100
AcDbVertex
100
AcDb2dVertex
 10
64.45693870347191
 20
163.7429227394508
 30
0
  0
VERTEX
  5
42
100
AcDbEntity
  8
s005-#def-solid-edge
  6
CONTINUOUS
 62
    7
420
    0
370
   35
100
AcDbVertex
100
AcDb2dVertex
 10
64.0941433598897
 20
163.7164585768048
 30
0
  0
VERTEX
  5
43
100
AcDbEntity
  8
s005-#def-solid-edge
  6
CONTINUOUS
 62
    7
420
    0
370
   35
100
AcDbVertex
100
AcDb2dVertex
 10
63.73525086698487
 20
163.6364905088416
 30
0
  0
VERTEX
  5
44
100
AcDbEntity
  8
s005-#def-solid-edge
  6
CONTINUOUS
 62
    7
420
    0
370
   35
100
AcDbVertex
100
AcDb2dVertex
 10
63.39196977679035
 20
163.5047452756376
 30
0
  0
VERTEX
  5
45
100
AcDbEntity
  8
s005-#def-solid-edge
  6
CONTINUOUS
 62
    7
420
    0
370
   35
100
AcDbVertex
100
AcDb2dVertex
 10
63.07501170749049
 20
163.3262560727841
 30
0
  0
VERTEX
  5
46
100
AcDbEntity
  8
s005-#def-solid-edge
  6
CONTINUOUS
 62
    7
420
    0
370
   35
100
AcDbVertex
100
AcDb2dVertex
 10
62.92391903228577
 20
163.2588754965965
 30
0
  0
VERTEX
  5
47
100
AcDbEntity
  8
s005-#def-solid-edge
  6
CONTINUOUS
 62
    7
420
    0
370
   35
100
AcDbVertex
100
AcDb2dVertex
 10
62.74878108657495
 20
163.2454134894144
 30
0
  0
VERTEX
  5
48
100
AcDbEntity
  8
s005-#def-solid-edge
  6
CONTINUOUS
 62
    7
420
    0
370
   35
100
AcDbVertex
100
AcDb2dVertex
 10
62.57979494355959
 20
163.2933531299258
 30
0
  0
VERTEX
  5
49
100
AcDbEntity
  8
s005-#def-solid-edge
  6
CONTINUOUS
 62
    7
420
    0
370
   35
100
AcDbVertex
100
AcDb2dVertex
 10
62.44507291770094
 20
163.3893693488575
 30
0
  0
VERTEX
  5
4A
100
AcDbEntity
  8
s005-#def-solid-edge
  6
CONTINUOUS
 62
    7
420
    0
370
   35
100
AcDbVertex
100
AcDb2dVertex
 10
62.34905669877134
 20
163.5240913747119
 30
0
  0
VERTEX
  5
4B
100
AcDbEntity
  8
s005-#def-solid-edge
  6
CONTINUOUS
 62
    7
420
    0
370
   35
100
AcDbVertex
100
AcDb2dVertex
 10
62.30111705825783
 20
163.6930775177315
 30
0
  0
VERTEX
  5
4C
100
AcDbEntity
  8
s005-#def-solid-edge
  6
CONTINUOUS
 62
    7
420
    0
370
   35
100
AcDbVertex
100
AcDb2dVertex
 10
62.31457906543883
 20
163.8682154634379
 30
0
  0
VERTEX
  5
4D
100
AcDbEntity
  8
s005-#def-solid-edge
  6
CONTINUOUS
 62
    7
420
    0
370
   35
100
AcDbVertex
100
AcDb2dVertex
 10
62.38195964162756
 20
164.019308138647
 30
0
  0
VERTEX
  5
4E
100
AcDbEntity
  8
s005-#def-solid-edge
  6
CONTINUOUS
 62
    7
420
    0
370
   35
100
AcDbVertex
100
AcDb2dVertex
 10
62.56044884448104
 20
164.3362662079468
 30
0
  0
VERTEX
  5
4F
100
AcDbEntity
  8
s005-#def-solid-edge
  6
CONTINUOUS
 62
    7
420
    0
370
   35
100
AcDbVertex
100
AcDb2dVertex
 10
62.69219407768503
 20
164.6795472981413
 30
0
  0
VERTEX
  5
50
100
AcDbEntity
  8
s005-#def-solid-edge
  6
CONTINUOUS
 62
    7
420
    0
370
   35
100
AcDbVertex
100
AcDb2dVertex
 10
62.77216214564831
 20
165.0384397910462
 30
0
  0
VERTEX
  5
51
100
AcDbEntity
  8
s005-#def-solid-edge
  6
CONTINUOUS
 62
    7
420
    0
370
   35
100
AcDbVertex
100
AcDb2dVertex
 10
62.79862630829422
 20
165.4012351346285
 30
0
  0
VERTEX
  5
52
100
AcDbEntity
  8
s005-#def-solid-edge
  6
CONTINUOUS
 62
    7
420
    0
370
   35
100
AcDbVertex
100
AcDb2dVertex
 10
62.79862630829422
 20
179.2429227394508
 30
0
  0
VERTEX
  5
53
100
AcDbEntity
  8
s005-#def-solid-edge
  6
CONTINUOUS
 62
    7
420
    0
370
   35
100
AcDbVertex
100
AcDb2dVertex
 10
-323.2013736917058
 20
179.2429227394508
 30
0
  0
VERTEX
  5
54
100
AcDbEntity
  8
s005-#def-solid-edge
  6
CONTINUOUS
 62
    7
420
    0
370
   35
100
AcDbVertex
100
AcDb2dVertex
 10
-323.2013736917058
 20
165.4012351346284
 30
0
  0
VERTEX
  5
55
100
AcDbEntity
  8
s005-#def-solid-edge
  6
CONTINUOUS
 62
    7
420
    0
370
   35
100
AcDbVertex
100
AcDb2dVertex
 10
-323.1749095290599
 20
165.0384397910461
 30
0
  0
VERTEX
  5
56
100
AcDbEntity
  8
s005-#def-solid-edge
  6
CONTINUOUS
 62
    7
420
    0
370
   35
100
AcDbVertex
100
AcDb2dVertex
 10
-323.0949414610967
 20
164.6795472981414
 30
0
  0
VERTEX
  5
57
100
AcDbEntity
  8
s005-#def-solid-edge
  6
CONTINUOUS
 62
    7
420
    0
370
   35
100
AcDbVertex
100
AcDb2dVertex
 10
-322.9631962278927
 20
164.3362662079468
 30
0
  0
VERTEX
  5
58
100
AcDbEntity
  8
s005-#def-solid-edge
  6
CONTINUOUS
 62
    7
420
    0
370
   35
100
AcDbVertex
100
AcDb2dVertex
 10
-322.7847070250391
 20
164.019308138647
 30
0
  0
VERTEX
  5
59
100
AcDbEntity
  8
s005-#def-solid-edge
  6
CONTINUOUS
 62
    7
420
    0
370
   35
100
AcDbVertex
100
AcDb2dVertex
 10
-322.7173264488516
 20
163.8682154634424
 30
0
  0
VERTEX
  5
5A
100
AcDbEntity
  8
s005-#def-solid-edge
  6
CONTINUOUS
 62
    7
420
    0
370
   35
100
AcDbVertex
100
AcDb2dVertex
 10
-322.7038644416694
 20
163.6930775177315
 30
0
  0
VERTEX
  5
5B
100
AcDbEntity
  8
s005-#def-solid-edge
  6
CONTINUOUS
 62
    7
420
    0
370
   35
100
AcDbVertex
100
AcDb2dVertex
 10
-322.751804082183
 20
163.524091374712
 30
0
  0
VERTEX
  5
5C
100
AcDbEntity
  8
s005-#def-solid-edge
  6
CONTINUOUS
 62
    7
420
    0
370
   35
100
AcDbVertex
100
AcDb2dVertex
 10
-322.8478203011125
 20
163.3893693488575
 30
0
  0
VERTEX
  5
5D
100
AcDbEntity
  8
s005-#def-solid-edge
  6
CONTINUOUS
 62
    7
420
    0
370
   35
100
AcDbVertex
100
AcDb2dVertex
 10
-322.9825423269671
 20
163.2933531299278
 30
0
  0
VERTEX
  5
5E
100
AcDbEntity
  8
s005-#def-solid-edge
  6
CONTINUOUS
 62
    7
420
    0
370
   35
100
AcDbVertex
100
AcDb2dVertex
 10
-323.1515284699865
 20
163.2454134894144
 30
0
  0
VERTEX
  5
5F
100
AcDbEntity
  8
s005-#def-solid-edge
  6
CONTINUOUS
 62
    7
420
    0
370
   35
100
AcDbVertex
100
AcDb2dVertex
 10
-323.3266664156973
 20
163.2588754965965
 30
0
  0
VERTEX
  5
60
100
AcDbEntity
  8
s005-#def-solid-edge
  6
CONTINUOUS
 62
    7
420
    0
370
   35
100
AcDbVertex
100
AcDb2dVertex
 10
-323.4777590909021
 20
163.3262560727841
 30
0
  0
VERTEX
  5
61
100
AcDbEntity
  8
s005-#def-solid-edge
  6
CONTINUOUS
 62
    7
420
    0
370
   35
100
AcDbVertex
100
AcDb2dVertex
 10
-323.7947171602019
 20
163.5047452756376
 30
0
  0
VERTEX
  5
62
100
AcDbEntity
  8
s005-#def-solid-edge
  6
CONTINUOUS
 62
    7
420
    0
370
   35
100
AcDbVertex
100
AcDb2dVertex
 10
-324.1379982503964
 20
163.6364905088416
 30
0
  0
VERTEX
  5
63
100
AcDbEntity
  8
s005-#def-solid-edge
  6
CONTINUOUS
 62
    7
420
    0
370
   35
100
AcDbVertex
100
AcDb2dVertex
 10
-324.4968907433012
 20
163.7164585768048
 30
0
  0
VERTEX
  5
64
100
AcDbEntity
  8
s005-#def-solid-edge
  6
CONTINUOUS
 62
    7
420
    0
370
   35
100
AcDbVertex
100
AcDb2dVertex
 10
-324.8596860868835
 20
163.7429227394508
 30
0
  0
VERTEX
  5
65
100
AcDbEntity
  8
s005-#def-solid-edge
  6
CONTINUOUS
 62
    7
420
    0
370
   35
100
AcDbVertex
100
AcDb2dVertex
 10
-344.2013736917058
 20
163.7429227394508
 30
0
  0
VERTEX
  5
66
100
AcDbEntity
  8
s005-#def-solid-edge
  6
CONTINUOUS
 62
    7
420
    0
370
   35
100
AcDbVertex
100
AcDb2dVertex
 10
-344.5694684012677
 20
163.6727110405131
 30
0
  0
VERTEX
  5
67
100
AcDbEntity
  8
s005-#def-solid-edge
  6
CONTINUOUS
 62
    7
420
    0
370
   35
100
AcDbVertex
100
AcDb2dVertex
 10
-344.9084804728924
 20
163.4500295206373
 30
0
  0
VERTEX
  5
68
100
AcDbEntity
  8
s005-#def-solid-edge
  6
CONTINUOUS
 62
    7
420
    0
370
   35
100
AcDbVertex
100
AcDb2dVertex
 10
-345.1311619927682
 20
163.1110174490126
 30
0
  0
VERTEX
  5
69
100
AcDbEntity
  8
s005-#def-solid-edge
  6
CONTINUOUS
 62
    7
420
    0
370
   35
100
AcDbVertex
100
AcDb2dVertex
 10
-345.2013736917058
 20
162.7429227394508
 30
0
  0
VERTEX
  5
6A
100
AcDbEntity
  8
s005-#def-solid-edge
  6
CONTINUOUS
 62
    7
420
    0
370
   35
100
AcDbVertex
100
AcDb2dVertex
 10
-345.2013736917058
 20
105.7429227394508
 30
0
  0
VERTEX
  5
6B
100
AcDbEntity
  8
s005-#def-solid-edge
  6
CONTINUOUS
 62
    7
420
    0
370
   35
100
AcDbVertex
100
AcDb2dVertex
 10
-345.1311619927682
 20
105.3748280298889
 30
0
  0
VERTEX
  5
6C
100
AcDbEntity
  8
s005-#def-solid-edge
  6
CONTINUOUS
 62
    7
420
    0
370
   35
100
AcDbVertex
100
AcDb2dVertex
 10
-344.9084804728923
 20
105.0358159582642
 30
0
  0
VERTEX
  5
6D
100
AcDbEntity
  8
s005-#def-solid-edge
  6
CONTINUOUS
 62
    7
420
    0
370
   35
100
AcDbVertex
100
AcDb2dVertex
 10
-344.5694684012677
 20
104.8131344383883
 30
0
  0
VERTEX
  5
6E
100
AcDbEntity
  8
s005-#def-solid-edge
  6
CONTINUOUS
 62
    7
420
    0
370
   35
100
AcDbVertex
100
AcDb2dVertex
 10
-344.2013736917058
 20
104.7429227394508
 30
0
  0
VERTEX
  5
6F
100
AcDbEntity
  8
s005-#def-solid-edge
  6
CONTINUOUS
 62
    7
420
    0
370
   35
100
AcDbVertex
100
AcDb2dVertex
 10
-324.8596860868835
 20
104.7429227394508
 30
0
  0
VERTEX
  5
70
100
AcDbEntity
  8
s005-#def-solid-edge
  6
CONTINUOUS
 62
    7
420
    0
370
   35
100
AcDbVertex
100
AcDb2dVertex
 10
-324.4968907433012
 20
104.7693869020967
 30
0
  0
VERTEX
  5
71
100
AcDbEntity
  8
s005-#def-solid-edge
  6
CONTINUOUS
 62
    7
420
    0
370
   35
100
AcDbVertex
100
AcDb2dVertex
 10
-324.1379982503964
 20
104.8493549700599
 30
0
  0
VERTEX
  5
72
100
AcDbEntity
  8
s005-#def-solid-edge
  6
CONTINUOUS
 62
    7
420
    0
370
   35
100
AcDbVertex
100
AcDb2dVertex
 10
-323.7947171602019
 20
104.9811002032639
 30
0
  0
VERTEX
  5
73
100
AcDbEntity
  8
s005-#def-solid-edge
  6
CONTINUOUS
 62
    7
420
    0
370
   35
100
AcDbVertex
100
AcDb2dVertex
 10
-323.4777590909021
 20
105.1595894061174
 30
0
  0
VERTEX
  5
74
100
AcDbEntity
  8
s005-#def-solid-edge
  6
CONTINUOUS
 62
    7
420
    0
370
   35
100
AcDbVertex
100
AcDb2dVertex
 10
-323.3266664156973
 20
105.226969982305
 30
0
  0
VERTEX
  5
75
100
AcDbEntity
  8
s005-#def-solid-edge
  6
CONTINUOUS
 62
    7
420
    0
370
   35
100
AcDbVertex
100
AcDb2dVertex
 10
-323.1515284699866
 20
105.2404319894872
 30
0
  0
VERTEX
  5
76
100
AcDbEntity
  8
s005-#def-solid-edge
  6
CONTINUOUS
 62
    7
420
    0
370
   35
100
AcDbVertex
100
AcDb2dVertex
 10
-322.9825423269671
 20
105.1924923489737
 30
0
  0
VERTEX
  5
77
100
AcDbEntity
  8
s005-#def-solid-edge
  6
CONTINUOUS
 62
    7
420
    0
370
   35
100
AcDbVertex
100
AcDb2dVertex
 10
-322.8478203011125
 20
105.096476130044
 30
0
  0
VERTEX
  5
78
100
AcDbEntity
  8
s005-#def-solid-edge
  6
CONTINUOUS
 62
    7
420
    0
370
   35
100
AcDbVertex
100
AcDb2dVertex
 10
-322.751804082183
 20
104.9617541041896
 30
0
  0
VERTEX
  5
79
100
AcDbEntity
  8
s005-#def-solid-edge
  6
CONTINUOUS
 62
    7
420
    0
370
   35
100
AcDbVertex
100
AcDb2dVertex
 10
-322.7038644416695
 20
104.7927679611701
 30
0
  0
VERTEX
  5
7A
100
AcDbEntity
  8
s005-#def-solid-edge
  6
CONTINUOUS
 62
    7
420
    0
370
   35
100
AcDbVertex
100
AcDb2dVertex
 10
-322.7173264488517
 20
104.6176300154592
 30
0
  0
VERTEX
  5
7B
100
AcDbEntity
  8
s005-#def-solid-edge
  6
CONTINUOUS
 62
    7
420
    0
370
   35
100
AcDbVertex
100
AcDb2dVertex
 10
-322.7847070250392
 20
104.4665373402545
 30
0
  0
VERTEX
  5
7C
100
AcDbEntity
  8
s005-#def-solid-edge
  6
CONTINUOUS
 62
    7
420
    0
370
   35
100
AcDbVertex
100
AcDb2dVertex
 10
-322.9631962278927
 20
104.1495792709547
 30
0
  0
VERTEX
  5
7D
100
AcDbEntity
  8
s005-#def-solid-edge
  6
CONTINUOUS
 62
    7
420
    0
370
   35
100
AcDbVertex
100
AcDb2dVertex
 10
-323.0949414610966
 20
103.8062981807601
 30
0
  0
VERTEX
  5
7E
100
AcDbEntity
  8
s005-#def-solid-edge
  6
CONTINUOUS
 62
    7
420
    0
370
   35
100
AcDbVertex
100
AcDb2dVertex
 10
-323.1749095290598
 20
103.4474056878554
 30
0
  0
VERTEX
  5
7F
100
AcDbEntity
  8
s005-#def-solid-edge
  6
CONTINUOUS
 62
    7
420
    0
370
   35
100
AcDbVertex
100
AcDb2dVertex
 10
-323.2013736917058
 20
103.0846103442731
 30
0
  0
VERTEX
  5
80
100
AcDbEntity
  8
s005-#def-solid-edge
  6
CONTINUOUS
 62
    7
420
    0
370
   35
100
AcDbVertex
100
AcDb2dVertex
 10
-323.2013736917058
 20
97.24292273945076
 30
0
  0
VERTEX
  5
81
100
AcDbEntity
  8
s005-#def-solid-edge
  6
CONTINUOUS
 62
    7
420
    0
370
   35
100
AcDbVertex
100
AcDb2dVertex
 10
-303.2013736917058
 20
97.24292273945076
 30
0
  0
VERTEX
  5
82
100
AcDbEntity
  8
s005-#def-solid-edge
  6
CONTINUOUS
 62
    7
420
    0
370
   35
100
AcDbVertex
100
AcDb2dVertex
 10
-303.2013736917058
 20
94.24292273945076
 30
0
  0
VERTEX
  5
83
100
AcDbEntity
  8
s005-#def-solid-edge
  6
CONTINUOUS
 62
    7
420
    0
370
   35
100
AcDbVertex
100
AcDb2dVertex
 10
-283.2013736917058
 20
94.24292273945076
 30
0
  0
VERTEX
  5
84
100
AcDbEntity
  8
s005-#def-solid-edge
  6
CONTINUOUS
 62
    7
420
    0
370
   35
100
AcDbVertex
100
AcDb2dVertex
 10
-283.2013736917058
 20
97.24292273945076
 30
0
  0
VERTEX
  5
85
100
AcDbEntity
  8
s005-#def-solid-edge
  6
CONTINUOUS
 62
    7
420
    0
370
   35
100
AcDbVertex
100
AcDb2dVertex
 10
-256.6299451202772
 20
97.24292273945076
 30
0
  0
VERTEX
  5
86
100
AcDbEntity
  8
s005-#def-solid-edge
  6
CONTINUOUS
 62
    7
420
    0
370
   35
100
AcDbVertex
100
AcDb2dVertex
 10
-256.6299451202772
 20
94.24292273945076
 30
0
  0
VERTEX
  5
87
100
AcDbEntity
  8
s005-#def-solid-edge
  6
CONTINUOUS
 62
    7
420
    0
370
   35
100
AcDbVertex
100
AcDb2dVertex
 10
-236.6299451202772
 20
94.24292273945076
 30
0
  0
VERTEX
  5
88
100
AcDbEntity
  8
s005-#def-solid-edge
  6
CONTINUOUS
 62
    7
420
    0
370
   35
100
AcDbVertex
100
AcDb2dVertex
 10
-236.6299451202772
 20
97.24292273945076
 30
0
  0
VERTEX
  5
89
100
AcDbEntity
  8
s005-#def-solid-edge
  6
CONTINUOUS
 62
    7
420
    0
370
   35
100
AcDbVertex
100
AcDb2dVertex
 10
-210.0585165488486
 20
97.24292273945079
 30
0
  0
VERTEX
  5
8A
100
AcDbEntity
  8
s005-#def-solid-edge
  6
CONTINUOUS
 62
    7
420
    0
370
   35
100
AcDbVertex
100
AcDb2dVertex
 10
-210.0585165488486
 20
94.24292273945076
 30
0
  0
VERTEX
  5
8B
100
AcDbEntity
  8
s005-#def-solid-edge
  6
CONTINUOUS
 62
    7
420
    0
370
   35
100
AcDbVertex
100
AcDb2dVertex
 10
-190.0585165488486
 20
94.24292273945076
 30
0
  0
VERTEX
  5
8C
100
AcDbEntity
  8
s005-#def-solid-edge
  6
CONTINUOUS
 62
    7
420
    0
370
   35
100
AcDbVertex
100
AcDb2dVertex
 10
-190.0585165488486
 20
97.24292273945079
 30
0
  0
VERTEX
  5
8D
100
AcDbEntity
  8
s005-#def-solid-edge
  6
CONTINUOUS
 62
    7
420
    0
370
   35
100
AcDbVertex
100
AcDb2dVertex
 10
-163.4870879774201
 20
97.24292273945076
 30
0
  0
VERTEX
  5
8E
100
AcDbEntity
  8
s005-#def-solid-edge
  6
CONTINUOUS
 62
    7
420
    0
370
   35
100
AcDbVertex
100
AcDb2dVertex
 10
-163.4870879774201
 20
94.24292273945079
 30
0
  0
VERTEX
  5
8F
100
AcDbEntity
  8
s005-#def-solid-edge
  6
CONTINUOUS
 62
    7
420
    0
370
   35
100
AcDbVertex
100
AcDb2dVertex
 10
-143.4870879774201
 20
94.24292273945076
 30
0
  0
VERTEX
  5
90
100
AcDbEntity
  8
s005-#def-solid-edge
  6
CONTINUOUS
 62
    7
420
    0
370
   35
100
AcDbVertex
100
AcDb2dVertex
 10
-143.4870879774201
 20
97.24292273945076
 30
0
  0
VERTEX
  5
91
100
AcDbEntity
  8
s005-#def-solid-edge
  6
CONTINUOUS
 62
    7
420
    0
370
   35
100
AcDbVertex
100
AcDb2dVertex
 10
-116.9156594059915
 20
97.24292273945076
 30
0
  0
VERTEX
  5
92
100
AcDbEntity
  8
s005-#def-solid-edge
  6
CONTINUOUS
 62
    7
420
    0
370
   35
100
AcDbVertex
100
AcDb2dVertex
 10
-116.9156594059915
 20
94.24292273945076
 30
0
  0
VERTEX
  5
93
100
AcDbEntity
  8
s005-#def-solid-edge
  6
CONTINUOUS
 62
    7
420
    0
370
   35
100
AcDbVertex
100
AcDb2dVertex
 10
-96.91565940599151
 20
94.24292273945076
 30
0
  0
VERTEX
  5
94
100
AcDbEntity
  8
s005-#def-solid-edge
  6
CONTINUOUS
 62
    7
420
    0
370
   35
100
AcDbVertex
100
AcDb2dVertex
 10
-96.91565940599153
 20
97.24292273945076
 30
0
  0
VERTEX
  5
95
100
AcDbEntity
  8
s005-#def-solid-edge
  6
CONTINUOUS
 62
    7
420
    0
370
   35
100
AcDbVertex
100
AcDb2dVertex
 10
-70.34423083456296
 20
97.24292273945079
 30
0
  0
VERTEX
  5
96
100
AcDbEntity
  8
s005-#def-solid-edge
  6
CONTINUOUS
 62
    7
420
    0
370
   35
100
AcDbVertex
100
AcDb2dVertex
 10
-70.34423083456298
 20
94.24292273945076
 30
0
  0
VERTEX
  5
97
100
AcDbEntity
  8
s005-#def-solid-edge
  6
CONTINUOUS
 62
    7
420
    0
370
   35
100
AcDbVertex
100
AcDb2dVertex
 10
-50.34423083456295
 20
94.24292273945076
 30
0
  0
VERTEX
  5
98
100
AcDbEntity
  8
s005-#def-solid-edge
  6
CONTINUOUS
 62
    7
420
    0
370
   35
100
AcDbVertex
100
AcDb2dVertex
 10
-50.34423083456299
 20
97.24292273945076
 30
0
  0
VERTEX
  5
99
100
AcDbEntity
  8
s005-#def-solid-edge
  6
CONTINUOUS
 62
    7
420
    0
370
   35
100
AcDbVertex
100
AcDb2dVertex
 10
-23.77280226313432
 20
97.24292273945079
 30
0
  0
VERTEX
  5
9A
100
AcDbEntity
  8
s005-#def-solid-edge
  6
CONTINUOUS
 62
    7
420
    0
370
   35
100
AcDbVertex
100
AcDb2dVertex
 10
-23.77280226313432
 20
94.24292273945076
 30
0
  0
VERTEX
  5
9B
100
AcDbEntity
  8
s005-#def-solid-edge
  6
CONTINUOUS
 62
    7
420
    0
370
   35
100
AcDbVertex
100
AcDb2dVertex
 10
-3.772802263134338
 20
94.24292273945076
 30
0
  0
VERTEX
  5
9C
100
AcDbEntity
  8
s005-#def-solid-edge
  6
CONTINUOUS
 62
    7
420
    0
370
   35
100
AcDbVertex
100
AcDb2dVertex
 10
-3.772802263134338
 20
97.24292273945076
 30
0
  0
VERTEX
  5
9D
100
AcDbEntity
  8
s005-#def-solid-edge
  6
CONTINUOUS
 62
    7
420
    0
370
   35
100
AcDbVertex
100
AcDb2dVertex
 10
22.79862630829422
 20
97.24292273945076
 30
0
  0
VERTEX
  5
9E
100
AcDbEntity
  8
s005-#def-solid-edge
  6
CONTINUOUS
 62
    7
420
    0
370
   35
100
AcDbVertex
100
AcDb2dVertex
 10
22.79862630829422
 20
94.24292273945076
 30
0
  0
VERTEX
  5
9F
100
AcDbEntity
  8
s005-#def-solid-edge
  6
CONTINUOUS
 62
    7
420
    0
370
   35
100
AcDbVertex
100
AcDb2dVertex
 10
42.79862630829422
 20
94.24292273945076
 30
0
  0
VERTEX
  5
A0
100
AcDbEntity
  8
s005-#def-solid-edge
  6
CONTINUOUS
 62
    7
420
    0
370
   35
100
AcDbVertex
100
AcDb2dVertex
 10
42.79862630829419
 20
97.24292273945073
 30
0
  0
VERTEX
  5
A1
100
AcDbEntity
  8
s005-#def-solid-edge
  6
CONTINUOUS
 62
    7
420
    0
370
   35
100
AcDbVertex
100
AcDb2dVertex
 10
62.79862630829416
 20
97.24292273945071
 30
0
  0
VERTEX
  5
A2
100
AcDbEntity
  8
s005-#def-solid-edge
  6
CONTINUOUS
 62
    7
420
    0
370
   35
100
AcDbVertex
100
AcDb2dVertex
 10
62.79862630829422
 20
103.0846103442731
 30
0
  0
VERTEX
  5
A3
100
AcDbEntity
  8
s005-#def-solid-edge
  6
CONTINUOUS
 62
    7
420
    0
370
   35
100
AcDbVertex
100
AcDb2dVertex
 10
62.77216214564828
 20
103.4474056878553
 30
0
  0
VERTEX
  5
A4
100
AcDbEntity
  8
s005-#def-solid-edge
  6
CONTINUOUS
 62
    7
420
    0
370
   35
100
AcDbVertex
100
AcDb2dVertex
 10
62.69219407768506
 20
103.8062981807601
 30
0
  0
VERTEX
  5
A5
100
AcDbEntity
  8
s005-#def-solid-edge
  6
CONTINUOUS
 62
    7
420
    0
370
   35
100
AcDbVertex
100
AcDb2dVertex
 10
62.56044884448104
 20
104.1495792709547
 30
0
  0
VERTEX
  5
A6
100
AcDbEntity
  8
s005-#def-solid-edge
  6
CONTINUOUS
 62
    7
420
    0
370
   35
100
AcDbVertex
100
AcDb2dVertex
 10
62.38195964162756
 20
104.4665373402545
 30
0
  0
VERTEX
  5
A7
100
AcDbEntity
  8
s005-#def-solid-edge
  6
CONTINUOUS
 62
    7
420
    0
370
   35
100
AcDbVertex
100
AcDb2dVertex
 10
62.31457906543997
 20
104.6176300154592
 30
0
  0
VERTEX
  5
A8
100
AcDbEntity
  8
s005-#def-solid-edge
  6
CONTINUOUS
 62
    7
420
    0
370
   35
100
AcDbVertex
100
AcDb2dVertex
 10
62.30111705825783
 20
104.79276796117
 30
0
  0
VERTEX
  5
A9
100
AcDbEntity
  8
s005-#def-solid-edge
  6
CONTINUOUS
 62
    7
420
    0
370
   35
100
AcDbVertex
100
AcDb2dVertex
 10
62.34905669876929
 20
104.9617541041854
 30
0
  0
VERTEX
  5
AA
100
AcDbEntity
  8
s005-#def-solid-edge
  6
CONTINUOUS
 62
    7
420
    0
370
   35
100
AcDbVertex
100
AcDb2dVertex
 10
62.44507291770094
 20
105.096476130044
 30
0
  0
VERTEX
  5
AB
100
AcDbEntity
  8
s005-#def-solid-edge
  6
CONTINUOUS
 62
    7
420
    0
370
   35
100
AcDbVertex
100
AcDb2dVertex
 10
62.57979494355538
 20
105.1924923489736
 30
0
  0
VERTEX
  5
AC
100
AcDbEntity
  8
s005-#def-solid-edge
  6
CONTINUOUS
 62
    7
420
    0
370
   35
100
AcDbVertex
100
AcDb2dVertex
 10
62.74878108657501
 20
105.2404319894872
 30
0
  0
VERTEX
  5
AD
100
AcDbEntity
  8
s005-#def-solid-edge
  6
CONTINUOUS
 62
    7
420
    0
370
   35
100
AcDbVertex
100
AcDb2dVertex
 10
62.9239190322858
 20
105.226969982305
 30
0
  0
VERTEX
  5
AE
100
AcDbEntity
  8
s005-#def-solid-edge
  6
CONTINUOUS
 62
    7
420
    0
370
   35
100
AcDbVertex
100
AcDb2dVertex
 10
63.07501170749052
 20
105.1595894061174
 30
0
  0
VERTEX
  5
AF
100
AcDbEntity
  8
s005-#def-solid-edge
  6
CONTINUOUS
 62
    7
420
    0
370
   35
100
AcDbVertex
100
AcDb2dVertex
 10
63.39196977679032
 20
104.981100203264
 30
0
  0
VERTEX
  5
B0
100
AcDbEntity
  8
s005-#def-solid-edge
  6
CONTINUOUS
 62
    7
420
    0
370
   35
100
AcDbVertex
100
AcDb2dVertex
 10
63.73525086698484
 20
104.8493549700599
 30
0
  0
VERTEX
  5
B1
100
AcDbEntity
  8
s005-#def-solid-edge
  6
CONTINUOUS
 62
    7
420
    0
370
   35
100
AcDbVertex
100
AcDb2dVertex
 10
64.09414335988961
 20
104.7693869020967
 30
0
  0
VERTEX
  5
B2
100
AcDbEntity
  8
s005-#def-solid-edge
  6
CONTINUOUS
 62
    7
420
    0
370
   35
100
AcDbVertex
100
AcDb2dVertex
 10
64.45693870347191
 20
104.7429227394507
 30
0
  0
VERTEX
  5
B3
100
AcDbEntity
  8
s005-#def-solid-edge
  6
CONTINUOUS
 62
    7
420
    0
370
   35
100
AcDbVertex
100
AcDb2dVertex
 10
84.79862630829422
 20
104.7429227394508
 30
0
  0
SEQEND
  5
B4
100
AcDbEntity
  8
s005-#def-solid-edge
  6
CONTINUOUS
 62
    7
420
    0
370
   35
  0
POLYLINE
  5
B5
100
AcDbEntity
  8
s005-#def-solid-edge
  6
CONTINUOUS
 62
    7
420
    0
370
   35
100
AcDb2dPolyline
 10
0
 20
0
 30
0
 70
    0
  0
VERTEX
  5
B6
100
AcDbEntity
  8
s005-#def-solid-edge
  6
CONTINUOUS
 62
    7
420
    0
370
   35
100
AcDbVertex
100
AcDb2dVertex
 10
63.79862630829425
 20
-99.25707726054924
 30
0
  0
VERTEX
  5
B7
100
AcDbEntity
  8
s005-#def-solid-edge
  6
CONTINUOUS
 62
    7
420
    0
370
   35
100
AcDbVertex
100
AcDb2dVertex
 10
92.29862630829422
 20
-99.25707726054924
 30
0
  0
VERTEX
  5
B8
100
AcDbEntity
  8
s005-#def-solid-edge
  6
CONTINUOUS
 62
    7
420
    0
370
   35
100
AcDbVertex
100
AcDb2dVertex
 10
94.13909985610366
 20
-98.9060187658614
 30
0
  0
VERTEX
  5
B9
100
AcDbEntity
  8
s005-#def-solid-edge
  6
CONTINUOUS
 62
    7
420
    0
370
   35
100
AcDbVertex
100
AcDb2dVertex
 10
95.03467507521992
 20
-98.4420548166425
 30
0
  0
VERTEX
  5
BA
100
AcDbEntity
  8
s005-#def-solid-edge
  6
CONTINUOUS
 62
    7
420
    0
370
   35
100
AcDbVertex
100
AcDb2dVertex
 10
95.83416021422701
 20
-97.79261116648198
 30
0
  0
VERTEX
  5
BB
100
AcDbEntity
  8
s005-#def-solid-edge
  6
CONTINUOUS
 62
    7
420
    0
370
   35
100
AcDbVertex
100
AcDb2dVertex
 10
96.48360386438745
 20
-96.99312602747497
 30
0
  0
VERTEX
  5
BC
100
AcDbEntity
  8
s005-#def-solid-edge
  6
CONTINUOUS
 62
    7
420
    0
370
   35
100
AcDbVertex
100
AcDb2dVertex
 10
96.94756781360641
 20
-96.0975508083586
 30
0
  0
VERTEX
  5
BD
100
AcDbEntity
  8
s005-#def-solid-edge
  6
CONTINUOUS
 62
    7
420
    0
370
   35
100
AcDbVertex
100
AcDb2dVertex
 10
97.29862630829422
 20
-94.25707726054924
 30
0
  0
VERTEX
  5
BE
100
AcDbEntity
  8
s005-#def-solid-edge
  6
CONTINUOUS
 62
    7
420
    0
370
   35
100
AcDbVertex
100
AcDb2dVertex
 10
97.29862630829422
 20
-9.257077260549238
 30
0
  0
VERTEX
  5
BF
100
AcDbEntity
  8
s005-#def-solid-edge
  6
CONTINUOUS
 62
    7
420
    0
370
   35
100
AcDbVertex
100
AcDb2dVertex
 10
96.94756781360644
 20
-7.416603712739871
 30
0
  0
VERTEX
  5
C0
100
AcDbEntity
  8
s005-#def-solid-edge
  6
CONTINUOUS
 62
    7
420
    0
370
   35
100
AcDbVertex
100
AcDb2dVertex
 10
96.48360386438748
 20
-6.521028493623533
 30
0
  0
VERTEX
  5
C1
100
AcDbEntity
  8
s005-#def-solid-edge
  6
CONTINUOUS
 62
    7
420
    0
370
   35
100
AcDbVertex
100
AcDb2dVertex
 10
95.83416021422698
 20
-5.7215433546165
 30
0
  0
VERTEX
  5
C2
100
AcDbEntity
  8
s005-#def-solid-edge
  6
CONTINUOUS
 62
    7
420
    0
370
   35
100
AcDbVertex
100
AcDb2dVertex
 10
95.03467507521995
 20
-5.072099704456022
 30
0
  0
VERTEX
  5
C3
100
AcDbEntity
  8
s005-#def-solid-edge
  6
CONTINUOUS
 62
    7
420
    0
370
   35
100
AcDbVertex
100
AcDb2dVertex
 10
94.13909985610366
 20
-4.608135755237086
 30
0
  0
VERTEX
  5
C4
100
AcDbEntity
  8
s005-#def-solid-edge
  6
CONTINUOUS
 62
    7
420
    0
370
   35
100
AcDbVertex
100
AcDb2dVertex
 10
92.29862630829422
 20
-4.257077260549238
 30
0
  0
VERTEX
  5
C5
100
AcDbEntity
  8
s005-#def-solid-edge
  6
CONTINUOUS
 62
    7
420
    0
370
   35
100
AcDbVertex
100
AcDb2dVertex
 10
63.79862630829422
 20
-4.257077260549238
 30
0
  0
VERTEX
  5
C6
100
AcDbEntity
  8
s005-#def-solid-edge
  6
CONTINUOUS
 62
    7
420
    0
370
   35
100
AcDbVertex
100
AcDb2dVertex
 10
63.4305315987323
 20
-4.186865561611683
 30
0
  0
VERTEX
  5
C7
100
AcDbEntity
  8
s005-#def-solid-edge
  6
CONTINUOUS
 62
    7
420
    0
370
   35
100
AcDbVertex
100
AcDb2dVertex
 10
63.09151952710772
 20
-3.964184041735791
 30
0
  0
VERTEX
  5
C8
100
AcDbEntity
  8
s005-#def-solid-edge
  6
CONTINUOUS
 62
    7
420
    0
370
   35
100
AcDbVertex
100
AcDb2dVertex
 10
62.86883800723183
 20
-3.625171970111111
 30
0
  0
VERTEX
  5
C9
100
AcDbEntity
  8
s005-#def-solid-edge
  6
CONTINUOUS
 62
    7
420
    0
370
   35
100
AcDbVertex
100
AcDb2dVertex
 10
62.79862630829422
 20
-3.257077260549238
 30
0
  0
VERTEX
  5
CA
100
AcDbEntity
  8
s005-#def-solid-edge
  6
CONTINUOUS
 62
    7
420
    0
370
   35
100
AcDbVertex
100
AcDb2dVertex
 10
62.79862630829422
 20
-0.757077260549238
 30
0
  0
VERTEX
  5
CB
100
AcDbEntity
  8
s005-#def-solid-edge
  6
CONTINUOUS
 62
    7
420
    0
370
   35
100
AcDbVertex
100
AcDb2dVertex
 10
-130.2013736917057
 20
-0.757077260549238
 30
0
  0
VERTEX
  5
CC
100
AcDbEntity
  8
s005-#def-solid-edge
  6
CONTINUOUS
 62
    7
420
    0
370
   35
100
AcDbVertex
100
AcDb2dVertex
 10
-323.2013736917058
 20
-0.757077260549238
 30
0
  0
VERTEX
  5
CD
100
AcDbEntity
  8
s005-#def-solid-edge
  6
CONTINUOUS
 62
    7
420
    0
370
   35
100
AcDbVertex
100
AcDb2dVertex
 10
-323.2013736917058
 20
-3.257077260549238
 30
0
  0
VERTEX
  5
CE
100
AcDbEntity
  8
s005-#def-solid-edge
  6
CONTINUOUS
 62
    7
420
    0
370
   35
100
AcDbVertex
100
AcDb2dVertex
 10
-323.2715853906434
 20
-3.625171970111111
 30
0
  0
VERTEX
  5
CF
100
AcDbEntity
  8
s005-#def-solid-edge
  6
CONTINUOUS
 62
    7
420
    0
370
   35
100
AcDbVertex
100
AcDb2dVertex
 10
-323.4942669105193
 20
-3.964184041735763
 30
0
  0
VERTEX
  5
D0
100
AcDbEntity
  8
s005-#def-solid-edge
  6
CONTINUOUS
 62
    7
420
    0
370
   35
100
AcDbVertex
100
AcDb2dVertex
 10
-323.8332789821439
 20
-4.186865561611668
 30
0
  0
VERTEX
  5
D1
100
AcDbEntity
  8
s005-#def-solid-edge
  6
CONTINUOUS
 62
    7
420
    0
370
   35
100
AcDbVertex
100
AcDb2dVertex
 10
-324.2013736917058
 20
-4.257077260549238
 30
0
  0
VERTEX
  5
D2
100
AcDbEntity
  8
s005-#def-solid-edge
  6
CONTINUOUS
 62
    7
420
    0
370
   35
100
AcDbVertex
100
AcDb2dVertex
 10
-352.7013736917058
 20
-4.257077260549238
 30
0
  0
VERTEX
  5
D3
100
AcDbEntity
  8
s005-#def-solid-edge
  6
CONTINUOUS
 62
    7
420
    0
370
   35
100
AcDbVertex
100
AcDb2dVertex
 10
-354.5418472395152
 20
-4.608135755237086
 30
0
  0
VERTEX
  5
D4
100
AcDbEntity
  8
s005-#def-solid-edge
  6
CONTINUOUS
 62
    7
420
    0
370
   35
100
AcDbVertex
100
AcDb2dVertex
 10
-355.4374224586315
 20
-5.072099704455979
 30
0
  0
VERTEX
  5
D5
100
AcDbEntity
  8
s005-#def-solid-edge
  6
CONTINUOUS
 62
    7
420
    0
370
   35
100
AcDbVertex
100
AcDb2dVertex
 10
-356.2369075976385
 20
-5.7215433546165
 30
0
  0
VERTEX
  5
D6
100
AcDbEntity
  8
s005-#def-solid-edge
  6
CONTINUOUS
 62
    7
420
    0
370
   35
100
AcDbVertex
100
AcDb2dVertex
 10
-356.886351247799
 20
-6.52102849362349
 30
0
  0
VERTEX
  5
D7
100
AcDbEntity
  8
s005-#def-solid-edge
  6
CONTINUOUS
 62
    7
420
    0
370
   35
100
AcDbVertex
100
AcDb2dVertex
 10
-357.3503151970179
 20
-7.416603712739871
 30
0
  0
VERTEX
  5
D8
100
AcDbEntity
  8
s005-#def-solid-edge
  6
CONTINUOUS
 62
    7
420
    0
370
   35
100
AcDbVertex
100
AcDb2dVertex
 10
-357.7013736917058
 20
-9.257077260549238
 30
0
  0
VERTEX
  5
D9
100
AcDbEntity
  8
s005-#def-solid-edge
  6
CONTINUOUS
 62
    7
420
    0
370
   35
100
AcDbVertex
100
AcDb2dVertex
 10
-357.7013736917058
 20
-94.25707726054924
 30
0
  0
VERTEX
  5
DA
100
AcDbEntity
  8
s005-#def-solid-edge
  6
CONTINUOUS
 62
    7
420
    0
370
   35
100
AcDbVertex
100
AcDb2dVertex
 10
-357.3503151970179
 20
-96.0975508083586
 30
0
  0
VERTEX
  5
DB
100
AcDbEntity
  8
s005-#def-solid-edge
  6
CONTINUOUS
 62
    7
420
    0
370
   35
100
AcDbVertex
100
AcDb2dVertex
 10
-356.8863512477991
 20
-96.99312602747496
 30
0
  0
VERTEX
  5
DC
100
AcDbEntity
  8
s005-#def-solid-edge
  6
CONTINUOUS
 62
    7
420
    0
370
   35
100
AcDbVertex
100
AcDb2dVertex
 10
-356.2369075976385
 20
-97.79261116648199
 30
0
  0
VERTEX
  5
DD
100
AcDbEntity
  8
s005-#def-solid-edge
  6
CONTINUOUS
 62
    7
420
    0
370
   35
100
AcDbVertex
100
AcDb2dVertex
 10
-355.4374224586315
 20
-98.4420548166425
 30
0
  0
VERTEX
  5
DE
100
AcDbEntity
  8
s005-#def-solid-edge
  6
CONTINUOUS
 62
    7
420
    0
370
   35
100
AcDbVertex
100
AcDb2dVertex
 10
-354.5418472395166
 20
-98.90601876586082
 30
0
  0
VERTEX
  5
DF
100
AcDbEntity
  8
s005-#def-solid-edge
  6
CONTINUOUS
 62
    7
420
    0
370
   35
100
AcDbVertex
100
AcDb2dVertex
 10
-352.7013736917058
 20
-99.25707726054924
 30
0
  0
VERTEX
  5
E0
100
AcDbEntity
  8
s005-#def-solid-edge
  6
CONTINUOUS
 62
    7
420
    0
370
   35
100
AcDbVertex
100
AcDb2dVertex
 10
-324.2013736917058
 20
-99.25707726054924
 30
0
  0
VERTEX
  5
E1
100
AcDbEntity
  8
s005-#def-solid-edge
  6
CONTINUOUS
 62
    7
420
    0
370
   35
100
AcDbVertex
100
AcDb2dVertex
 10
-323.8332789821439
 20
-99.32728895948681
 30
0
  0
VERTEX
  5
E2
100
AcDbEntity
  8
s005-#def-solid-edge
  6
CONTINUOUS
 62
    7
420
    0
370
   35
100
AcDbVertex
100
AcDb2dVertex
 10
-323.4942669105193
 20
-99.54997047936268
 30
0
  0
VERTEX
  5
E3
100
AcDbEntity
  8
s005-#def-solid-edge
  6
CONTINUOUS
 62
    7
420
    0
370
   35
100
AcDbVertex
100
AcDb2dVertex
 10
-323.2715853906433
 20
-99.88898255098735
 30
0
  0
VERTEX
  5
E4
100
AcDbEntity
  8
s005-#def-solid-edge
  6
CONTINUOUS
 62
    7
420
    0
370
   35
100
AcDbVertex
100
AcDb2dVertex
 10
-323.2013736917058
 20
-100.2570772605492
 30
0
  0
VERTEX
  5
E5
100
AcDbEntity
  8
s005-#def-solid-edge
  6
CONTINUOUS
 62
    7
420
    0
370
   35
100
AcDbVertex
100
AcDb2dVertex
 10
-323.2013736917058
 20
-102.7570772605492
 30
0
  0
VERTEX
  5
E6
100
AcDbEntity
  8
s005-#def-solid-edge
  6
CONTINUOUS
 62
    7
420
    0
370
   35
100
AcDbVertex
100
AcDb2dVertex
 10
-130.2013736917058
 20
-102.7570772605492
 30
0
  0
VERTEX
  5
E7
100
AcDbEntity
  8
s005-#def-solid-edge
  6
CONTINUOUS
 62
    7
420
    0
370
   35
100
AcDbVertex
100
AcDb2dVertex
 10
62.79862630829422
 20
-102.7570772605492
 30
0
  0
VERTEX
  5
E8
100
AcDbEntity
  8
s005-#def-solid-edge
  6
CONTINUOUS
 62
    7
420
    0
370
   35
100
AcDbVertex
100
AcDb2dVertex
 10
62.79862630829422
 20
-100.2570772605492
 30
0
  0
VERTEX
  5
E9
100
AcDbEntity
  8
s005-#def-solid-edge
  6
CONTINUOUS
 62
    7
420
    0
370
   35
100
AcDbVertex
100
AcDb2dVertex
 10
62.86883800723174
 20
-99.88898255098736
 30
0
  0
VERTEX
  5
EA
100
AcDbEntity
  8
s005-#def-solid-edge
  6
CONTINUOUS
 62
    7
420
    0
370
   35
100
AcDbVertex
100
AcDb2dVertex
 10
63.09151952710766
 20
-99.54997047936267
 30
0
  0
VERTEX
  5
EB
100
AcDbEntity
  8
s005-#def-solid-edge
  6
CONTINUOUS
 62
    7
420
    0
370
   35
100
AcDbVertex
100
AcDb2dVertex
 10
63.43053159865883
 20
-99.32728895951593
 30
0
  0
VERTEX
  5
EC
100
AcDbEntity
  8
s005-#def-solid-edge
  6
CONTINUOUS
 62
    7
420
    0
370
   35
100
AcDbVertex
100
AcDb2dVertex
 10
63.79862630829425
 20
-99.25707726054924
 30
0
  0
SEQEND
  5
ED
100
AcDbEntity
  8
s005-#def-solid-edge
  6
CONTINUOUS
 62
    7
420
    0
370
   35
  0
POLYLINE
  5
EE
100
AcDbEntity
  8
s005-#def-solid-edge
  6
CONTINUOUS
 62
    7
420
    0
370
   35
100
AcDb2dPolyline
 10
0
 20
0
 30
0
 70
    0
  0
VERTEX
  5
EF
100
AcDbEntity
  8
s005-#def-solid-edge
  6
CONTINUOUS
 62
    7
420
    0
370
   35
100
AcDbVertex
100
AcDb2dVertex
 10
-143.9491278003458
 20
-97.50707726054924
 30
0
  0
VERTEX
  5
F0
100
AcDbEntity
  8
s005-#def-solid-edge
  6
CONTINUOUS
 62
    7
420
    0
370
   35
100
AcDbVertex
100
AcDb2dVertex
 10
-162.8310938115959
 20
-97.50707726054924
 30
0
  0
VERTEX
  5
F1
100
AcDbEntity
  8
s005-#def-solid-edge
  6
CONTINUOUS
 62
    7
420
    0
370
   35
100
AcDbVertex
100
AcDb2dVertex
 10
-162.9343050014758
 20
-97.51784577108484
 30
0
  0
VERTEX
  5
F2
100
AcDbEntity
  8
s005-#def-solid-edge
  6
CONTINUOUS
 62
    7
420
    0
370
   35
100
AcDbVertex
100
AcDb2dVertex
 10
-163.0352179568278
 20
-97.5506417959616
 30
0
  0
VERTEX
  5
F3
100
AcDbEntity
  8
s005-#def-solid-edge
  6
CONTINUOUS
 62
    7
420
    0
370
   35
100
AcDbVertex
100
AcDb2dVertex
 10
-163.1269379740679
 20
-97.60399385536957
 30
0
  0
VERTEX
  5
F4
100
AcDbEntity
  8
s005-#def-solid-edge
  6
CONTINUOUS
 62
    7
420
    0
370
   35
100
AcDbVertex
100
AcDb2dVertex
 10
-163.2037718078459
 20
-97.6737439272159
 30
0
  0
VERTEX
  5
F5
100
AcDbEntity
  8
s005-#def-solid-edge
  6
CONTINUOUS
 62
    7
420
    0
370
   35
100
AcDbVertex
100
AcDb2dVertex
 10
-163.2541387862706
 20
-97.71686670227263
 30
0
  0
VERTEX
  5
F6
100
AcDbEntity
  8
s005-#def-solid-edge
  6
CONTINUOUS
 62
    7
420
    0
370
   35
100
AcDbVertex
100
AcDb2dVertex
 10
-163.3164903964378
 20
-97.74599154496977
 30
0
  0
VERTEX
  5
F7
100
AcDbEntity
  8
s005-#def-solid-edge
  6
CONTINUOUS
 62
    7
420
    0
370
   35
100
AcDbVertex
100
AcDb2dVertex
 10
-163.3844206429077
 20
-97.75701249624903
 30
0
  0
VERTEX
  5
F8
100
AcDbEntity
  8
s005-#def-solid-edge
  6
CONTINUOUS
 62
    7
420
    0
370
   35
100
AcDbVertex
100
AcDb2dVertex
 10
-163.4503235522848
 20
-97.74971778721643
 30
0
  0
VERTEX
  5
F9
100
AcDbEntity
  8
s005-#def-solid-edge
  6
CONTINUOUS
 62
    7
420
    0
370
   35
100
AcDbVertex
100
AcDb2dVertex
 10
-163.5119909465731
 20
-97.72535513695171
 30
0
  0
VERTEX
  5
FA
100
AcDbEntity
  8
s005-#def-solid-edge
  6
CONTINUOUS
 62
    7
420
    0
370
   35
100
AcDbVertex
100
AcDb2dVertex
 10
-163.5668875012675
 20
-97.68385395584586
 30
0
  0
VERTEX
  5
FB
100
AcDbEntity
  8
s005-#def-solid-edge
  6
CONTINUOUS
 62
    7
420
    0
370
   35
100
AcDbVertex
100
AcDb2dVertex
 10
-163.6083886823808
 20
-97.62895740113817
 30
0
  0
VERTEX
  5
FC
100
AcDbEntity
  8
s005-#def-solid-edge
  6
CONTINUOUS
 62
    7
420
    0
370
   35
100
AcDbVertex
100
AcDb2dVertex
 10
-163.6327513326381
 20
-97.56729000686316
 30
0
  0
VERTEX
  5
FD
100
AcDbEntity
  8
s005-#def-solid-edge
  6
CONTINUOUS
 62
    7
420
    0
370
   35
100
AcDbVertex
100
AcDb2dVertex
 10
-163.6400460416706
 20
-97.50138709748613
 30
0
  0
VERTEX
  5
FE
100
AcDbEntity
  8
s005-#def-solid-edge
  6
CONTINUOUS
 62
    7
420
    0
370
   35
100
AcDbVertex
100
AcDb2dVertex
 10
-163.6290250903914
 20
-97.43345685101615
 30
0
  0
VERTEX
  5
FF
100
AcDbEntity
  8
s005-#def-solid-edge
  6
CONTINUOUS
 62
    7
420
    0
370
   35
100
AcDbVertex
100
AcDb2dVertex
 10
-163.5999002476943
 20
-97.37110524084898
 30
0
  0
VERTEX
  5
100
100
AcDbEntity
  8
s005-#def-solid-edge
  6
CONTINUOUS
 62
    7
420
    0
370
   35
100
AcDbVertex
100
AcDb2dVertex
 10
-163.5567774726375
 20
-97.32073826242426
 30
0
  0
VERTEX
  5
101
100
AcDbEntity
  8
s005-#def-solid-edge
  6
CONTINUOUS
 62
    7
420
    0
370
   35
100
AcDbVertex
100
AcDb2dVertex
 10
-163.4870274007912
 20
-97.24390442864629
 30
0
  0
VERTEX
  5
102
100
AcDbEntity
  8
s005-#def-solid-edge
  6
CONTINUOUS
 62
    7
420
    0
370
   35
100
AcDbVertex
100
AcDb2dVertex
 10
-163.4336753413832
 20
-97.15218441140622
 30
0
  0
VERTEX
  5
103
100
AcDbEntity
  8
s005-#def-solid-edge
  6
CONTINUOUS
 62
    7
420
    0
370
   35
100
AcDbVertex
100
AcDb2dVertex
 10
-163.4008793165065
 20
-97.05127145605425
 30
0
  0
VERTEX
  5
104
100
AcDbEntity
  8
s005-#def-solid-edge
  6
CONTINUOUS
 62
    7
420
    0
370
   35
100
AcDbVertex
100
AcDb2dVertex
 10
-163.3901108059709
 20
-96.94806026617429
 30
0
  0
VERTEX
  5
105
100
AcDbEntity
  8
s005-#def-solid-edge
  6
CONTINUOUS
 62
    7
420
    0
370
   35
100
AcDbVertex
100
AcDb2dVertex
 10
-163.3901108059709
 20
-95.06609425492418
 30
0
  0
VERTEX
  5
106
100
AcDbEntity
  8
s005-#def-solid-edge
  6
CONTINUOUS
 62
    7
420
    0
370
   35
100
AcDbVertex
100
AcDb2dVertex
 10
-163.4008793165065
 20
-94.96288306504424
 30
0
  0
VERTEX
  5
107
100
AcDbEntity
  8
s005-#def-solid-edge
  6
CONTINUOUS
 62
    7
420
    0
370
   35
100
AcDbVertex
100
AcDb2dVertex
 10
-163.4336753413832
 20
-94.86197010969225
 30
0
  0
VERTEX
  5
108
100
AcDbEntity
  8
s005-#def-solid-edge
  6
CONTINUOUS
 62
    7
420
    0
370
   35
100
AcDbVertex
100
AcDb2dVertex
 10
-163.4870274007912
 20
-94.77025009245219
 30
0
  0
VERTEX
  5
109
100
AcDbEntity
  8
s005-#def-solid-edge
  6
CONTINUOUS
 62
    7
420
    0
370
   35
100
AcDbVertex
100
AcDb2dVertex
 10
-163.5567774726375
 20
-94.69341625867423
 30
0
  0
VERTEX
  5
10A
100
AcDbEntity
  8
s005-#def-solid-edge
  6
CONTINUOUS
 62
    7
420
    0
370
   35
100
AcDbVertex
100
AcDb2dVertex
 10
-163.5999002476943
 20
-94.64304928024956
 30
0
  0
VERTEX
  5
10B
100
AcDbEntity
  8
s005-#def-solid-edge
  6
CONTINUOUS
 62
    7
420
    0
370
   35
100
AcDbVertex
100
AcDb2dVertex
 10
-163.6290250903914
 20
-94.58069767008234
 30
0
  0
VERTEX
  5
10C
100
AcDbEntity
  8
s005-#def-solid-edge
  6
CONTINUOUS
 62
    7
420
    0
370
   35
100
AcDbVertex
100
AcDb2dVertex
 10
-163.6400460416706
 20
-94.5127674236124
 30
0
  0
VERTEX
  5
10D
100
AcDbEntity
  8
s005-#def-solid-edge
  6
CONTINUOUS
 62
    7
420
    0
370
   35
100
AcDbVertex
100
AcDb2dVertex
 10
-163.6327513326381
 20
-94.44686451423532
 30
0
  0
VERTEX
  5
10E
100
AcDbEntity
  8
s005-#def-solid-edge
  6
CONTINUOUS
 62
    7
420
    0
370
   35
100
AcDbVertex
100
AcDb2dVertex
 10
-163.6083886823808
 20
-94.3851971199603
 30
0
  0
VERTEX
  5
10F
100
AcDbEntity
  8
s005-#def-solid-edge
  6
CONTINUOUS
 62
    7
420
    0
370
   35
100
AcDbVertex
100
AcDb2dVertex
 10
-163.5668875012675
 20
-94.33030056525259
 30
0
  0
VERTEX
  5
110
100
AcDbEntity
  8
s005-#def-solid-edge
  6
CONTINUOUS
 62
    7
420
    0
370
   35
100
AcDbVertex
100
AcDb2dVertex
 10
-163.5119909465599
 20
-94.28879938413934
 30
0
  0
VERTEX
  5
111
100
AcDbEntity
  8
s005-#def-solid-edge
  6
CONTINUOUS
 62
    7
420
    0
370
   35
100
AcDbVertex
100
AcDb2dVertex
 10
-163.4503235522848
 20
-94.26443673388202
 30
0
  0
VERTEX
  5
112
100
AcDbEntity
  8
s005-#def-solid-edge
  6
CONTINUOUS
 62
    7
420
    0
370
   35
100
AcDbVertex
100
AcDb2dVertex
 10
-163.3844206429077
 20
-94.25714202484943
 30
0
  0
VERTEX
  5
113
100
AcDbEntity
  8
s005-#def-solid-edge
  6
CONTINUOUS
 62
    7
420
    0
370
   35
100
AcDbVertex
100
AcDb2dVertex
 10
-163.3164903964378
 20
-94.26816297612869
 30
0
  0
VERTEX
  5
114
100
AcDbEntity
  8
s005-#def-solid-edge
  6
CONTINUOUS
 62
    7
420
    0
370
   35
100
AcDbVertex
100
AcDb2dVertex
 10
-163.2541387862706
 20
-94.29728781882582
 30
0
  0
VERTEX
  5
115
100
AcDbEntity
  8
s005-#def-solid-edge
  6
CONTINUOUS
 62
    7
420
    0
370
   35
100
AcDbVertex
100
AcDb2dVertex
 10
-163.2037718078458
 20
-94.34041059388257
 30
0
  0
VERTEX
  5
116
100
AcDbEntity
  8
s005-#def-solid-edge
  6
CONTINUOUS
 62
    7
420
    0
370
   35
100
AcDbVertex
100
AcDb2dVertex
 10
-163.1269379740679
 20
-94.41016066572891
 30
0
  0
VERTEX
  5
117
100
AcDbEntity
  8
s005-#def-solid-edge
  6
CONTINUOUS
 62
    7
420
    0
370
   35
100
AcDbVertex
100
AcDb2dVertex
 10
-163.0352179568279
 20
-94.46351272513687
 30
0
  0
VERTEX
  5
118
100
AcDbEntity
  8
s005-#def-solid-edge
  6
CONTINUOUS
 62
    7
420
    0
370
   35
100
AcDbVertex
100
AcDb2dVertex
 10
-162.9343050014758
 20
-94.49630875001364
 30
0
  0
VERTEX
  5
119
100
AcDbEntity
  8
s005-#def-solid-edge
  6
CONTINUOUS
 62
    7
420
    0
370
   35
100
AcDbVertex
100
AcDb2dVertex
 10
-162.8310938115959
 20
-94.50707726054924
 30
0
  0
VERTEX
  5
11A
100
AcDbEntity
  8
s005-#def-solid-edge
  6
CONTINUOUS
 62
    7
420
    0
370
   35
100
AcDbVertex
100
AcDb2dVertex
 10
-143.9491278003458
 20
-94.50707726054924
 30
0
  0
VERTEX
  5
11B
100
AcDbEntity
  8
s005-#def-solid-edge
  6
CONTINUOUS
 62
    7
420
    0
370
   35
100
AcDbVertex
100
AcDb2dVertex
 10
-143.8459166104658
 20
-94.49630875001364
 30
0
  0
VERTEX
  5
11C
100
AcDbEntity
  8
s005-#def-solid-edge
  6
CONTINUOUS
 62
    7
420
    0
370
   35
100
AcDbVertex
100
AcDb2dVertex
 10
-143.7450036551139
 20
-94.46351272513688
 30
0
  0
VERTEX
  5
11D
100
AcDbEntity
  8
s005-#def-solid-edge
  6
CONTINUOUS
 62
    7
420
    0
370
   35
100
AcDbVertex
100
AcDb2dVertex
 10
-143.6532836378738
 20
-94.41016066572891
 30
0
  0
VERTEX
  5
11E
100
AcDbEntity
  8
s005-#def-solid-edge
  6
CONTINUOUS
 62
    7
420
    0
370
   35
100
AcDbVertex
100
AcDb2dVertex
 10
-143.5764498040959
 20
-94.34041059388259
 30
0
  0
VERTEX
  5
11F
100
AcDbEntity
  8
s005-#def-solid-edge
  6
CONTINUOUS
 62
    7
420
    0
370
   35
100
AcDbVertex
100
AcDb2dVertex
 10
-143.5260828256712
 20
-94.29728781882584
 30
0
  0
VERTEX
  5
120
100
AcDbEntity
  8
s005-#def-solid-edge
  6
CONTINUOUS
 62
    7
420
    0
370
   35
100
AcDbVertex
100
AcDb2dVertex
 10
-143.463731215504
 20
-94.26816297612871
 30
0
  0
VERTEX
  5
121
100
AcDbEntity
  8
s005-#def-solid-edge
  6
CONTINUOUS
 62
    7
420
    0
370
   35
100
AcDbVertex
100
AcDb2dVertex
 10
-143.395800969034
 20
-94.25714202484943
 30
0
  0
VERTEX
  5
122
100
AcDbEntity
  8
s005-#def-solid-edge
  6
CONTINUOUS
 62
    7
420
    0
370
   35
100
AcDbVertex
100
AcDb2dVertex
 10
-143.329898059657
 20
-94.26443673388204
 30
0
  0
VERTEX
  5
123
100
AcDbEntity
  8
s005-#def-solid-edge
  6
CONTINUOUS
 62
    7
420
    0
370
   35
100
AcDbVertex
100
AcDb2dVertex
 10
-143.2682306653819
 20
-94.28879938413932
 30
0
  0
VERTEX
  5
124
100
AcDbEntity
  8
s005-#def-solid-edge
  6
CONTINUOUS
 62
    7
420
    0
370
   35
100
AcDbVertex
100
AcDb2dVertex
 10
-143.2133341106742
 20
-94.33030056525261
 30
0
  0
VERTEX
  5
125
100
AcDbEntity
  8
s005-#def-solid-edge
  6
CONTINUOUS
 62
    7
420
    0
370
   35
100
AcDbVertex
100
AcDb2dVertex
 10
-143.1718329295609
 20
-94.38519711996032
 30
0
  0
VERTEX
  5
126
100
AcDbEntity
  8
s005-#def-solid-edge
  6
CONTINUOUS
 62
    7
420
    0
370
   35
100
AcDbVertex
100
AcDb2dVertex
 10
-143.1474702793037
 20
-94.4468645142353
 30
0
  0
VERTEX
  5
127
100
AcDbEntity
  8
s005-#def-solid-edge
  6
CONTINUOUS
 62
    7
420
    0
370
   35
100
AcDbVertex
100
AcDb2dVertex
 10
-143.1401755702711
 20
-94.51276742361235
 30
0
  0
VERTEX
  5
128
100
AcDbEntity
  8
s005-#def-solid-edge
  6
CONTINUOUS
 62
    7
420
    0
370
   35
100
AcDbVertex
100
AcDb2dVertex
 10
-143.1511965215503
 20
-94.58069767008234
 30
0
  0
VERTEX
  5
129
100
AcDbEntity
  8
s005-#def-solid-edge
  6
CONTINUOUS
 62
    7
420
    0
370
   35
100
AcDbVertex
100
AcDb2dVertex
 10
-143.1803213642474
 20
-94.64304928024949
 30
0
  0
VERTEX
  5
12A
100
AcDbEntity
  8
s005-#def-solid-edge
  6
CONTINUOUS
 62
    7
420
    0
370
   35
100
AcDbVertex
100
AcDb2dVertex
 10
-143.2234441393042
 20
-94.69341625867422
 30
0
  0
VERTEX
  5
12B
100
AcDbEntity
  8
s005-#def-solid-edge
  6
CONTINUOUS
 62
    7
420
    0
370
   35
100
AcDbVertex
100
AcDb2dVertex
 10
-143.2931942111505
 20
-94.77025009245219
 30
0
  0
VERTEX
  5
12C
100
AcDbEntity
  8
s005-#def-solid-edge
  6
CONTINUOUS
 62
    7
420
    0
370
   35
100
AcDbVertex
100
AcDb2dVertex
 10
-143.3465462705585
 20
-94.86197010969225
 30
0
  0
VERTEX
  5
12D
100
AcDbEntity
  8
s005-#def-solid-edge
  6
CONTINUOUS
 62
    7
420
    0
370
   35
100
AcDbVertex
100
AcDb2dVertex
 10
-143.3793422954353
 20
-94.96288306504422
 30
0
  0
VERTEX
  5
12E
100
AcDbEntity
  8
s005-#def-solid-edge
  6
CONTINUOUS
 62
    7
420
    0
370
   35
100
AcDbVertex
100
AcDb2dVertex
 10
-143.3901108059708
 20
-95.0660942549242
 30
0
  0
VERTEX
  5
12F
100
AcDbEntity
  8
s005-#def-solid-edge
  6
CONTINUOUS
 62
    7
420
    0
370
   35
100
AcDbVertex
100
AcDb2dVertex
 10
-143.3901108059708
 20
-96.94806026617428
 30
0
  0
VERTEX
  5
130
100
AcDbEntity
  8
s005-#def-solid-edge
  6
CONTINUOUS
 62
    7
420
    0
370
   35
100
AcDbVertex
100
AcDb2dVertex
 10
-143.3793422954352
 20
-97.05127145605485
 30
0
  0
VERTEX
  5
131
100
AcDbEntity
  8
s005-#def-solid-edge
  6
CONTINUOUS
 62
    7
420
    0
370
   35
100
AcDbVertex
100
AcDb2dVertex
 10
-143.3465462705585
 20
-97.15218441140622
 30
0
  0
VERTEX
  5
132
100
AcDbEntity
  8
s005-#def-solid-edge
  6
CONTINUOUS
 62
    7
420
    0
370
   35
100
AcDbVertex
100
AcDb2dVertex
 10
-143.2931942111506
 20
-97.24390442864627
 30
0
  0
VERTEX
  5
133
100
AcDbEntity
  8
s005-#def-solid-edge
  6
CONTINUOUS
 62
    7
420
    0
370
   35
100
AcDbVertex
100
AcDb2dVertex
 10
-143.2234441393042
 20
-97.32073826242424
 30
0
  0
VERTEX
  5
134
100
AcDbEntity
  8
s005-#def-solid-edge
  6
CONTINUOUS
 62
    7
420
    0
370
   35
100
AcDbVertex
100
AcDb2dVertex
 10
-143.1803213642391
 20
-97.37110524086175
 30
0
  0
VERTEX
  5
135
100
AcDbEntity
  8
s005-#def-solid-edge
  6
CONTINUOUS
 62
    7
420
    0
370
   35
100
AcDbVertex
100
AcDb2dVertex
 10
-143.1511965215503
 20
-97.43345685101613
 30
0
  0
VERTEX
  5
136
100
AcDbEntity
  8
s005-#def-solid-edge
  6
CONTINUOUS
 62
    7
420
    0
370
   35
100
AcDbVertex
100
AcDb2dVertex
 10
-143.1401755702711
 20
-97.50138709748613
 30
0
  0
VERTEX
  5
137
100
AcDbEntity
  8
s005-#def-solid-edge
  6
CONTINUOUS
 62
    7
420
    0
370
   35
100
AcDbVertex
100
AcDb2dVertex
 10
-143.1474702793037
 20
-97.56729000686316
 30
0
  0
VERTEX
  5
138
100
AcDbEntity
  8
s005-#def-solid-edge
  6
CONTINUOUS
 62
    7
420
    0
370
   35
100
AcDbVertex
100
AcDb2dVertex
 10
-143.1718329295609
 20
-97.62895740113817
 30
0
  0
VERTEX
  5
139
100
AcDbEntity
  8
s005-#def-solid-edge
  6
CONTINUOUS
 62
    7
420
    0
370
   35
100
AcDbVertex
100
AcDb2dVertex
 10
-143.2133341106742
 20
-97.6838539558459
 30
0
  0
VERTEX
  5
13A
100
AcDbEntity
  8
s005-#def-solid-edge
  6
CONTINUOUS
 62
    7
420
    0
370
   35
100
AcDbVertex
100
AcDb2dVertex
 10
-143.268230665382
 20
-97.72535513695917
 30
0
  0
VERTEX
  5
13B
100
AcDbEntity
  8
s005-#def-solid-edge
  6
CONTINUOUS
 62
    7
420
    0
370
   35
100
AcDbVertex
100
AcDb2dVertex
 10
-143.3298980596569
 20
-97.74971778721645
 30
0
  0
VERTEX
  5
13C
100
AcDbEntity
  8
s005-#def-solid-edge
  6
CONTINUOUS
 62
    7
420
    0
370
   35
100
AcDbVertex
100
AcDb2dVertex
 10
-143.395800969034
 20
-97.75701249624906
 30
0
  0
VERTEX
  5
13D
100
AcDbEntity
  8
s005-#def-solid-edge
  6
CONTINUOUS
 62
    7
420
    0
370
   35
100
AcDbVertex
100
AcDb2dVertex
 10
-143.463731215504
 20
-97.74599154496977
 30
0
  0
VERTEX
  5
13E
100
AcDbEntity
  8
s005-#def-solid-edge
  6
CONTINUOUS
 62
    7
420
    0
370
   35
100
AcDbVertex
100
AcDb2dVertex
 10
-143.5260828256711
 20
-97.71686670227268
 30
0
  0
VERTEX
  5
13F
100
AcDbEntity
  8
s005-#def-solid-edge
  6
CONTINUOUS
 62
    7
420
    0
370
   35
100
AcDbVertex
100
AcDb2dVertex
 10
-143.5764498040958
 20
-97.6737439272159
 30
0
  0
VERTEX
  5
140
100
AcDbEntity
  8
s005-#def-solid-edge
  6
CONTINUOUS
 62
    7
420
    0
370
   35
100
AcDbVertex
100
AcDb2dVertex
 10
-143.6532836378743
 20
-97.60399385536921
 30
0
  0
VERTEX
  5
141
100
AcDbEntity
  8
s005-#def-solid-edge
  6
CONTINUOUS
 62
    7
420
    0
370
   35
100
AcDbVertex
100
AcDb2dVertex
 10
-143.7450036551139
 20
-97.55064179596161
 30
0
  0
VERTEX
  5
142
100
AcDbEntity
  8
s005-#def-solid-edge
  6
CONTINUOUS
 62
    7
420
    0
370
   35
100
AcDbVertex
100
AcDb2dVertex
 10
-143.8459166104659
 20
-97.51784577108484
 30
0
  0
VERTEX
  5
143
100
AcDbEntity
  8
s005-#def-solid-edge
  6
CONTINUOUS
 62
    7
420
    0
370
   35
100
AcDbVertex
100
AcDb2dVertex
 10
-143.9491278003458
 20
-97.50707726054924
 30
0
  0
SEQEND
  5
144
100
AcDbEntity
  8
s005-#def-solid-edge
  6
CONTINUOUS
 62
    7
420
    0
370
   35
  0
POLYLINE
  5
145
100
AcDbEntity
  8
s005-#def-solid-edge
  6
CONTINUOUS
 62
    7
420
    0
370
   35
100
AcDb2dPolyline
 10
0
 20
0
 30
0
 70
    0
  0
VERTEX
  5
146
100
AcDbEntity
  8
s005-#def-solid-edge
  6
CONTINUOUS
 62
    7
420
    0
370
   35
100
AcDbVertex
100
AcDb2dVertex
 10
-190.5528820955908
 20
-97.50707726054924
 30
0
  0
VERTEX
  5
147
100
AcDbEntity
  8
s005-#def-solid-edge
  6
CONTINUOUS
 62
    7
420
    0
370
   35
100
AcDbVertex
100
AcDb2dVertex
 10
-209.4348481068409
 20
-97.50707726054924
 30
0
  0
VERTEX
  5
148
100
AcDbEntity
  8
s005-#def-solid-edge
  6
CONTINUOUS
 62
    7
420
    0
370
   35
100
AcDbVertex
100
AcDb2dVertex
 10
-209.5380592967208
 20
-97.51784577108484
 30
0
  0
VERTEX
  5
149
100
AcDbEntity
  8
s005-#def-solid-edge
  6
CONTINUOUS
 62
    7
420
    0
370
   35
100
AcDbVertex
100
AcDb2dVertex
 10
-209.6389722520728
 20
-97.55064179596161
 30
0
  0
VERTEX
  5
14A
100
AcDbEntity
  8
s005-#def-solid-edge
  6
CONTINUOUS
 62
    7
420
    0
370
   35
100
AcDbVertex
100
AcDb2dVertex
 10
-209.7306922693128
 20
-97.60399385536954
 30
0
  0
VERTEX
  5
14B
100
AcDbEntity
  8
s005-#def-solid-edge
  6
CONTINUOUS
 62
    7
420
    0
370
   35
100
AcDbVertex
100
AcDb2dVertex
 10
-209.8075261030909
 20
-97.6737439272159
 30
0
  0
VERTEX
  5
14C
100
AcDbEntity
  8
s005-#def-solid-edge
  6
CONTINUOUS
 62
    7
420
    0
370
   35
100
AcDbVertex
100
AcDb2dVertex
 10
-209.8578930815155
 20
-97.71686670227263
 30
0
  0
VERTEX
  5
14D
100
AcDbEntity
  8
s005-#def-solid-edge
  6
CONTINUOUS
 62
    7
420
    0
370
   35
100
AcDbVertex
100
AcDb2dVertex
 10
-209.9202446916827
 20
-97.74599154496977
 30
0
  0
VERTEX
  5
14E
100
AcDbEntity
  8
s005-#def-solid-edge
  6
CONTINUOUS
 62
    7
420
    0
370
   35
100
AcDbVertex
100
AcDb2dVertex
 10
-209.9881749381527
 20
-97.75701249624903
 30
0
  0
VERTEX
  5
14F
100
AcDbEntity
  8
s005-#def-solid-edge
  6
CONTINUOUS
 62
    7
420
    0
370
   35
100
AcDbVertex
100
AcDb2dVertex
 10
-210.0540778475298
 20
-97.74971778721643
 30
0
  0
VERTEX
  5
150
100
AcDbEntity
  8
s005-#def-solid-edge
  6
CONTINUOUS
 62
    7
420
    0
370
   35
100
AcDbVertex
100
AcDb2dVertex
 10
-210.1157452418181
 20
-97.72535513695171
 30
0
  0
VERTEX
  5
151
100
AcDbEntity
  8
s005-#def-solid-edge
  6
CONTINUOUS
 62
    7
420
    0
370
   35
100
AcDbVertex
100
AcDb2dVertex
 10
-210.1706417965125
 20
-97.68385395584586
 30
0
  0
VERTEX
  5
152
100
AcDbEntity
  8
s005-#def-solid-edge
  6
CONTINUOUS
 62
    7
420
    0
370
   35
100
AcDbVertex
100
AcDb2dVertex
 10
-210.2121429776258
 20
-97.62895740113815
 30
0
  0
VERTEX
  5
153
100
AcDbEntity
  8
s005-#def-solid-edge
  6
CONTINUOUS
 62
    7
420
    0
370
   35
100
AcDbVertex
100
AcDb2dVertex
 10
-210.236505627883
 20
-97.56729000686316
 30
0
  0
VERTEX
  5
154
100
AcDbEntity
  8
s005-#def-solid-edge
  6
CONTINUOUS
 62
    7
420
    0
370
   35
100
AcDbVertex
100
AcDb2dVertex
 10
-210.2438003369156
 20
-97.50138709748613
 30
0
  0
VERTEX
  5
155
100
AcDbEntity
  8
s005-#def-solid-edge
  6
CONTINUOUS
 62
    7
420
    0
370
   35
100
AcDbVertex
100
AcDb2dVertex
 10
-210.2327793856364
 20
-97.43345685101615
 30
0
  0
VERTEX
  5
156
100
AcDbEntity
  8
s005-#def-solid-edge
  6
CONTINUOUS
 62
    7
420
    0
370
   35
100
AcDbVertex
100
AcDb2dVertex
 10
-210.2036545429393
 20
-97.37110524084898
 30
0
  0
VERTEX
  5
157
100
AcDbEntity
  8
s005-#def-solid-edge
  6
CONTINUOUS
 62
    7
420
    0
370
   35
100
AcDbVertex
100
AcDb2dVertex
 10
-210.1605317678825
 20
-97.32073826242426
 30
0
  0
VERTEX
  5
158
100
AcDbEntity
  8
s005-#def-solid-edge
  6
CONTINUOUS
 62
    7
420
    0
370
   35
100
AcDbVertex
100
AcDb2dVertex
 10
-210.0907816960358
 20
-97.24390442864579
 30
0
  0
VERTEX
  5
159
100
AcDbEntity
  8
s005-#def-solid-edge
  6
CONTINUOUS
 62
    7
420
    0
370
   35
100
AcDbVertex
100
AcDb2dVertex
 10
-210.0374296366282
 20
-97.15218441140621
 30
0
  0
VERTEX
  5
15A
100
AcDbEntity
  8
s005-#def-solid-edge
  6
CONTINUOUS
 62
    7
420
    0
370
   35
100
AcDbVertex
100
AcDb2dVertex
 10
-210.0046336117514
 20
-97.05127145605425
 30
0
  0
VERTEX
  5
15B
100
AcDbEntity
  8
s005-#def-solid-edge
  6
CONTINUOUS
 62
    7
420
    0
370
   35
100
AcDbVertex
100
AcDb2dVertex
 10
-209.9938651012158
 20
-96.94806026617428
 30
0
  0
VERTEX
  5
15C
100
AcDbEntity
  8
s005-#def-solid-edge
  6
CONTINUOUS
 62
    7
420
    0
370
   35
100
AcDbVertex
100
AcDb2dVertex
 10
-209.9938651012158
 20
-95.06609425492418
 30
0
  0
VERTEX
  5
15D
100
AcDbEntity
  8
s005-#def-solid-edge
  6
CONTINUOUS
 62
    7
420
    0
370
   35
100
AcDbVertex
100
AcDb2dVertex
 10
-210.0046336117515
 20
-94.96288306504363
 30
0
  0
VERTEX
  5
15E
100
AcDbEntity
  8
s005-#def-solid-edge
  6
CONTINUOUS
 62
    7
420
    0
370
   35
100
AcDbVertex
100
AcDb2dVertex
 10
-210.0374296366282
 20
-94.86197010969225
 30
0
  0
VERTEX
  5
15F
100
AcDbEntity
  8
s005-#def-solid-edge
  6
CONTINUOUS
 62
    7
420
    0
370
   35
100
AcDbVertex
100
AcDb2dVertex
 10
-210.0907816960362
 20
-94.77025009245219
 30
0
  0
VERTEX
  5
160
100
AcDbEntity
  8
s005-#def-solid-edge
  6
CONTINUOUS
 62
    7
420
    0
370
   35
100
AcDbVertex
100
AcDb2dVertex
 10
-210.1605317678825
 20
-94.69341625867423
 30
0
  0
VERTEX
  5
161
100
AcDbEntity
  8
s005-#def-solid-edge
  6
CONTINUOUS
 62
    7
420
    0
370
   35
100
AcDbVertex
100
AcDb2dVertex
 10
-210.2036545429475
 20
-94.64304928023672
 30
0
  0
VERTEX
  5
162
100
AcDbEntity
  8
s005-#def-solid-edge
  6
CONTINUOUS
 62
    7
420
    0
370
   35
100
AcDbVertex
100
AcDb2dVertex
 10
-210.2327793856364
 20
-94.58069767008234
 30
0
  0
VERTEX
  5
163
100
AcDbEntity
  8
s005-#def-solid-edge
  6
CONTINUOUS
 62
    7
420
    0
370
   35
100
AcDbVertex
100
AcDb2dVertex
 10
-210.2438003369156
 20
-94.5127674236124
 30
0
  0
VERTEX
  5
164
100
AcDbEntity
  8
s005-#def-solid-edge
  6
CONTINUOUS
 62
    7
420
    0
370
   35
100
AcDbVertex
100
AcDb2dVertex
 10
-210.236505627883
 20
-94.44686451423532
 30
0
  0
VERTEX
  5
165
100
AcDbEntity
  8
s005-#def-solid-edge
  6
CONTINUOUS
 62
    7
420
    0
370
   35
100
AcDbVertex
100
AcDb2dVertex
 10
-210.2121429776183
 20
-94.38519711994697
 30
0
  0
VERTEX
  5
166
100
AcDbEntity
  8
s005-#def-solid-edge
  6
CONTINUOUS
 62
    7
420
    0
370
   35
100
AcDbVertex
100
AcDb2dVertex
 10
-210.1706417965125
 20
-94.33030056525257
 30
0
  0
VERTEX
  5
167
100
AcDbEntity
  8
s005-#def-solid-edge
  6
CONTINUOUS
 62
    7
420
    0
370
   35
100
AcDbVertex
100
AcDb2dVertex
 10
-210.1157452418048
 20
-94.28879938413934
 30
0
  0
VERTEX
  5
168
100
AcDbEntity
  8
s005-#def-solid-edge
  6
CONTINUOUS
 62
    7
420
    0
370
   35
100
AcDbVertex
100
AcDb2dVertex
 10
-210.0540778475298
 20
-94.26443673388202
 30
0
  0
VERTEX
  5
169
100
AcDbEntity
  8
s005-#def-solid-edge
  6
CONTINUOUS
 62
    7
420
    0
370
   35
100
AcDbVertex
100
AcDb2dVertex
 10
-209.9881749381527
 20
-94.25714202484943
 30
0
  0
VERTEX
  5
16A
100
AcDbEntity
  8
s005-#def-solid-edge
  6
CONTINUOUS
 62
    7
420
    0
370
   35
100
AcDbVertex
100
AcDb2dVertex
 10
-209.9202446916827
 20
-94.26816297612869
 30
0
  0
VERTEX
  5
16B
100
AcDbEntity
  8
s005-#def-solid-edge
  6
CONTINUOUS
 62
    7
420
    0
370
   35
100
AcDbVertex
100
AcDb2dVertex
 10
-209.8578930815155
 20
-94.29728781882582
 30
0
  0
VERTEX
  5
16C
100
AcDbEntity
  8
s005-#def-solid-edge
  6
CONTINUOUS
 62
    7
420
    0
370
   35
100
AcDbVertex
100
AcDb2dVertex
 10
-209.8075261030909
 20
-94.34041059388257
 30
0
  0
VERTEX
  5
16D
100
AcDbEntity
  8
s005-#def-solid-edge
  6
CONTINUOUS
 62
    7
420
    0
370
   35
100
AcDbVertex
100
AcDb2dVertex
 10
-209.7306922693123
 20
-94.41016066572929
 30
0
  0
VERTEX
  5
16E
100
AcDbEntity
  8
s005-#def-solid-edge
  6
CONTINUOUS
 62
    7
420
    0
370
   35
100
AcDbVertex
100
AcDb2dVertex
 10
-209.6389722520728
 20
-94.46351272513687
 30
0
  0
VERTEX
  5
16F
100
AcDbEntity
  8
s005-#def-solid-edge
  6
CONTINUOUS
 62
    7
420
    0
370
   35
100
AcDbVertex
100
AcDb2dVertex
 10
-209.5380592967208
 20
-94.49630875001364
 30
0
  0
VERTEX
  5
170
100
AcDbEntity
  8
s005-#def-solid-edge
  6
CONTINUOUS
 62
    7
420
    0
370
   35
100
AcDbVertex
100
AcDb2dVertex
 10
-209.4348481068409
 20
-94.50707726054924
 30
0
  0
VERTEX
  5
171
100
AcDbEntity
  8
s005-#def-solid-edge
  6
CONTINUOUS
 62
    7
420
    0
370
   35
100
AcDbVertex
100
AcDb2dVertex
 10
-190.5528820955908
 20
-94.50707726054924
 30
0
  0
VERTEX
  5
172
100
AcDbEntity
  8
s005-#def-solid-edge
  6
CONTINUOUS
 62
    7
420
    0
370
   35
100
AcDbVertex
100
AcDb2dVertex
 10
-190.4496709057108
 20
-94.49630875001364
 30
0
  0
VERTEX
  5
173
100
AcDbEntity
  8
s005-#def-solid-edge
  6
CONTINUOUS
 62
    7
420
    0
370
   35
100
AcDbVertex
100
AcDb2dVertex
 10
-190.3487579503589
 20
-94.46351272513688
 30
0
  0
VERTEX
  5
174
100
AcDbEntity
  8
s005-#def-solid-edge
  6
CONTINUOUS
 62
    7
420
    0
370
   35
100
AcDbVertex
100
AcDb2dVertex
 10
-190.2570379331188
 20
-94.41016066572891
 30
0
  0
VERTEX
  5
175
100
AcDbEntity
  8
s005-#def-solid-edge
  6
CONTINUOUS
 62
    7
420
    0
370
   35
100
AcDbVertex
100
AcDb2dVertex
 10
-190.1802040993408
 20
-94.34041059388259
 30
0
  0
VERTEX
  5
176
100
AcDbEntity
  8
s005-#def-solid-edge
  6
CONTINUOUS
 62
    7
420
    0
370
   35
100
AcDbVertex
100
AcDb2dVertex
 10
-190.1298371209162
 20
-94.29728781882584
 30
0
  0
VERTEX
  5
177
100
AcDbEntity
  8
s005-#def-solid-edge
  6
CONTINUOUS
 62
    7
420
    0
370
   35
100
AcDbVertex
100
AcDb2dVertex
 10
-190.0674855107488
 20
-94.26816297612871
 30
0
  0
VERTEX
  5
178
100
AcDbEntity
  8
s005-#def-solid-edge
  6
CONTINUOUS
 62
    7
420
    0
370
   35
100
AcDbVertex
100
AcDb2dVertex
 10
-189.9995552642789
 20
-94.25714202484943
 30
0
  0
VERTEX
  5
179
100
AcDbEntity
  8
s005-#def-solid-edge
  6
CONTINUOUS
 62
    7
420
    0
370
   35
100
AcDbVertex
100
AcDb2dVertex
 10
-189.933652354902
 20
-94.26443673388204
 30
0
  0
VERTEX
  5
17A
100
AcDbEntity
  8
s005-#def-solid-edge
  6
CONTINUOUS
 62
    7
420
    0
370
   35
100
AcDbVertex
100
AcDb2dVertex
 10
-189.8719849606269
 20
-94.28879938413932
 30
0
  0
VERTEX
  5
17B
100
AcDbEntity
  8
s005-#def-solid-edge
  6
CONTINUOUS
 62
    7
420
    0
370
   35
100
AcDbVertex
100
AcDb2dVertex
 10
-189.8170884059192
 20
-94.33030056525261
 30
0
  0
VERTEX
  5
17C
100
AcDbEntity
  8
s005-#def-solid-edge
  6
CONTINUOUS
 62
    7
420
    0
370
   35
100
AcDbVertex
100
AcDb2dVertex
 10
-189.7755872248059
 20
-94.38519711996032
 30
0
  0
VERTEX
  5
17D
100
AcDbEntity
  8
s005-#def-solid-edge
  6
CONTINUOUS
 62
    7
420
    0
370
   35
100
AcDbVertex
100
AcDb2dVertex
 10
-189.7512245745486
 20
-94.4468645142353
 30
0
  0
VERTEX
  5
17E
100
AcDbEntity
  8
s005-#def-solid-edge
  6
CONTINUOUS
 62
    7
420
    0
370
   35
100
AcDbVertex
100
AcDb2dVertex
 10
-189.743929865516
 20
-94.51276742361235
 30
0
  0
VERTEX
  5
17F
100
AcDbEntity
  8
s005-#def-solid-edge
  6
CONTINUOUS
 62
    7
420
    0
370
   35
100
AcDbVertex
100
AcDb2dVertex
 10
-189.7549508167953
 20
-94.58069767008234
 30
0
  0
VERTEX
  5
180
100
AcDbEntity
  8
s005-#def-solid-edge
  6
CONTINUOUS
 62
    7
420
    0
370
   35
100
AcDbVertex
100
AcDb2dVertex
 10
-189.7840756594924
 20
-94.64304928024949
 30
0
  0
VERTEX
  5
181
100
AcDbEntity
  8
s005-#def-solid-edge
  6
CONTINUOUS
 62
    7
420
    0
370
   35
100
AcDbVertex
100
AcDb2dVertex
 10
-189.8271984345492
 20
-94.69341625867422
 30
0
  0
VERTEX
  5
182
100
AcDbEntity
  8
s005-#def-solid-edge
  6
CONTINUOUS
 62
    7
420
    0
370
   35
100
AcDbVertex
100
AcDb2dVertex
 10
-189.8969485063955
 20
-94.77025009245219
 30
0
  0
VERTEX
  5
183
100
AcDbEntity
  8
s005-#def-solid-edge
  6
CONTINUOUS
 62
    7
420
    0
370
   35
100
AcDbVertex
100
AcDb2dVertex
 10
-189.9503005658034
 20
-94.86197010969225
 30
0
  0
VERTEX
  5
184
100
AcDbEntity
  8
s005-#def-solid-edge
  6
CONTINUOUS
 62
    7
420
    0
370
   35
100
AcDbVertex
100
AcDb2dVertex
 10
-189.9830965906802
 20
-94.96288306504422
 30
0
  0
VERTEX
  5
185
100
AcDbEntity
  8
s005-#def-solid-edge
  6
CONTINUOUS
 62
    7
420
    0
370
   35
100
AcDbVertex
100
AcDb2dVertex
 10
-189.9938651012159
 20
-95.0660942549242
 30
0
  0
VERTEX
  5
186
100
AcDbEntity
  8
s005-#def-solid-edge
  6
CONTINUOUS
 62
    7
420
    0
370
   35
100
AcDbVertex
100
AcDb2dVertex
 10
-189.9938651012158
 20
-96.94806026617429
 30
0
  0
VERTEX
  5
187
100
AcDbEntity
  8
s005-#def-solid-edge
  6
CONTINUOUS
 62
    7
420
    0
370
   35
100
AcDbVertex
100
AcDb2dVertex
 10
-189.9830965906801
 20
-97.05127145605485
 30
0
  0
VERTEX
  5
188
100
AcDbEntity
  8
s005-#def-solid-edge
  6
CONTINUOUS
 62
    7
420
    0
370
   35
100
AcDbVertex
100
AcDb2dVertex
 10
-189.9503005658034
 20
-97.15218441140622
 30
0
  0
VERTEX
  5
189
100
AcDbEntity
  8
s005-#def-solid-edge
  6
CONTINUOUS
 62
    7
420
    0
370
   35
100
AcDbVertex
100
AcDb2dVertex
 10
-189.8969485063955
 20
-97.24390442864627
 30
0
  0
VERTEX
  5
18A
100
AcDbEntity
  8
s005-#def-solid-edge
  6
CONTINUOUS
 62
    7
420
    0
370
   35
100
AcDbVertex
100
AcDb2dVertex
 10
-189.8271984345492
 20
-97.32073826242424
 30
0
  0
VERTEX
  5
18B
100
AcDbEntity
  8
s005-#def-solid-edge
  6
CONTINUOUS
 62
    7
420
    0
370
   35
100
AcDbVertex
100
AcDb2dVertex
 10
-189.7840756594841
 20
-97.37110524086175
 30
0
  0
VERTEX
  5
18C
100
AcDbEntity
  8
s005-#def-solid-edge
  6
CONTINUOUS
 62
    7
420
    0
370
   35
100
AcDbVertex
100
AcDb2dVertex
 10
-189.7549508167953
 20
-97.43345685101612
 30
0
  0
VERTEX
  5
18D
100
AcDbEntity
  8
s005-#def-solid-edge
  6
CONTINUOUS
 62
    7
420
    0
370
   35
100
AcDbVertex
100
AcDb2dVertex
 10
-189.743929865516
 20
-97.50138709748613
 30
0
  0
VERTEX
  5
18E
100
AcDbEntity
  8
s005-#def-solid-edge
  6
CONTINUOUS
 62
    7
420
    0
370
   35
100
AcDbVertex
100
AcDb2dVertex
 10
-189.7512245745486
 20
-97.56729000686316
 30
0
  0
VERTEX
  5
18F
100
AcDbEntity
  8
s005-#def-solid-edge
  6
CONTINUOUS
 62
    7
420
    0
370
   35
100
AcDbVertex
100
AcDb2dVertex
 10
-189.7755872248059
 20
-97.62895740113817
 30
0
  0
VERTEX
  5
190
100
AcDbEntity
  8
s005-#def-solid-edge
  6
CONTINUOUS
 62
    7
420
    0
370
   35
100
AcDbVertex
100
AcDb2dVertex
 10
-189.8170884059192
 20
-97.6838539558459
 30
0
  0
VERTEX
  5
191
100
AcDbEntity
  8
s005-#def-solid-edge
  6
CONTINUOUS
 62
    7
420
    0
370
   35
100
AcDbVertex
100
AcDb2dVertex
 10
-189.8719849606269
 20
-97.72535513695917
 30
0
  0
VERTEX
  5
192
100
AcDbEntity
  8
s005-#def-solid-edge
  6
CONTINUOUS
 62
    7
420
    0
370
   35
100
AcDbVertex
100
AcDb2dVertex
 10
-189.9336523549019
 20
-97.74971778721645
 30
0
  0
VERTEX
  5
193
100
AcDbEntity
  8
s005-#def-solid-edge
  6
CONTINUOUS
 62
    7
420
    0
370
   35
100
AcDbVertex
100
AcDb2dVertex
 10
-189.9995552642789
 20
-97.75701249624906
 30
0
  0
VERTEX
  5
194
100
AcDbEntity
  8
s005-#def-solid-edge
  6
CONTINUOUS
 62
    7
420
    0
370
   35
100
AcDbVertex
100
AcDb2dVertex
 10
-190.067485510749
 20
-97.74599154496977
 30
0
  0
VERTEX
  5
195
100
AcDbEntity
  8
s005-#def-solid-edge
  6
CONTINUOUS
 62
    7
420
    0
370
   35
100
AcDbVertex
100
AcDb2dVertex
 10
-190.1298371209162
 20
-97.71686670227265
 30
0
  0
VERTEX
  5
196
100
AcDbEntity
  8
s005-#def-solid-edge
  6
CONTINUOUS
 62
    7
420
    0
370
   35
100
AcDbVertex
100
AcDb2dVertex
 10
-190.1802040993408
 20
-97.6737439272159
 30
0
  0
VERTEX
  5
197
100
AcDbEntity
  8
s005-#def-solid-edge
  6
CONTINUOUS
 62
    7
420
    0
370
   35
100
AcDbVertex
100
AcDb2dVertex
 10
-190.2570379331193
 20
-97.60399385536921
 30
0
  0
VERTEX
  5
198
100
AcDbEntity
  8
s005-#def-solid-edge
  6
CONTINUOUS
 62
    7
420
    0
370
   35
100
AcDbVertex
100
AcDb2dVertex
 10
-190.3487579503588
 20
-97.55064179596162
 30
0
  0
VERTEX
  5
199
100
AcDbEntity
  8
s005-#def-solid-edge
  6
CONTINUOUS
 62
    7
420
    0
370
   35
100
AcDbVertex
100
AcDb2dVertex
 10
-190.4496709057109
 20
-97.51784577108484
 30
0
  0
VERTEX
  5
19A
100
AcDbEntity
  8
s005-#def-solid-edge
  6
CONTINUOUS
 62
    7
420
    0
370
   35
100
AcDbVertex
100
AcDb2dVertex
 10
-190.5528820955908
 20
-97.50707726054924
 30
0
  0
SEQEND
  5
19B
100
AcDbEntity
  8
s005-#def-solid-edge
  6
CONTINUOUS
 62
    7
420
    0
370
   35
  0
POLYLINE
  5
19C
100
AcDbEntity
  8
s005-#def-solid-edge
  6
CONTINUOUS
 62
    7
420
    0
370
   35
100
AcDb2dPolyline
 10
0
 20
0
 30
0
 70
    0
  0
VERTEX
  5
19D
100
AcDbEntity
  8
s005-#def-solid-edge
  6
CONTINUOUS
 62
    7
420
    0
370
   35
100
AcDbVertex
100
AcDb2dVertex
 10
-338.9513736917058
 20
-71.75707726054924
 30
0
  0
VERTEX
  5
19E
100
AcDbEntity
  8
s005-#def-solid-edge
  6
CONTINUOUS
 62
    7
420
    0
370
   35
100
AcDbVertex
100
AcDb2dVertex
 10
-339.1444558637841
 20
-72.76933771184439
 30
0
  0
VERTEX
  5
19F
100
AcDbEntity
  8
s005-#def-solid-edge
  6
CONTINUOUS
 62
    7
420
    0
370
   35
100
AcDbVertex
100
AcDb2dVertex
 10
-339.7568300434428
 20
-73.70162090881225
 30
0
  0
VERTEX
  5
1A0
100
AcDbEntity
  8
s005-#def-solid-edge
  6
CONTINUOUS
 62
    7
420
    0
370
   35
100
AcDbVertex
100
AcDb2dVertex
 10
-340.6891132404106
 20
-74.31399508847092
 30
0
  0
VERTEX
  5
1A1
100
AcDbEntity
  8
s005-#def-solid-edge
  6
CONTINUOUS
 62
    7
420
    0
370
   35
100
AcDbVertex
100
AcDb2dVertex
 10
-341.7013736917057
 20
-74.50707726054924
 30
0
  0
VERTEX
  5
1A2
100
AcDbEntity
  8
s005-#def-solid-edge
  6
CONTINUOUS
 62
    7
420
    0
370
   35
100
AcDbVertex
100
AcDb2dVertex
 10
-342.713634143001
 20
-74.3139950884709
 30
0
  0
VERTEX
  5
1A3
100
AcDbEntity
  8
s005-#def-solid-edge
  6
CONTINUOUS
 62
    7
420
    0
370
   35
100
AcDbVertex
100
AcDb2dVertex
 10
-343.6459173399688
 20
-73.70162090881223
 30
0
  0
VERTEX
  5
1A4
100
AcDbEntity
  8
s005-#def-solid-edge
  6
CONTINUOUS
 62
    7
420
    0
370
   35
100
AcDbVertex
100
AcDb2dVertex
 10
-344.2582915196275
 20
-72.76933771184437
 30
0
  0
VERTEX
  5
1A5
100
AcDbEntity
  8
s005-#def-solid-edge
  6
CONTINUOUS
 62
    7
420
    0
370
   35
100
AcDbVertex
100
AcDb2dVertex
 10
-344.4513736917057
 20
-71.75707726054924
 30
0
  0
VERTEX
  5
1A6
100
AcDbEntity
  8
s005-#def-solid-edge
  6
CONTINUOUS
 62
    7
420
    0
370
   35
100
AcDbVertex
100
AcDb2dVertex
 10
-344.2582915196274
 20
-70.74481680925409
 30
0
  0
VERTEX
  5
1A7
100
AcDbEntity
  8
s005-#def-solid-edge
  6
CONTINUOUS
 62
    7
420
    0
370
   35
100
AcDbVertex
100
AcDb2dVertex
 10
-343.6459173399688
 20
-69.81253361228623
 30
0
  0
VERTEX
  5
1A8
100
AcDbEntity
  8
s005-#def-solid-edge
  6
CONTINUOUS
 62
    7
420
    0
370
   35
100
AcDbVertex
100
AcDb2dVertex
 10
-342.7136341430009
 20
-69.20015943262754
 30
0
  0
VERTEX
  5
1A9
100
AcDbEntity
  8
s005-#def-solid-edge
  6
CONTINUOUS
 62
    7
420
    0
370
   35
100
AcDbVertex
100
AcDb2dVertex
 10
-341.7013736917058
 20
-69.00707726054924
 30
0
  0
VERTEX
  5
1AA
100
AcDbEntity
  8
s005-#def-solid-edge
  6
CONTINUOUS
 62
    7
420
    0
370
   35
100
AcDbVertex
100
AcDb2dVertex
 10
-340.6891132404106
 20
-69.20015943262754
 30
0
  0
VERTEX
  5
1AB
100
AcDbEntity
  8
s005-#def-solid-edge
  6
CONTINUOUS
 62
    7
420
    0
370
   35
100
AcDbVertex
100
AcDb2dVertex
 10
-339.7568300434428
 20
-69.81253361228622
 30
0
  0
VERTEX
  5
1AC
100
AcDbEntity
  8
s005-#def-solid-edge
  6
CONTINUOUS
 62
    7
420
    0
370
   35
100
AcDbVertex
100
AcDb2dVertex
 10
-339.1444558637841
 20
-70.74481680925409
 30
0
  0
VERTEX
  5
1AD
100
AcDbEntity
  8
s005-#def-solid-edge
  6
CONTINUOUS
 62
    7
420
    0
370
   35
100
AcDbVertex
100
AcDb2dVertex
 10
-338.9513736917058
 20
-71.75707726054924
 30
0
  0
SEQEND
  5
1AE
100
AcDbEntity
  8
s005-#def-solid-edge
  6
CONTINUOUS
 62
    7
420
    0
370
   35
  0
POLYLINE
  5
1AF
100
AcDbEntity
  8
s005-#def-solid-edge
  6
CONTINUOUS
 62
    7
420
    0
370
   35
100
AcDb2dPolyline
 10
0
 20
0
 30
0
 70
    0
  0
VERTEX
  5
1B0
100
AcDbEntity
  8
s005-#def-solid-edge
  6
CONTINUOUS
 62
    7
420
    0
370
   35
100
AcDbVertex
100
AcDb2dVertex
 10
82.31088675958938
 20
-29.20015943262754
 30
0
  0
VERTEX
  5
1B1
100
AcDbEntity
  8
s005-#def-solid-edge
  6
CONTINUOUS
 62
    7
420
    0
370
   35
100
AcDbVertex
100
AcDb2dVertex
 10
83.24316995655721
 20
-29.81253361228623
 30
0
  0
VERTEX
  5
1B2
100
AcDbEntity
  8
s005-#def-solid-edge
  6
CONTINUOUS
 62
    7
420
    0
370
   35
100
AcDbVertex
100
AcDb2dVertex
 10
83.85554413621591
 20
-30.74481680925408
 30
0
  0
VERTEX
  5
1B3
100
AcDbEntity
  8
s005-#def-solid-edge
  6
CONTINUOUS
 62
    7
420
    0
370
   35
100
AcDbVertex
100
AcDb2dVertex
 10
84.04862630829422
 20
-31.75707726054924
 30
0
  0
VERTEX
  5
1B4
100
AcDbEntity
  8
s005-#def-solid-edge
  6
CONTINUOUS
 62
    7
420
    0
370
   35
100
AcDbVertex
100
AcDb2dVertex
 10
83.85554413621588
 20
-32.76933771184437
 30
0
  0
VERTEX
  5
1B5
100
AcDbEntity
  8
s005-#def-solid-edge
  6
CONTINUOUS
 62
    7
420
    0
370
   35
100
AcDbVertex
100
AcDb2dVertex
 10
83.24316995655724
 20
-33.70162090881225
 30
0
  0
VERTEX
  5
1B6
100
AcDbEntity
  8
s005-#def-solid-edge
  6
CONTINUOUS
 62
    7
420
    0
370
   35
100
AcDbVertex
100
AcDb2dVertex
 10
82.31088675979149
 20
-34.31399508839088
 30
0
  0
VERTEX
  5
1B7
100
AcDbEntity
  8
s005-#def-solid-edge
  6
CONTINUOUS
 62
    7
420
    0
370
   35
100
AcDbVertex
100
AcDb2dVertex
 10
81.29862630829422
 20
-34.50707726054922
 30
0
  0
VERTEX
  5
1B8
100
AcDbEntity
  8
s005-#def-solid-edge
  6
CONTINUOUS
 62
    7
420
    0
370
   35
100
AcDbVertex
100
AcDb2dVertex
 10
80.28636585699917
 20
-34.31399508847092
 30
0
  0
VERTEX
  5
1B9
100
AcDbEntity
  8
s005-#def-solid-edge
  6
CONTINUOUS
 62
    7
420
    0
370
   35
100
AcDbVertex
100
AcDb2dVertex
 10
79.35408266003122
 20
-33.70162090881225
 30
0
  0
VERTEX
  5
1BA
100
AcDbEntity
  8
s005-#def-solid-edge
  6
CONTINUOUS
 62
    7
420
    0
370
   35
100
AcDbVertex
100
AcDb2dVertex
 10
78.74170848037255
 20
-32.76933771184439
 30
0
  0
VERTEX
  5
1BB
100
AcDbEntity
  8
s005-#def-solid-edge
  6
CONTINUOUS
 62
    7
420
    0
370
   35
100
AcDbVertex
100
AcDb2dVertex
 10
78.54862630829425
 20
-31.75707726054922
 30
0
  0
VERTEX
  5
1BC
100
AcDbEntity
  8
s005-#def-solid-edge
  6
CONTINUOUS
 62
    7
420
    0
370
   35
100
AcDbVertex
100
AcDb2dVertex
 10
78.74170848037252
 20
-30.74481680925408
 30
0
  0
VERTEX
  5
1BD
100
AcDbEntity
  8
s005-#def-solid-edge
  6
CONTINUOUS
 62
    7
420
    0
370
   35
100
AcDbVertex
100
AcDb2dVertex
 10
79.35408266003128
 20
-29.81253361228623
 30
0
  0
VERTEX
  5
1BE
100
AcDbEntity
  8
s005-#def-solid-edge
  6
CONTINUOUS
 62
    7
420
    0
370
   35
100
AcDbVertex
100
AcDb2dVertex
 10
80.28636585699911
 20
-29.20015943262753
 30
0
  0
VERTEX
  5
1BF
100
AcDbEntity
  8
s005-#def-solid-edge
  6
CONTINUOUS
 62
    7
420
    0
370
   35
100
AcDbVertex
100
AcDb2dVertex
 10
81.29862630829419
 20
-29.00707726054924
 30
0
  0
VERTEX
  5
1C0
100
AcDbEntity
  8
s005-#def-solid-edge
  6
CONTINUOUS
 62
    7
420
    0
370
   35
100
AcDbVertex
100
AcDb2dVertex
 10
82.31088675958938
 20
-29.20015943262754
 30
0
  0
SEQEND
  5
1C1
100
AcDbEntity
  8
s005-#def-solid-edge
  6
CONTINUOUS
 62
    7
420
    0
370
   35
  0
POLYLINE
  5
1C2
100
AcDbEntity
  8
s005-#def-solid-edge
  6
CONTINUOUS
 62
    7
420
    0
370
   35
100
AcDb2dPolyline
 10
0
 20
0
 30
0
 70
    0
  0
VERTEX
  5
1C3
100
AcDbEntity
  8
s005-#def-solid-edge
  6
CONTINUOUS
 62
    7
420
    0
370
   35
100
AcDbVertex
100
AcDb2dVertex
 10
-341.7013736917057
 20
-29.00707726054924
 30
0
  0
VERTEX
  5
1C4
100
AcDbEntity
  8
s005-#def-solid-edge
  6
CONTINUOUS
 62
    7
420
    0
370
   35
100
AcDbVertex
100
AcDb2dVertex
 10
-340.6891132404106
 20
-29.20015943262754
 30
0
  0
VERTEX
  5
1C5
100
AcDbEntity
  8
s005-#def-solid-edge
  6
CONTINUOUS
 62
    7
420
    0
370
   35
100
AcDbVertex
100
AcDb2dVertex
 10
-339.7568300434428
 20
-29.81253361228624
 30
0
  0
VERTEX
  5
1C6
100
AcDbEntity
  8
s005-#def-solid-edge
  6
CONTINUOUS
 62
    7
420
    0
370
   35
100
AcDbVertex
100
AcDb2dVertex
 10
-339.1444558637841
 20
-30.74481680925409
 30
0
  0
VERTEX
  5
1C7
100
AcDbEntity
  8
s005-#def-solid-edge
  6
CONTINUOUS
 62
    7
420
    0
370
   35
100
AcDbVertex
100
AcDb2dVertex
 10
-338.9513736917058
 20
-31.75707726054922
 30
0
  0
VERTEX
  5
1C8
100
AcDbEntity
  8
s005-#def-solid-edge
  6
CONTINUOUS
 62
    7
420
    0
370
   35
100
AcDbVertex
100
AcDb2dVertex
 10
-339.1444558637841
 20
-32.76933771184439
 30
0
  0
VERTEX
  5
1C9
100
AcDbEntity
  8
s005-#def-solid-edge
  6
CONTINUOUS
 62
    7
420
    0
370
   35
100
AcDbVertex
100
AcDb2dVertex
 10
-339.7568300434427
 20
-33.70162090881225
 30
0
  0
VERTEX
  5
1CA
100
AcDbEntity
  8
s005-#def-solid-edge
  6
CONTINUOUS
 62
    7
420
    0
370
   35
100
AcDbVertex
100
AcDb2dVertex
 10
-340.6891132404106
 20
-34.31399508847092
 30
0
  0
VERTEX
  5
1CB
100
AcDbEntity
  8
s005-#def-solid-edge
  6
CONTINUOUS
 62
    7
420
    0
370
   35
100
AcDbVertex
100
AcDb2dVertex
 10
-341.7013736917058
 20
-34.50707726054922
 30
0
  0
VERTEX
  5
1CC
100
AcDbEntity
  8
s005-#def-solid-edge
  6
CONTINUOUS
 62
    7
420
    0
370
   35
100
AcDbVertex
100
AcDb2dVertex
 10
-342.7136341430009
 20
-34.31399508847092
 30
0
  0
VERTEX
  5
1CD
100
AcDbEntity
  8
s005-#def-solid-edge
  6
CONTINUOUS
 62
    7
420
    0
370
   35
100
AcDbVertex
100
AcDb2dVertex
 10
-343.6459173399688
 20
-33.70162090881225
 30
0
  0
VERTEX
  5
1CE
100
AcDbEntity
  8
s005-#def-solid-edge
  6
CONTINUOUS
 62
    7
420
    0
370
   35
100
AcDbVertex
100
AcDb2dVertex
 10
-344.2582915196274
 20
-32.76933771184437
 30
0
  0
VERTEX
  5
1CF
100
AcDbEntity
  8
s005-#def-solid-edge
  6
CONTINUOUS
 62
    7
420
    0
370
   35
100
AcDbVertex
100
AcDb2dVertex
 10
-344.4513736917058
 20
-31.75707726054924
 30
0
  0
VERTEX
  5
1D0
100
AcDbEntity
  8
s005-#def-solid-edge
  6
CONTINUOUS
 62
    7
420
    0
370
   35
100
AcDbVertex
100
AcDb2dVertex
 10
-344.2582915196274
 20
-30.74481680925409
 30
0
  0
VERTEX
  5
1D1
100
AcDbEntity
  8
s005-#def-solid-edge
  6
CONTINUOUS
 62
    7
420
    0
370
   35
100
AcDbVertex
100
AcDb2dVertex
 10
-343.6459173399688
 20
-29.81253361228623
 30
0
  0
VERTEX
  5
1D2
100
AcDbEntity
  8
s005-#def-solid-edge
  6
CONTINUOUS
 62
    7
420
    0
370
   35
100
AcDbVertex
100
AcDb2dVertex
 10
-342.7136341432031
 20
-29.20015943270759
 30
0
  0
VERTEX
  5
1D3
100
AcDbEntity
  8
s005-#def-solid-edge
  6
CONTINUOUS
 62
    7
420
    0
370
   35
100
AcDbVertex
100
AcDb2dVertex
 10
-341.7013736917057
 20
-29.00707726054924
 30
0
  0
SEQEND
  5
1D4
100
AcDbEntity
  8
s005-#def-solid-edge
  6
CONTINUOUS
 62
    7
420
    0
370
   35
  0
POLYLINE
  5
1D5
100
AcDbEntity
  8
s005-#def-solid-edge
  6
CONTINUOUS
 62
    7
420
    0
370
   35
100
AcDb2dPolyline
 10
0
 20
0
 30
0
 70
    0
  0
VERTEX
  5
1D6
100
AcDbEntity
  8
s005-#def-solid-edge
  6
CONTINUOUS
 62
    7
420
    0
370
   35
100
AcDbVertex
100
AcDb2dVertex
 10
-3.714819939936291
 20
-94.29728781882584
 30
0
  0
VERTEX
  5
1D7
100
AcDbEntity
  8
s005-#def-solid-edge
  6
CONTINUOUS
 62
    7
420
    0
370
   35
100
AcDbVertex
100
AcDb2dVertex
 10
-3.652468329769064
 20
-94.26816297612871
 30
0
  0
VERTEX
  5
1D8
100
AcDbEntity
  8
s005-#def-solid-edge
  6
CONTINUOUS
 62
    7
420
    0
370
   35
100
AcDbVertex
100
AcDb2dVertex
 10
-3.584538083299037
 20
-94.25714202484943
 30
0
  0
VERTEX
  5
1D9
100
AcDbEntity
  8
s005-#def-solid-edge
  6
CONTINUOUS
 62
    7
420
    0
370
   35
100
AcDbVertex
100
AcDb2dVertex
 10
-3.518635173922092
 20
-94.26443673388205
 30
0
  0
VERTEX
  5
1DA
100
AcDbEntity
  8
s005-#def-solid-edge
  6
CONTINUOUS
 62
    7
420
    0
370
   35
100
AcDbVertex
100
AcDb2dVertex
 10
-3.456967779647016
 20
-94.28879938413932
 30
0
  0
VERTEX
  5
1DB
100
AcDbEntity
  8
s005-#def-solid-edge
  6
CONTINUOUS
 62
    7
420
    0
370
   35
100
AcDbVertex
100
AcDb2dVertex
 10
-3.402071224939377
 20
-94.33030056525261
 30
0
  0
VERTEX
  5
1DC
100
AcDbEntity
  8
s005-#def-solid-edge
  6
CONTINUOUS
 62
    7
420
    0
370
   35
100
AcDbVertex
100
AcDb2dVertex
 10
-3.360570043825987
 20
-94.38519711996032
 30
0
  0
VERTEX
  5
1DD
100
AcDbEntity
  8
s005-#def-solid-edge
  6
CONTINUOUS
 62
    7
420
    0
370
   35
100
AcDbVertex
100
AcDb2dVertex
 10
-3.336207393568742
 20
-94.4468645142353
 30
0
  0
VERTEX
  5
1DE
100
AcDbEntity
  8
s005-#def-solid-edge
  6
CONTINUOUS
 62
    7
420
    0
370
   35
100
AcDbVertex
100
AcDb2dVertex
 10
-3.328912684536135
 20
-94.51276742361235
 30
0
  0
VERTEX
  5
1DF
100
AcDbEntity
  8
s005-#def-solid-edge
  6
CONTINUOUS
 62
    7
420
    0
370
   35
100
AcDbVertex
100
AcDb2dVertex
 10
-3.339933635815413
 20
-94.58069767008234
 30
0
  0
VERTEX
  5
1E0
100
AcDbEntity
  8
s005-#def-solid-edge
  6
CONTINUOUS
 62
    7
420
    0
370
   35
100
AcDbVertex
100
AcDb2dVertex
 10
-3.369058478512528
 20
-94.64304928024954
 30
0
  0
VERTEX
  5
1E1
100
AcDbEntity
  8
s005-#def-solid-edge
  6
CONTINUOUS
 62
    7
420
    0
370
   35
100
AcDbVertex
100
AcDb2dVertex
 10
-3.41218125356923
 20
-94.69341625867422
 30
0
  0
VERTEX
  5
1E2
100
AcDbEntity
  8
s005-#def-solid-edge
  6
CONTINUOUS
 62
    7
420
    0
370
   35
100
AcDbVertex
100
AcDb2dVertex
 10
-3.481931325415644
 20
-94.77025009245219
 30
0
  0
VERTEX
  5
1E3
100
AcDbEntity
  8
s005-#def-solid-edge
  6
CONTINUOUS
 62
    7
420
    0
370
   35
100
AcDbVertex
100
AcDb2dVertex
 10
-3.535283384823529
 20
-94.86197010969225
 30
0
  0
VERTEX
  5
1E4
100
AcDbEntity
  8
s005-#def-solid-edge
  6
CONTINUOUS
 62
    7
420
    0
370
   35
100
AcDbVertex
100
AcDb2dVertex
 10
-3.568079409700331
 20
-94.96288306504424
 30
0
  0
VERTEX
  5
1E5
100
AcDbEntity
  8
s005-#def-solid-edge
  6
CONTINUOUS
 62
    7
420
    0
370
   35
100
AcDbVertex
100
AcDb2dVertex
 10
-3.578847920235944
 20
-95.06609425492418
 30
0
  0
VERTEX
  5
1E6
100
AcDbEntity
  8
s005-#def-solid-edge
  6
CONTINUOUS
 62
    7
420
    0
370
   35
100
AcDbVertex
100
AcDb2dVertex
 10
-3.578847920235944
 20
-96.94806026617429
 30
0
  0
VERTEX
  5
1E7
100
AcDbEntity
  8
s005-#def-solid-edge
  6
CONTINUOUS
 62
    7
420
    0
370
   35
100
AcDbVertex
100
AcDb2dVertex
 10
-3.568079409700218
 20
-97.05127145605485
 30
0
  0
VERTEX
  5
1E8
100
AcDbEntity
  8
s005-#def-solid-edge
  6
CONTINUOUS
 62
    7
420
    0
370
   35
100
AcDbVertex
100
AcDb2dVertex
 10
-3.535283384823586
 20
-97.15218441140622
 30
0
  0
VERTEX
  5
1E9
100
AcDbEntity
  8
s005-#def-solid-edge
  6
CONTINUOUS
 62
    7
420
    0
370
   35
100
AcDbVertex
100
AcDb2dVertex
 10
-3.481931325415644
 20
-97.24390442864629
 30
0
  0
VERTEX
  5
1EA
100
AcDbEntity
  8
s005-#def-solid-edge
  6
CONTINUOUS
 62
    7
420
    0
370
   35
100
AcDbVertex
100
AcDb2dVertex
 10
-3.412181253569258
 20
-97.32073826242424
 30
0
  0
VERTEX
  5
1EB
100
AcDbEntity
  8
s005-#def-solid-edge
  6
CONTINUOUS
 62
    7
420
    0
370
   35
100
AcDbVertex
100
AcDb2dVertex
 10
-3.369058478512514
 20
-97.37110524084892
 30
0
  0
VERTEX
  5
1EC
100
AcDbEntity
  8
s005-#def-solid-edge
  6
CONTINUOUS
 62
    7
420
    0
370
   35
100
AcDbVertex
100
AcDb2dVertex
 10
-3.33993363581537
 20
-97.43345685101615
 30
0
  0
VERTEX
  5
1ED
100
AcDbEntity
  8
s005-#def-solid-edge
  6
CONTINUOUS
 62
    7
420
    0
370
   35
100
AcDbVertex
100
AcDb2dVertex
 10
-3.328912684536121
 20
-97.50138709748613
 30
0
  0
VERTEX
  5
1EE
100
AcDbEntity
  8
s005-#def-solid-edge
  6
CONTINUOUS
 62
    7
420
    0
370
   35
100
AcDbVertex
100
AcDb2dVertex
 10
-3.336207393568728
 20
-97.56729000686316
 30
0
  0
VERTEX
  5
1EF
100
AcDbEntity
  8
s005-#def-solid-edge
  6
CONTINUOUS
 62
    7
420
    0
370
   35
100
AcDbVertex
100
AcDb2dVertex
 10
-3.360570043826016
 20
-97.62895740113817
 30
0
  0
VERTEX
  5
1F0
100
AcDbEntity
  8
s005-#def-solid-edge
  6
CONTINUOUS
 62
    7
420
    0
370
   35
100
AcDbVertex
100
AcDb2dVertex
 10
-3.402071224939391
 20
-97.6838539558459
 30
0
  0
VERTEX
  5
1F1
100
AcDbEntity
  8
s005-#def-solid-edge
  6
CONTINUOUS
 62
    7
420
    0
370
   35
100
AcDbVertex
100
AcDb2dVertex
 10
-3.456967779647016
 20
-97.72535513695917
 30
0
  0
VERTEX
  5
1F2
100
AcDbEntity
  8
s005-#def-solid-edge
  6
CONTINUOUS
 62
    7
420
    0
370
   35
100
AcDbVertex
100
AcDb2dVertex
 10
-3.518635173921993
 20
-97.74971778721645
 30
0
  0
VERTEX
  5
1F3
100
AcDbEntity
  8
s005-#def-solid-edge
  6
CONTINUOUS
 62
    7
420
    0
370
   35
100
AcDbVertex
100
AcDb2dVertex
 10
-3.584538083299037
 20
-97.75701249624906
 30
0
  0
VERTEX
  5
1F4
100
AcDbEntity
  8
s005-#def-solid-edge
  6
CONTINUOUS
 62
    7
420
    0
370
   35
100
AcDbVertex
100
AcDb2dVertex
 10
-3.652468329769079
 20
-97.7459915449698
 30
0
  0
VERTEX
  5
1F5
100
AcDbEntity
  8
s005-#def-solid-edge
  6
CONTINUOUS
 62
    7
420
    0
370
   35
100
AcDbVertex
100
AcDb2dVertex
 10
-3.714819939936291
 20
-97.71686670227265
 30
0
  0
VERTEX
  5
1F6
100
AcDbEntity
  8
s005-#def-solid-edge
  6
CONTINUOUS
 62
    7
420
    0
370
   35
100
AcDbVertex
100
AcDb2dVertex
 10
-3.765186918360953
 20
-97.6737439272159
 30
0
  0
VERTEX
  5
1F7
100
AcDbEntity
  8
s005-#def-solid-edge
  6
CONTINUOUS
 62
    7
420
    0
370
   35
100
AcDbVertex
100
AcDb2dVertex
 10
-3.842020752138893
 20
-97.60399385536957
 30
0
  0
VERTEX
  5
1F8
100
AcDbEntity
  8
s005-#def-solid-edge
  6
CONTINUOUS
 62
    7
420
    0
370
   35
100
AcDbVertex
100
AcDb2dVertex
 10
-3.933740769378943
 20
-97.55064179596162
 30
0
  0
VERTEX
  5
1F9
100
AcDbEntity
  8
s005-#def-solid-edge
  6
CONTINUOUS
 62
    7
420
    0
370
   35
100
AcDbVertex
100
AcDb2dVertex
 10
-4.034653724730916
 20
-97.51784577108484
 30
0
  0
VERTEX
  5
1FA
100
AcDbEntity
  8
s005-#def-solid-edge
  6
CONTINUOUS
 62
    7
420
    0
370
   35
100
AcDbVertex
100
AcDb2dVertex
 10
-4.137864914610901
 20
-97.50707726054924
 30
0
  0
VERTEX
  5
1FB
100
AcDbEntity
  8
s005-#def-solid-edge
  6
CONTINUOUS
 62
    7
420
    0
370
   35
100
AcDbVertex
100
AcDb2dVertex
 10
-23.01983092586094
 20
-97.50707726054924
 30
0
  0
VERTEX
  5
1FC
100
AcDbEntity
  8
s005-#def-solid-edge
  6
CONTINUOUS
 62
    7
420
    0
370
   35
100
AcDbVertex
100
AcDb2dVertex
 10
-23.12304211574094
 20
-97.51784577108484
 30
0
  0
VERTEX
  5
1FD
100
AcDbEntity
  8
s005-#def-solid-edge
  6
CONTINUOUS
 62
    7
420
    0
370
   35
100
AcDbVertex
100
AcDb2dVertex
 10
-23.22395507109289
 20
-97.5506417959616
 30
0
  0
VERTEX
  5
1FE
100
AcDbEntity
  8
s005-#def-solid-edge
  6
CONTINUOUS
 62
    7
420
    0
370
   35
100
AcDbVertex
100
AcDb2dVertex
 10
-23.31567508833297
 20
-97.60399385536957
 30
0
  0
VERTEX
  5
1FF
100
AcDbEntity
  8
s005-#def-solid-edge
  6
CONTINUOUS
 62
    7
420
    0
370
   35
100
AcDbVertex
100
AcDb2dVertex
 10
-23.39250892211095
 20
-97.6737439272159
 30
0
  0
VERTEX
  5
200
100
AcDbEntity
  8
s005-#def-solid-edge
  6
CONTINUOUS
 62
    7
420
    0
370
   35
100
AcDbVertex
100
AcDb2dVertex
 10
-23.44287590053565
 20
-97.71686670227263
 30
0
  0
VERTEX
  5
201
100
AcDbEntity
  8
s005-#def-solid-edge
  6
CONTINUOUS
 62
    7
420
    0
370
   35
100
AcDbVertex
100
AcDb2dVertex
 10
-23.50522751070289
 20
-97.74599154496977
 30
0
  0
VERTEX
  5
202
100
AcDbEntity
  8
s005-#def-solid-edge
  6
CONTINUOUS
 62
    7
420
    0
370
   35
100
AcDbVertex
100
AcDb2dVertex
 10
-23.57315775717285
 20
-97.75701249624903
 30
0
  0
VERTEX
  5
203
100
AcDbEntity
  8
s005-#def-solid-edge
  6
CONTINUOUS
 62
    7
420
    0
370
   35
100
AcDbVertex
100
AcDb2dVertex
 10
-23.63906066654984
 20
-97.74971778721644
 30
0
  0
VERTEX
  5
204
100
AcDbEntity
  8
s005-#def-solid-edge
  6
CONTINUOUS
 62
    7
420
    0
370
   35
100
AcDbVertex
100
AcDb2dVertex
 10
-23.70072806082491
 20
-97.72535513695917
 30
0
  0
VERTEX
  5
205
100
AcDbEntity
  8
s005-#def-solid-edge
  6
CONTINUOUS
 62
    7
420
    0
370
   35
100
AcDbVertex
100
AcDb2dVertex
 10
-23.75562461553255
 20
-97.68385395584586
 30
0
  0
VERTEX
  5
206
100
AcDbEntity
  8
s005-#def-solid-edge
  6
CONTINUOUS
 62
    7
420
    0
370
   35
100
AcDbVertex
100
AcDb2dVertex
 10
-23.79712579664584
 20
-97.62895740113821
 30
0
  0
VERTEX
  5
207
100
AcDbEntity
  8
s005-#def-solid-edge
  6
CONTINUOUS
 62
    7
420
    0
370
   35
100
AcDbVertex
100
AcDb2dVertex
 10
-23.82148844690315
 20
-97.56729000686316
 30
0
  0
VERTEX
  5
208
100
AcDbEntity
  8
s005-#def-solid-edge
  6
CONTINUOUS
 62
    7
420
    0
370
   35
100
AcDbVertex
100
AcDb2dVertex
 10
-23.8287831559354
 20
-97.50138709747085
 30
0
  0
VERTEX
  5
209
100
AcDbEntity
  8
s005-#def-solid-edge
  6
CONTINUOUS
 62
    7
420
    0
370
   35
100
AcDbVertex
100
AcDb2dVertex
 10
-23.81776220465649
 20
-97.43345685101615
 30
0
  0
VERTEX
  5
20A
100
AcDbEntity
  8
s005-#def-solid-edge
  6
CONTINUOUS
 62
    7
420
    0
370
   35
100
AcDbVertex
100
AcDb2dVertex
 10
-23.78863736195935
 20
-97.37110524084899
 30
0
  0
VERTEX
  5
20B
100
AcDbEntity
  8
s005-#def-solid-edge
  6
CONTINUOUS
 62
    7
420
    0
370
   35
100
AcDbVertex
100
AcDb2dVertex
 10
-23.7455145869026
 20
-97.32073826242426
 30
0
  0
VERTEX
  5
20C
100
AcDbEntity
  8
s005-#def-solid-edge
  6
CONTINUOUS
 62
    7
420
    0
370
   35
100
AcDbVertex
100
AcDb2dVertex
 10
-23.6757645150559
 20
-97.24390442864581
 30
0
  0
VERTEX
  5
20D
100
AcDbEntity
  8
s005-#def-solid-edge
  6
CONTINUOUS
 62
    7
420
    0
370
   35
100
AcDbVertex
100
AcDb2dVertex
 10
-23.6224124556483
 20
-97.15218441140621
 30
0
  0
VERTEX
  5
20E
100
AcDbEntity
  8
s005-#def-solid-edge
  6
CONTINUOUS
 62
    7
420
    0
370
   35
100
AcDbVertex
100
AcDb2dVertex
 10
-23.58961643077149
 20
-97.05127145605425
 30
0
  0
VERTEX
  5
20F
100
AcDbEntity
  8
s005-#def-solid-edge
  6
CONTINUOUS
 62
    7
420
    0
370
   35
100
AcDbVertex
100
AcDb2dVertex
 10
-23.57884792023593
 20
-96.94806026617428
 30
0
  0
VERTEX
  5
210
100
AcDbEntity
  8
s005-#def-solid-edge
  6
CONTINUOUS
 62
    7
420
    0
370
   35
100
AcDbVertex
100
AcDb2dVertex
 10
-23.57884792023594
 20
-95.06609425492418
 30
0
  0
VERTEX
  5
211
100
AcDbEntity
  8
s005-#def-solid-edge
  6
CONTINUOUS
 62
    7
420
    0
370
   35
100
AcDbVertex
100
AcDb2dVertex
 10
-23.58961643077166
 20
-94.96288306504363
 30
0
  0
VERTEX
  5
212
100
AcDbEntity
  8
s005-#def-solid-edge
  6
CONTINUOUS
 62
    7
420
    0
370
   35
100
AcDbVertex
100
AcDb2dVertex
 10
-23.62241245564832
 20
-94.86197010969225
 30
0
  0
VERTEX
  5
213
100
AcDbEntity
  8
s005-#def-solid-edge
  6
CONTINUOUS
 62
    7
420
    0
370
   35
100
AcDbVertex
100
AcDb2dVertex
 10
-23.67576451505627
 20
-94.77025009245219
 30
0
  0
VERTEX
  5
214
100
AcDbEntity
  8
s005-#def-solid-edge
  6
CONTINUOUS
 62
    7
420
    0
370
   35
100
AcDbVertex
100
AcDb2dVertex
 10
-23.7455145869026
 20
-94.69341625867423
 30
0
  0
VERTEX
  5
215
100
AcDbEntity
  8
s005-#def-solid-edge
  6
CONTINUOUS
 62
    7
420
    0
370
   35
100
AcDbVertex
100
AcDb2dVertex
 10
-23.78863736196764
 20
-94.64304928023672
 30
0
  0
VERTEX
  5
216
100
AcDbEntity
  8
s005-#def-solid-edge
  6
CONTINUOUS
 62
    7
420
    0
370
   35
100
AcDbVertex
100
AcDb2dVertex
 10
-23.81776220465647
 20
-94.58069767008234
 30
0
  0
VERTEX
  5
217
100
AcDbEntity
  8
s005-#def-solid-edge
  6
CONTINUOUS
 62
    7
420
    0
370
   35
100
AcDbVertex
100
AcDb2dVertex
 10
-23.82878315593578
 20
-94.5127674236124
 30
0
  0
VERTEX
  5
218
100
AcDbEntity
  8
s005-#def-solid-edge
  6
CONTINUOUS
 62
    7
420
    0
370
   35
100
AcDbVertex
100
AcDb2dVertex
 10
-23.82148844690317
 20
-94.4468645142353
 30
0
  0
VERTEX
  5
219
100
AcDbEntity
  8
s005-#def-solid-edge
  6
CONTINUOUS
 62
    7
420
    0
370
   35
100
AcDbVertex
100
AcDb2dVertex
 10
-23.79712579663841
 20
-94.38519711994697
 30
0
  0
VERTEX
  5
21A
100
AcDbEntity
  8
s005-#def-solid-edge
  6
CONTINUOUS
 62
    7
420
    0
370
   35
100
AcDbVertex
100
AcDb2dVertex
 10
-23.7556246155326
 20
-94.33030056525259
 30
0
  0
VERTEX
  5
21B
100
AcDbEntity
  8
s005-#def-solid-edge
  6
CONTINUOUS
 62
    7
420
    0
370
   35
100
AcDbVertex
100
AcDb2dVertex
 10
-23.70072806082491
 20
-94.28879938413934
 30
0
  0
VERTEX
  5
21C
100
AcDbEntity
  8
s005-#def-solid-edge
  6
CONTINUOUS
 62
    7
420
    0
370
   35
100
AcDbVertex
100
AcDb2dVertex
 10
-23.63906066654988
 20
-94.26443673388202
 30
0
  0
VERTEX
  5
21D
100
AcDbEntity
  8
s005-#def-solid-edge
  6
CONTINUOUS
 62
    7
420
    0
370
   35
100
AcDbVertex
100
AcDb2dVertex
 10
-23.57315775717284
 20
-94.25714202484943
 30
0
  0
VERTEX
  5
21E
100
AcDbEntity
  8
s005-#def-solid-edge
  6
CONTINUOUS
 62
    7
420
    0
370
   35
100
AcDbVertex
100
AcDb2dVertex
 10
-23.50522751070275
 20
-94.26816297612869
 30
0
  0
VERTEX
  5
21F
100
AcDbEntity
  8
s005-#def-solid-edge
  6
CONTINUOUS
 62
    7
420
    0
370
   35
100
AcDbVertex
100
AcDb2dVertex
 10
-23.44287590053568
 20
-94.29728781882578
 30
0
  0
VERTEX
  5
220
100
AcDbEntity
  8
s005-#def-solid-edge
  6
CONTINUOUS
 62
    7
420
    0
370
   35
100
AcDbVertex
100
AcDb2dVertex
 10
-23.39250892211092
 20
-94.34041059388257
 30
0
  0
VERTEX
  5
221
100
AcDbEntity
  8
s005-#def-solid-edge
  6
CONTINUOUS
 62
    7
420
    0
370
   35
100
AcDbVertex
100
AcDb2dVertex
 10
-23.31567508833294
 20
-94.41016066572891
 30
0
  0
VERTEX
  5
222
100
AcDbEntity
  8
s005-#def-solid-edge
  6
CONTINUOUS
 62
    7
420
    0
370
   35
100
AcDbVertex
100
AcDb2dVertex
 10
-23.2239550710929
 20
-94.46351272513687
 30
0
  0
VERTEX
  5
223
100
AcDbEntity
  8
s005-#def-solid-edge
  6
CONTINUOUS
 62
    7
420
    0
370
   35
100
AcDbVertex
100
AcDb2dVertex
 10
-23.1230421157409
 20
-94.49630875001365
 30
0
  0
VERTEX
  5
224
100
AcDbEntity
  8
s005-#def-solid-edge
  6
CONTINUOUS
 62
    7
420
    0
370
   35
100
AcDbVertex
100
AcDb2dVertex
 10
-23.01983092586099
 20
-94.50707726054924
 30
0
  0
VERTEX
  5
225
100
AcDbEntity
  8
s005-#def-solid-edge
  6
CONTINUOUS
 62
    7
420
    0
370
   35
100
AcDbVertex
100
AcDb2dVertex
 10
-4.137864914610915
 20
-94.50707726054924
 30
0
  0
VERTEX
  5
226
100
AcDbEntity
  8
s005-#def-solid-edge
  6
CONTINUOUS
 62
    7
420
    0
370
   35
100
AcDbVertex
100
AcDb2dVertex
 10
-4.034653724730887
 20
-94.49630875001364
 30
0
  0
VERTEX
  5
227
100
AcDbEntity
  8
s005-#def-solid-edge
  6
CONTINUOUS
 62
    7
420
    0
370
   35
100
AcDbVertex
100
AcDb2dVertex
 10
-3.933740769378943
 20
-94.46351272513688
 30
0
  0
VERTEX
  5
228
100
AcDbEntity
  8
s005-#def-solid-edge
  6
CONTINUOUS
 62
    7
420
    0
370
   35
100
AcDbVertex
100
AcDb2dVertex
 10
-3.842020752138879
 20
-94.41016066572891
 30
0
  0
VERTEX
  5
229
100
AcDbEntity
  8
s005-#def-solid-edge
  6
CONTINUOUS
 62
    7
420
    0
370
   35
100
AcDbVertex
100
AcDb2dVertex
 10
-3.765186918360939
 20
-94.34041059388259
 30
0
  0
VERTEX
  5
22A
100
AcDbEntity
  8
s005-#def-solid-edge
  6
CONTINUOUS
 62
    7
420
    0
370
   35
100
AcDbVertex
100
AcDb2dVertex
 10
-3.714819939936291
 20
-94.29728781882584
 30
0
  0
SEQEND
  5
22B
100
AcDbEntity
  8
s005-#def-solid-edge
  6
CONTINUOUS
 62
    7
420
    0
370
   35
  0
POLYLINE
  5
22C
100
AcDbEntity
  8
s005-#def-solid-edge
  6
CONTINUOUS
 62
    7
420
    0
370
   35
100
AcDb2dPolyline
 10
0
 20
0
 30
0
 70
    0
  0
VERTEX
  5
22D
100
AcDbEntity
  8
s005-#def-solid-edge
  6
CONTINUOUS
 62
    7
420
    0
370
   35
100
AcDbVertex
100
AcDb2dVertex
 10
43.019216211946
 20
-94.25714202484943
 30
0
  0
VERTEX
  5
22E
100
AcDbEntity
  8
s005-#def-solid-edge
  6
CONTINUOUS
 62
    7
420
    0
370
   35
100
AcDbVertex
100
AcDb2dVertex
 10
43.08511912132295
 20
-94.26443673388205
 30
0
  0
VERTEX
  5
22F
100
AcDbEntity
  8
s005-#def-solid-edge
  6
CONTINUOUS
 62
    7
420
    0
370
   35
100
AcDbVertex
100
AcDb2dVertex
 10
43.14678651561132
 20
-94.28879938414678
 30
0
  0
VERTEX
  5
230
100
AcDbEntity
  8
s005-#def-solid-edge
  6
CONTINUOUS
 62
    7
420
    0
370
   35
100
AcDbVertex
100
AcDb2dVertex
 10
43.20168307030568
 20
-94.33030056525261
 30
0
  0
VERTEX
  5
231
100
AcDbEntity
  8
s005-#def-solid-edge
  6
CONTINUOUS
 62
    7
420
    0
370
   35
100
AcDbVertex
100
AcDb2dVertex
 10
43.24318425141905
 20
-94.38519711996032
 30
0
  0
VERTEX
  5
232
100
AcDbEntity
  8
s005-#def-solid-edge
  6
CONTINUOUS
 62
    7
420
    0
370
   35
100
AcDbVertex
100
AcDb2dVertex
 10
43.26754690167624
 20
-94.4468645142353
 30
0
  0
VERTEX
  5
233
100
AcDbEntity
  8
s005-#def-solid-edge
  6
CONTINUOUS
 62
    7
420
    0
370
   35
100
AcDbVertex
100
AcDb2dVertex
 10
43.27484161070885
 20
-94.51276742361235
 30
0
  0
VERTEX
  5
234
100
AcDbEntity
  8
s005-#def-solid-edge
  6
CONTINUOUS
 62
    7
420
    0
370
   35
100
AcDbVertex
100
AcDb2dVertex
 10
43.2638206594296
 20
-94.58069767008234
 30
0
  0
VERTEX
  5
235
100
AcDbEntity
  8
s005-#def-solid-edge
  6
CONTINUOUS
 62
    7
420
    0
370
   35
100
AcDbVertex
100
AcDb2dVertex
 10
43.23469581673251
 20
-94.64304928024949
 30
0
  0
VERTEX
  5
236
100
AcDbEntity
  8
s005-#def-solid-edge
  6
CONTINUOUS
 62
    7
420
    0
370
   35
100
AcDbVertex
100
AcDb2dVertex
 10
43.1915730416757
 20
-94.69341625867422
 30
0
  0
VERTEX
  5
237
100
AcDbEntity
  8
s005-#def-solid-edge
  6
CONTINUOUS
 62
    7
420
    0
370
   35
100
AcDbVertex
100
AcDb2dVertex
 10
43.121822969829
 20
-94.77025009245268
 30
0
  0
VERTEX
  5
238
100
AcDbEntity
  8
s005-#def-solid-edge
  6
CONTINUOUS
 62
    7
420
    0
370
   35
100
AcDbVertex
100
AcDb2dVertex
 10
43.06847091042141
 20
-94.86197010969225
 30
0
  0
VERTEX
  5
239
100
AcDbEntity
  8
s005-#def-solid-edge
  6
CONTINUOUS
 62
    7
420
    0
370
   35
100
AcDbVertex
100
AcDb2dVertex
 10
43.03567488554467
 20
-94.96288306504422
 30
0
  0
VERTEX
  5
23A
100
AcDbEntity
  8
s005-#def-solid-edge
  6
CONTINUOUS
 62
    7
420
    0
370
   35
100
AcDbVertex
100
AcDb2dVertex
 10
43.02490637500904
 20
-95.06609425492418
 30
0
  0
VERTEX
  5
23B
100
AcDbEntity
  8
s005-#def-solid-edge
  6
CONTINUOUS
 62
    7
420
    0
370
   35
100
AcDbVertex
100
AcDb2dVertex
 10
43.02490637500904
 20
-96.94806026617429
 30
0
  0
VERTEX
  5
23C
100
AcDbEntity
  8
s005-#def-solid-edge
  6
CONTINUOUS
 62
    7
420
    0
370
   35
100
AcDbVertex
100
AcDb2dVertex
 10
43.03567488554464
 20
-97.05127145605424
 30
0
  0
VERTEX
  5
23D
100
AcDbEntity
  8
s005-#def-solid-edge
  6
CONTINUOUS
 62
    7
420
    0
370
   35
100
AcDbVertex
100
AcDb2dVertex
 10
43.06847091042138
 20
-97.15218441140622
 30
0
  0
VERTEX
  5
23E
100
AcDbEntity
  8
s005-#def-solid-edge
  6
CONTINUOUS
 62
    7
420
    0
370
   35
100
AcDbVertex
100
AcDb2dVertex
 10
43.12182296982931
 20
-97.24390442864626
 30
0
  0
VERTEX
  5
23F
100
AcDbEntity
  8
s005-#def-solid-edge
  6
CONTINUOUS
 62
    7
420
    0
370
   35
100
AcDbVertex
100
AcDb2dVertex
 10
43.19157304167567
 20
-97.32073826242424
 30
0
  0
VERTEX
  5
240
100
AcDbEntity
  8
s005-#def-solid-edge
  6
CONTINUOUS
 62
    7
420
    0
370
   35
100
AcDbVertex
100
AcDb2dVertex
 10
43.23469581673245
 20
-97.37110524084892
 30
0
  0
VERTEX
  5
241
100
AcDbEntity
  8
s005-#def-solid-edge
  6
CONTINUOUS
 62
    7
420
    0
370
   35
100
AcDbVertex
100
AcDb2dVertex
 10
43.26382065942954
 20
-97.43345685101615
 30
0
  0
VERTEX
  5
242
100
AcDbEntity
  8
s005-#def-solid-edge
  6
CONTINUOUS
 62
    7
420
    0
370
   35
100
AcDbVertex
100
AcDb2dVertex
 10
43.27484161070882
 20
-97.50138709748607
 30
0
  0
VERTEX
  5
243
100
AcDbEntity
  8
s005-#def-solid-edge
  6
CONTINUOUS
 62
    7
420
    0
370
   35
100
AcDbVertex
100
AcDb2dVertex
 10
43.26754690167624
 20
-97.56729000686316
 30
0
  0
VERTEX
  5
244
100
AcDbEntity
  8
s005-#def-solid-edge
  6
CONTINUOUS
 62
    7
420
    0
370
   35
100
AcDbVertex
100
AcDb2dVertex
 10
43.24318425141902
 20
-97.62895740113817
 30
0
  0
VERTEX
  5
245
100
AcDbEntity
  8
s005-#def-solid-edge
  6
CONTINUOUS
 62
    7
420
    0
370
   35
100
AcDbVertex
100
AcDb2dVertex
 10
43.20168307030565
 20
-97.6838539558459
 30
0
  0
VERTEX
  5
246
100
AcDbEntity
  8
s005-#def-solid-edge
  6
CONTINUOUS
 62
    7
420
    0
370
   35
100
AcDbVertex
100
AcDb2dVertex
 10
43.146786515598
 20
-97.72535513695917
 30
0
  0
VERTEX
  5
247
100
AcDbEntity
  8
s005-#def-solid-edge
  6
CONTINUOUS
 62
    7
420
    0
370
   35
100
AcDbVertex
100
AcDb2dVertex
 10
43.08511912132298
 20
-97.74971778721645
 30
0
  0
VERTEX
  5
248
100
AcDbEntity
  8
s005-#def-solid-edge
  6
CONTINUOUS
 62
    7
420
    0
370
   35
100
AcDbVertex
100
AcDb2dVertex
 10
43.019216211946
 20
-97.75701249624906
 30
0
  0
VERTEX
  5
249
100
AcDbEntity
  8
s005-#def-solid-edge
  6
CONTINUOUS
 62
    7
420
    0
370
   35
100
AcDbVertex
100
AcDb2dVertex
 10
42.9512859654759
 20
-97.7459915449698
 30
0
  0
VERTEX
  5
24A
100
AcDbEntity
  8
s005-#def-solid-edge
  6
CONTINUOUS
 62
    7
420
    0
370
   35
100
AcDbVertex
100
AcDb2dVertex
 10
42.88893435530869
 20
-97.71686670227265
 30
0
  0
VERTEX
  5
24B
100
AcDbEntity
  8
s005-#def-solid-edge
  6
CONTINUOUS
 62
    7
420
    0
370
   35
100
AcDbVertex
100
AcDb2dVertex
 10
42.8385673768841
 20
-97.6737439272159
 30
0
  0
VERTEX
  5
24C
100
AcDbEntity
  8
s005-#def-solid-edge
  6
CONTINUOUS
 62
    7
420
    0
370
   35
100
AcDbVertex
100
AcDb2dVertex
 10
42.76173354310615
 20
-97.60399385536957
 30
0
  0
VERTEX
  5
24D
100
AcDbEntity
  8
s005-#def-solid-edge
  6
CONTINUOUS
 62
    7
420
    0
370
   35
100
AcDbVertex
100
AcDb2dVertex
 10
42.67001352586612
 20
-97.55064179596162
 30
0
  0
VERTEX
  5
24E
100
AcDbEntity
  8
s005-#def-solid-edge
  6
CONTINUOUS
 62
    7
420
    0
370
   35
100
AcDbVertex
100
AcDb2dVertex
 10
42.569100570514
 20
-97.51784577108484
 30
0
  0
VERTEX
  5
24F
100
AcDbEntity
  8
s005-#def-solid-edge
  6
CONTINUOUS
 62
    7
420
    0
370
   35
100
AcDbVertex
100
AcDb2dVertex
 10
42.46588938063411
 20
-97.50707726054924
 30
0
  0
VERTEX
  5
250
100
AcDbEntity
  8
s005-#def-solid-edge
  6
CONTINUOUS
 62
    7
420
    0
370
   35
100
AcDbVertex
100
AcDb2dVertex
 10
23.58392336938394
 20
-97.50707726054924
 30
0
  0
VERTEX
  5
251
100
AcDbEntity
  8
s005-#def-solid-edge
  6
CONTINUOUS
 62
    7
420
    0
370
   35
100
AcDbVertex
100
AcDb2dVertex
 10
23.48071217950411
 20
-97.51784577108484
 30
0
  0
VERTEX
  5
252
100
AcDbEntity
  8
s005-#def-solid-edge
  6
CONTINUOUS
 62
    7
420
    0
370
   35
100
AcDbVertex
100
AcDb2dVertex
 10
23.37979922415212
 20
-97.5506417959616
 30
0
  0
VERTEX
  5
253
100
AcDbEntity
  8
s005-#def-solid-edge
  6
CONTINUOUS
 62
    7
420
    0
370
   35
100
AcDbVertex
100
AcDb2dVertex
 10
23.28807920691202
 20
-97.60399385536957
 30
0
  0
VERTEX
  5
254
100
AcDbEntity
  8
s005-#def-solid-edge
  6
CONTINUOUS
 62
    7
420
    0
370
   35
100
AcDbVertex
100
AcDb2dVertex
 10
23.21124537313395
 20
-97.6737439272159
 30
0
  0
VERTEX
  5
255
100
AcDbEntity
  8
s005-#def-solid-edge
  6
CONTINUOUS
 62
    7
420
    0
370
   35
100
AcDbVertex
100
AcDb2dVertex
 10
23.16087839470927
 20
-97.71686670227263
 30
0
  0
VERTEX
  5
256
100
AcDbEntity
  8
s005-#def-solid-edge
  6
CONTINUOUS
 62
    7
420
    0
370
   35
100
AcDbVertex
100
AcDb2dVertex
 10
23.09852678454212
 20
-97.74599154496977
 30
0
  0
VERTEX
  5
257
100
AcDbEntity
  8
s005-#def-solid-edge
  6
CONTINUOUS
 62
    7
420
    0
370
   35
100
AcDbVertex
100
AcDb2dVertex
 10
23.03059653807219
 20
-97.75701249624903
 30
0
  0
VERTEX
  5
258
100
AcDbEntity
  8
s005-#def-solid-edge
  6
CONTINUOUS
 62
    7
420
    0
370
   35
100
AcDbVertex
100
AcDb2dVertex
 10
22.9646936286951
 20
-97.74971778721644
 30
0
  0
VERTEX
  5
259
100
AcDbEntity
  8
s005-#def-solid-edge
  6
CONTINUOUS
 62
    7
420
    0
370
   35
100
AcDbVertex
100
AcDb2dVertex
 10
22.90302623442011
 20
-97.72535513695917
 30
0
  0
VERTEX
  5
25A
100
AcDbEntity
  8
s005-#def-solid-edge
  6
CONTINUOUS
 62
    7
420
    0
370
   35
100
AcDbVertex
100
AcDb2dVertex
 10
22.84812967971237
 20
-97.68385395584586
 30
0
  0
VERTEX
  5
25B
100
AcDbEntity
  8
s005-#def-solid-edge
  6
CONTINUOUS
 62
    7
420
    0
370
   35
100
AcDbVertex
100
AcDb2dVertex
 10
22.80662849859914
 20
-97.62895740113818
 30
0
  0
VERTEX
  5
25C
100
AcDbEntity
  8
s005-#def-solid-edge
  6
CONTINUOUS
 62
    7
420
    0
370
   35
100
AcDbVertex
100
AcDb2dVertex
 10
22.78226584834184
 20
-97.56729000686316
 30
0
  0
VERTEX
  5
25D
100
AcDbEntity
  8
s005-#def-solid-edge
  6
CONTINUOUS
 62
    7
420
    0
370
   35
100
AcDbVertex
100
AcDb2dVertex
 10
22.77497113930957
 20
-97.50138709747085
 30
0
  0
VERTEX
  5
25E
100
AcDbEntity
  8
s005-#def-solid-edge
  6
CONTINUOUS
 62
    7
420
    0
370
   35
100
AcDbVertex
100
AcDb2dVertex
 10
22.78599209058851
 20
-97.43345685101613
 30
0
  0
VERTEX
  5
25F
100
AcDbEntity
  8
s005-#def-solid-edge
  6
CONTINUOUS
 62
    7
420
    0
370
   35
100
AcDbVertex
100
AcDb2dVertex
 10
22.81511693328562
 20
-97.37110524084893
 30
0
  0
VERTEX
  5
260
100
AcDbEntity
  8
s005-#def-solid-edge
  6
CONTINUOUS
 62
    7
420
    0
370
   35
100
AcDbVertex
100
AcDb2dVertex
 10
22.85823970834238
 20
-97.32073826242426
 30
0
  0
VERTEX
  5
261
100
AcDbEntity
  8
s005-#def-solid-edge
  6
CONTINUOUS
 62
    7
420
    0
370
   35
100
AcDbVertex
100
AcDb2dVertex
 10
22.92798978018874
 20
-97.24390442864629
 30
0
  0
VERTEX
  5
262
100
AcDbEntity
  8
s005-#def-solid-edge
  6
CONTINUOUS
 62
    7
420
    0
370
   35
100
AcDbVertex
100
AcDb2dVertex
 10
22.98134183959675
 20
-97.15218441140622
 30
0
  0
VERTEX
  5
263
100
AcDbEntity
  8
s005-#def-solid-edge
  6
CONTINUOUS
 62
    7
420
    0
370
   35
100
AcDbVertex
100
AcDb2dVertex
 10
23.0141378644735
 20
-97.05127145605425
 30
0
  0
VERTEX
  5
264
100
AcDbEntity
  8
s005-#def-solid-edge
  6
CONTINUOUS
 62
    7
420
    0
370
   35
100
AcDbVertex
100
AcDb2dVertex
 10
23.02490637500904
 20
-96.94806026617428
 30
0
  0
VERTEX
  5
265
100
AcDbEntity
  8
s005-#def-solid-edge
  6
CONTINUOUS
 62
    7
420
    0
370
   35
100
AcDbVertex
100
AcDb2dVertex
 10
23.02490637500904
 20
-95.0660942549242
 30
0
  0
VERTEX
  5
266
100
AcDbEntity
  8
s005-#def-solid-edge
  6
CONTINUOUS
 62
    7
420
    0
370
   35
100
AcDbVertex
100
AcDb2dVertex
 10
23.01413786447333
 20
-94.96288306504363
 30
0
  0
VERTEX
  5
267
100
AcDbEntity
  8
s005-#def-solid-edge
  6
CONTINUOUS
 62
    7
420
    0
370
   35
100
AcDbVertex
100
AcDb2dVertex
 10
22.98134183959672
 20
-94.86197010969225
 30
0
  0
VERTEX
  5
268
100
AcDbEntity
  8
s005-#def-solid-edge
  6
CONTINUOUS
 62
    7
420
    0
370
   35
100
AcDbVertex
100
AcDb2dVertex
 10
22.92798978018877
 20
-94.77025009245219
 30
0
  0
VERTEX
  5
269
100
AcDbEntity
  8
s005-#def-solid-edge
  6
CONTINUOUS
 62
    7
420
    0
370
   35
100
AcDbVertex
100
AcDb2dVertex
 10
22.85823970834238
 20
-94.69341625867423
 30
0
  0
VERTEX
  5
26A
100
AcDbEntity
  8
s005-#def-solid-edge
  6
CONTINUOUS
 62
    7
420
    0
370
   35
100
AcDbVertex
100
AcDb2dVertex
 10
22.81511693327732
 20
-94.64304928023672
 30
0
  0
VERTEX
  5
26B
100
AcDbEntity
  8
s005-#def-solid-edge
  6
CONTINUOUS
 62
    7
420
    0
370
   35
100
AcDbVertex
100
AcDb2dVertex
 10
22.78599209058854
 20
-94.58069767008234
 30
0
  0
VERTEX
  5
26C
100
AcDbEntity
  8
s005-#def-solid-edge
  6
CONTINUOUS
 62
    7
420
    0
370
   35
100
AcDbVertex
100
AcDb2dVertex
 10
22.77497113930923
 20
-94.5127674236124
 30
0
  0
VERTEX
  5
26D
100
AcDbEntity
  8
s005-#def-solid-edge
  6
CONTINUOUS
 62
    7
420
    0
370
   35
100
AcDbVertex
100
AcDb2dVertex
 10
22.78226584834184
 20
-94.44686451423532
 30
0
  0
VERTEX
  5
26E
100
AcDbEntity
  8
s005-#def-solid-edge
  6
CONTINUOUS
 62
    7
420
    0
370
   35
100
AcDbVertex
100
AcDb2dVertex
 10
22.80662849860659
 20
-94.38519711994695
 30
0
  0
VERTEX
  5
26F
100
AcDbEntity
  8
s005-#def-solid-edge
  6
CONTINUOUS
 62
    7
420
    0
370
   35
100
AcDbVertex
100
AcDb2dVertex
 10
22.8481296797124
 20
-94.3303005652526
 30
0
  0
VERTEX
  5
270
100
AcDbEntity
  8
s005-#def-solid-edge
  6
CONTINUOUS
 62
    7
420
    0
370
   35
100
AcDbVertex
100
AcDb2dVertex
 10
22.90302623442003
 20
-94.28879938413935
 30
0
  0
VERTEX
  5
271
100
AcDbEntity
  8
s005-#def-solid-edge
  6
CONTINUOUS
 62
    7
420
    0
370
   35
100
AcDbVertex
100
AcDb2dVertex
 10
22.9646936286951
 20
-94.26443673388202
 30
0
  0
VERTEX
  5
272
100
AcDbEntity
  8
s005-#def-solid-edge
  6
CONTINUOUS
 62
    7
420
    0
370
   35
100
AcDbVertex
100
AcDb2dVertex
 10
23.03059653807216
 20
-94.25714202484943
 30
0
  0
VERTEX
  5
273
100
AcDbEntity
  8
s005-#def-solid-edge
  6
CONTINUOUS
 62
    7
420
    0
370
   35
100
AcDbVertex
100
AcDb2dVertex
 10
23.09852678454209
 20
-94.26816297612869
 30
0
  0
VERTEX
  5
274
100
AcDbEntity
  8
s005-#def-solid-edge
  6
CONTINUOUS
 62
    7
420
    0
370
   35
100
AcDbVertex
100
AcDb2dVertex
 10
23.1608783947093
 20
-94.29728781882582
 30
0
  0
VERTEX
  5
275
100
AcDbEntity
  8
s005-#def-solid-edge
  6
CONTINUOUS
 62
    7
420
    0
370
   35
100
AcDbVertex
100
AcDb2dVertex
 10
23.21124537313406
 20
-94.34041059388257
 30
0
  0
VERTEX
  5
276
100
AcDbEntity
  8
s005-#def-solid-edge
  6
CONTINUOUS
 62
    7
420
    0
370
   35
100
AcDbVertex
100
AcDb2dVertex
 10
23.28807920691202
 20
-94.41016066572891
 30
0
  0
VERTEX
  5
277
100
AcDbEntity
  8
s005-#def-solid-edge
  6
CONTINUOUS
 62
    7
420
    0
370
   35
100
AcDbVertex
100
AcDb2dVertex
 10
23.37979922415201
 20
-94.46351272513687
 30
0
  0
VERTEX
  5
278
100
AcDbEntity
  8
s005-#def-solid-edge
  6
CONTINUOUS
 62
    7
420
    0
370
   35
100
AcDbVertex
100
AcDb2dVertex
 10
23.48071217950411
 20
-94.49630875001364
 30
0
  0
VERTEX
  5
279
100
AcDbEntity
  8
s005-#def-solid-edge
  6
CONTINUOUS
 62
    7
420
    0
370
   35
100
AcDbVertex
100
AcDb2dVertex
 10
23.583923369384
 20
-94.50707726054924
 30
0
  0
VERTEX
  5
27A
100
AcDbEntity
  8
s005-#def-solid-edge
  6
CONTINUOUS
 62
    7
420
    0
370
   35
100
AcDbVertex
100
AcDb2dVertex
 10
42.46588938063408
 20
-94.50707726054924
 30
0
  0
VERTEX
  5
27B
100
AcDbEntity
  8
s005-#def-solid-edge
  6
CONTINUOUS
 62
    7
420
    0
370
   35
100
AcDbVertex
100
AcDb2dVertex
 10
42.56910057051405
 20
-94.49630875001364
 30
0
  0
VERTEX
  5
27C
100
AcDbEntity
  8
s005-#def-solid-edge
  6
CONTINUOUS
 62
    7
420
    0
370
   35
100
AcDbVertex
100
AcDb2dVertex
 10
42.67001352586607
 20
-94.46351272513688
 30
0
  0
VERTEX
  5
27D
100
AcDbEntity
  8
s005-#def-solid-edge
  6
CONTINUOUS
 62
    7
420
    0
370
   35
100
AcDbVertex
100
AcDb2dVertex
 10
42.76173354310615
 20
-94.41016066572891
 30
0
  0
VERTEX
  5
27E
100
AcDbEntity
  8
s005-#def-solid-edge
  6
CONTINUOUS
 62
    7
420
    0
370
   35
100
AcDbVertex
100
AcDb2dVertex
 10
42.8385673768841
 20
-94.34041059388259
 30
0
  0
VERTEX
  5
27F
100
AcDbEntity
  8
s005-#def-solid-edge
  6
CONTINUOUS
 62
    7
420
    0
370
   35
100
AcDbVertex
100
AcDb2dVertex
 10
42.88893435530875
 20
-94.29728781882584
 30
0
  0
VERTEX
  5
280
100
AcDbEntity
  8
s005-#def-solid-edge
  6
CONTINUOUS
 62
    7
420
    0
370
   35
100
AcDbVertex
100
AcDb2dVertex
 10
42.95128596547599
 20
-94.26816297612871
 30
0
  0
VERTEX
  5
281
100
AcDbEntity
  8
s005-#def-solid-edge
  6
CONTINUOUS
 62
    7
420
    0
370
   35
100
AcDbVertex
100
AcDb2dVertex
 10
43.019216211946
 20
-94.25714202484943
 30
0
  0
SEQEND
  5
282
100
AcDbEntity
  8
s005-#def-solid-edge
  6
CONTINUOUS
 62
    7
420
    0
370
   35
  0
POLYLINE
  5
283
100
AcDbEntity
  8
s005-#def-solid-edge
  6
CONTINUOUS
 62
    7
420
    0
370
   35
100
AcDb2dPolyline
 10
0
 20
0
 30
0
 70
    0
  0
VERTEX
  5
284
100
AcDbEntity
  8
s005-#def-solid-edge
  6
CONTINUOUS
 62
    7
420
    0
370
   35
100
AcDbVertex
100
AcDb2dVertex
 10
82.31088675958938
 20
-69.20015943262754
 30
0
  0
VERTEX
  5
285
100
AcDbEntity
  8
s005-#def-solid-edge
  6
CONTINUOUS
 62
    7
420
    0
370
   35
100
AcDbVertex
100
AcDb2dVertex
 10
83.24316995655718
 20
-69.81253361228622
 30
0
  0
VERTEX
  5
286
100
AcDbEntity
  8
s005-#def-solid-edge
  6
CONTINUOUS
 62
    7
420
    0
370
   35
100
AcDbVertex
100
AcDb2dVertex
 10
83.85554413621591
 20
-70.74481680925409
 30
0
  0
VERTEX
  5
287
100
AcDbEntity
  8
s005-#def-solid-edge
  6
CONTINUOUS
 62
    7
420
    0
370
   35
100
AcDbVertex
100
AcDb2dVertex
 10
84.04862630829419
 20
-71.75707726054924
 30
0
  0
VERTEX
  5
288
100
AcDbEntity
  8
s005-#def-solid-edge
  6
CONTINUOUS
 62
    7
420
    0
370
   35
100
AcDbVertex
100
AcDb2dVertex
 10
83.85554413621591
 20
-72.76933771184437
 30
0
  0
VERTEX
  5
289
100
AcDbEntity
  8
s005-#def-solid-edge
  6
CONTINUOUS
 62
    7
420
    0
370
   35
100
AcDbVertex
100
AcDb2dVertex
 10
83.24316995655718
 20
-73.70162090881223
 30
0
  0
VERTEX
  5
28A
100
AcDbEntity
  8
s005-#def-solid-edge
  6
CONTINUOUS
 62
    7
420
    0
370
   35
100
AcDbVertex
100
AcDb2dVertex
 10
82.31088675979152
 20
-74.31399508839088
 30
0
  0
VERTEX
  5
28B
100
AcDbEntity
  8
s005-#def-solid-edge
  6
CONTINUOUS
 62
    7
420
    0
370
   35
100
AcDbVertex
100
AcDb2dVertex
 10
81.29862630829422
 20
-74.50707726054924
 30
0
  0
VERTEX
  5
28C
100
AcDbEntity
  8
s005-#def-solid-edge
  6
CONTINUOUS
 62
    7
420
    0
370
   35
100
AcDbVertex
100
AcDb2dVertex
 10
80.28636585699914
 20
-74.31399508847093
 30
0
  0
VERTEX
  5
28D
100
AcDbEntity
  8
s005-#def-solid-edge
  6
CONTINUOUS
 62
    7
420
    0
370
   35
100
AcDbVertex
100
AcDb2dVertex
 10
79.35408266003122
 20
-73.70162090881225
 30
0
  0
VERTEX
  5
28E
100
AcDbEntity
  8
s005-#def-solid-edge
  6
CONTINUOUS
 62
    7
420
    0
370
   35
100
AcDbVertex
100
AcDb2dVertex
 10
78.74170848037252
 20
-72.76933771184439
 30
0
  0
VERTEX
  5
28F
100
AcDbEntity
  8
s005-#def-solid-edge
  6
CONTINUOUS
 62
    7
420
    0
370
   35
100
AcDbVertex
100
AcDb2dVertex
 10
78.54862630829422
 20
-71.75707726054924
 30
0
  0
VERTEX
  5
290
100
AcDbEntity
  8
s005-#def-solid-edge
  6
CONTINUOUS
 62
    7
420
    0
370
   35
100
AcDbVertex
100
AcDb2dVertex
 10
78.74170848037252
 20
-70.74481680925408
 30
0
  0
VERTEX
  5
291
100
AcDbEntity
  8
s005-#def-solid-edge
  6
CONTINUOUS
 62
    7
420
    0
370
   35
100
AcDbVertex
100
AcDb2dVertex
 10
79.35408266003125
 20
-69.81253361228622
 30
0
  0
VERTEX
  5
292
100
AcDbEntity
  8
s005-#def-solid-edge
  6
CONTINUOUS
 62
    7
420
    0
370
   35
100
AcDbVertex
100
AcDb2dVertex
 10
80.28636585699911
 20
-69.20015943262754
 30
0
  0
VERTEX
  5
293
100
AcDbEntity
  8
s005-#def-solid-edge
  6
CONTINUOUS
 62
    7
420
    0
370
   35
100
AcDbVertex
100
AcDb2dVertex
 10
81.29862630829422
 20
-69.00707726054924
 30
0
  0
VERTEX
  5
294
100
AcDbEntity
  8
s005-#def-solid-edge
  6
CONTINUOUS
 62
    7
420
    0
370
   35
100
AcDbVertex
100
AcDb2dVertex
 10
82.31088675958938
 20
-69.20015943262754
 30
0
  0
SEQEND
  5
295
100
AcDbEntity
  8
s005-#def-solid-edge
  6
CONTINUOUS
 62
    7
420
    0
370
   35
  0
POLYLINE
  5
296
100
AcDbEntity
  8
s005-#def-solid-edge
  6
CONTINUOUS
 62
    7
420
    0
370
   35
100
AcDb2dPolyline
 10
0
 20
0
 30
0
 70
    0
  0
VERTEX
  5
297
100
AcDbEntity
  8
s005-#def-solid-edge
  6
CONTINUOUS
 62
    7
420
    0
370
   35
100
AcDbVertex
100
AcDb2dVertex
 10
-69.82770936633781
 20
-97.5506417959616
 30
0
  0
VERTEX
  5
298
100
AcDbEntity
  8
s005-#def-solid-edge
  6
CONTINUOUS
 62
    7
420
    0
370
   35
100
AcDbVertex
100
AcDb2dVertex
 10
-69.91942938357789
 20
-97.60399385536957
 30
0
  0
VERTEX
  5
299
100
AcDbEntity
  8
s005-#def-solid-edge
  6
CONTINUOUS
 62
    7
420
    0
370
   35
100
AcDbVertex
100
AcDb2dVertex
 10
-69.99626321735592
 20
-97.6737439272159
 30
0
  0
VERTEX
  5
29A
100
AcDbEntity
  8
s005-#def-solid-edge
  6
CONTINUOUS
 62
    7
420
    0
370
   35
100
AcDbVertex
100
AcDb2dVertex
 10
-70.04663019578062
 20
-97.71686670227263
 30
0
  0
VERTEX
  5
29B
100
AcDbEntity
  8
s005-#def-solid-edge
  6
CONTINUOUS
 62
    7
420
    0
370
   35
100
AcDbVertex
100
AcDb2dVertex
 10
-70.10898180594783
 20
-97.74599154496977
 30
0
  0
VERTEX
  5
29C
100
AcDbEntity
  8
s005-#def-solid-edge
  6
CONTINUOUS
 62
    7
420
    0
370
   35
100
AcDbVertex
100
AcDb2dVertex
 10
-70.17691205241778
 20
-97.75701249624903
 30
0
  0
VERTEX
  5
29D
100
AcDbEntity
  8
s005-#def-solid-edge
  6
CONTINUOUS
 62
    7
420
    0
370
   35
100
AcDbVertex
100
AcDb2dVertex
 10
-70.24281496179481
 20
-97.74971778721643
 30
0
  0
VERTEX
  5
29E
100
AcDbEntity
  8
s005-#def-solid-edge
  6
CONTINUOUS
 62
    7
420
    0
370
   35
100
AcDbVertex
100
AcDb2dVertex
 10
-70.30448235608316
 20
-97.72535513695169
 30
0
  0
VERTEX
  5
29F
100
AcDbEntity
  8
s005-#def-solid-edge
  6
CONTINUOUS
 62
    7
420
    0
370
   35
100
AcDbVertex
100
AcDb2dVertex
 10
-70.35937891077754
 20
-97.68385395584586
 30
0
  0
VERTEX
  5
2A0
100
AcDbEntity
  8
s005-#def-solid-edge
  6
CONTINUOUS
 62
    7
420
    0
370
   35
100
AcDbVertex
100
AcDb2dVertex
 10
-70.4008800918908
 20
-97.62895740113821
 30
0
  0
VERTEX
  5
2A1
100
AcDbEntity
  8
s005-#def-solid-edge
  6
CONTINUOUS
 62
    7
420
    0
370
   35
100
AcDbVertex
100
AcDb2dVertex
 10
-70.4252427421481
 20
-97.56729000686316
 30
0
  0
VERTEX
  5
2A2
100
AcDbEntity
  8
s005-#def-solid-edge
  6
CONTINUOUS
 62
    7
420
    0
370
   35
100
AcDbVertex
100
AcDb2dVertex
 10
-70.43253745118035
 20
-97.50138709747085
 30
0
  0
VERTEX
  5
2A3
100
AcDbEntity
  8
s005-#def-solid-edge
  6
CONTINUOUS
 62
    7
420
    0
370
   35
100
AcDbVertex
100
AcDb2dVertex
 10
-70.42151649990143
 20
-97.43345685101613
 30
0
  0
VERTEX
  5
2A4
100
AcDbEntity
  8
s005-#def-solid-edge
  6
CONTINUOUS
 62
    7
420
    0
370
   35
100
AcDbVertex
100
AcDb2dVertex
 10
-70.39239165720431
 20
-97.37110524084899
 30
0
  0
VERTEX
  5
2A5
100
AcDbEntity
  8
s005-#def-solid-edge
  6
CONTINUOUS
 62
    7
420
    0
370
   35
100
AcDbVertex
100
AcDb2dVertex
 10
-70.34926888214756
 20
-97.32073826242426
 30
0
  0
VERTEX
  5
2A6
100
AcDbEntity
  8
s005-#def-solid-edge
  6
CONTINUOUS
 62
    7
420
    0
370
   35
100
AcDbVertex
100
AcDb2dVertex
 10
-70.27951881030086
 20
-97.24390442864579
 30
0
  0
VERTEX
  5
2A7
100
AcDbEntity
  8
s005-#def-solid-edge
  6
CONTINUOUS
 62
    7
420
    0
370
   35
100
AcDbVertex
100
AcDb2dVertex
 10
-70.22616675089324
 20
-97.15218441140621
 30
0
  0
VERTEX
  5
2A8
100
AcDbEntity
  8
s005-#def-solid-edge
  6
CONTINUOUS
 62
    7
420
    0
370
   35
100
AcDbVertex
100
AcDb2dVertex
 10
-70.19337072601648
 20
-97.05127145605425
 30
0
  0
VERTEX
  5
2A9
100
AcDbEntity
  8
s005-#def-solid-edge
  6
CONTINUOUS
 62
    7
420
    0
370
   35
100
AcDbVertex
100
AcDb2dVertex
 10
-70.1826022154809
 20
-96.94806026617429
 30
0
  0
VERTEX
  5
2AA
100
AcDbEntity
  8
s005-#def-solid-edge
  6
CONTINUOUS
 62
    7
420
    0
370
   35
100
AcDbVertex
100
AcDb2dVertex
 10
-70.1826022154809
 20
-95.06609425492418
 30
0
  0
VERTEX
  5
2AB
100
AcDbEntity
  8
s005-#def-solid-edge
  6
CONTINUOUS
 62
    7
420
    0
370
   35
100
AcDbVertex
100
AcDb2dVertex
 10
-70.19337072601661
 20
-94.96288306504363
 30
0
  0
VERTEX
  5
2AC
100
AcDbEntity
  8
s005-#def-solid-edge
  6
CONTINUOUS
 62
    7
420
    0
370
   35
100
AcDbVertex
100
AcDb2dVertex
 10
-70.22616675089323
 20
-94.86197010969225
 30
0
  0
VERTEX
  5
2AD
100
AcDbEntity
  8
s005-#def-solid-edge
  6
CONTINUOUS
 62
    7
420
    0
370
   35
100
AcDbVertex
100
AcDb2dVertex
 10
-70.27951881030121
 20
-94.77025009245219
 30
0
  0
VERTEX
  5
2AE
100
AcDbEntity
  8
s005-#def-solid-edge
  6
CONTINUOUS
 62
    7
420
    0
370
   35
100
AcDbVertex
100
AcDb2dVertex
 10
-70.34926888214756
 20
-94.69341625867422
 30
0
  0
VERTEX
  5
2AF
100
AcDbEntity
  8
s005-#def-solid-edge
  6
CONTINUOUS
 62
    7
420
    0
370
   35
100
AcDbVertex
100
AcDb2dVertex
 10
-70.39239165721261
 20
-94.64304928023672
 30
0
  0
VERTEX
  5
2B0
100
AcDbEntity
  8
s005-#def-solid-edge
  6
CONTINUOUS
 62
    7
420
    0
370
   35
100
AcDbVertex
100
AcDb2dVertex
 10
-70.42151649990143
 20
-94.58069767008234
 30
0
  0
VERTEX
  5
2B1
100
AcDbEntity
  8
s005-#def-solid-edge
  6
CONTINUOUS
 62
    7
420
    0
370
   35
100
AcDbVertex
100
AcDb2dVertex
 10
-70.43253745118069
 20
-94.5127674236124
 30
0
  0
VERTEX
  5
2B2
100
AcDbEntity
  8
s005-#def-solid-edge
  6
CONTINUOUS
 62
    7
420
    0
370
   35
100
AcDbVertex
100
AcDb2dVertex
 10
-70.4252427421481
 20
-94.44686451423532
 30
0
  0
VERTEX
  5
2B3
100
AcDbEntity
  8
s005-#def-solid-edge
  6
CONTINUOUS
 62
    7
420
    0
370
   35
100
AcDbVertex
100
AcDb2dVertex
 10
-70.40088009189081
 20
-94.3851971199603
 30
0
  0
VERTEX
  5
2B4
100
AcDbEntity
  8
s005-#def-solid-edge
  6
CONTINUOUS
 62
    7
420
    0
370
   35
100
AcDbVertex
100
AcDb2dVertex
 10
-70.35937891077754
 20
-94.33030056525257
 30
0
  0
VERTEX
  5
2B5
100
AcDbEntity
  8
s005-#def-solid-edge
  6
CONTINUOUS
 62
    7
420
    0
370
   35
100
AcDbVertex
100
AcDb2dVertex
 10
-70.30448235606991
 20
-94.28879938413934
 30
0
  0
VERTEX
  5
2B6
100
AcDbEntity
  8
s005-#def-solid-edge
  6
CONTINUOUS
 62
    7
420
    0
370
   35
100
AcDbVertex
100
AcDb2dVertex
 10
-70.24281496179483
 20
-94.26443673388202
 30
0
  0
VERTEX
  5
2B7
100
AcDbEntity
  8
s005-#def-solid-edge
  6
CONTINUOUS
 62
    7
420
    0
370
   35
100
AcDbVertex
100
AcDb2dVertex
 10
-70.17691205241778
 20
-94.25714202484943
 30
0
  0
VERTEX
  5
2B8
100
AcDbEntity
  8
s005-#def-solid-edge
  6
CONTINUOUS
 62
    7
420
    0
370
   35
100
AcDbVertex
100
AcDb2dVertex
 10
-70.10898180594783
 20
-94.26816297612869
 30
0
  0
VERTEX
  5
2B9
100
AcDbEntity
  8
s005-#def-solid-edge
  6
CONTINUOUS
 62
    7
420
    0
370
   35
100
AcDbVertex
100
AcDb2dVertex
 10
-70.04663019578064
 20
-94.29728781882582
 30
0
  0
VERTEX
  5
2BA
100
AcDbEntity
  8
s005-#def-solid-edge
  6
CONTINUOUS
 62
    7
420
    0
370
   35
100
AcDbVertex
100
AcDb2dVertex
 10
-69.99626321735589
 20
-94.34041059388257
 30
0
  0
VERTEX
  5
2BB
100
AcDbEntity
  8
s005-#def-solid-edge
  6
CONTINUOUS
 62
    7
420
    0
370
   35
100
AcDbVertex
100
AcDb2dVertex
 10
-69.91942938357786
 20
-94.41016066572891
 30
0
  0
VERTEX
  5
2BC
100
AcDbEntity
  8
s005-#def-solid-edge
  6
CONTINUOUS
 62
    7
420
    0
370
   35
100
AcDbVertex
100
AcDb2dVertex
 10
-69.82770936633788
 20
-94.46351272513687
 30
0
  0
VERTEX
  5
2BD
100
AcDbEntity
  8
s005-#def-solid-edge
  6
CONTINUOUS
 62
    7
420
    0
370
   35
100
AcDbVertex
100
AcDb2dVertex
 10
-69.72679641098581
 20
-94.49630875001364
 30
0
  0
VERTEX
  5
2BE
100
AcDbEntity
  8
s005-#def-solid-edge
  6
CONTINUOUS
 62
    7
420
    0
370
   35
100
AcDbVertex
100
AcDb2dVertex
 10
-69.62358522110593
 20
-94.50707726054924
 30
0
  0
VERTEX
  5
2BF
100
AcDbEntity
  8
s005-#def-solid-edge
  6
CONTINUOUS
 62
    7
420
    0
370
   35
100
AcDbVertex
100
AcDb2dVertex
 10
-50.74161920985583
 20
-94.50707726054924
 30
0
  0
VERTEX
  5
2C0
100
AcDbEntity
  8
s005-#def-solid-edge
  6
CONTINUOUS
 62
    7
420
    0
370
   35
100
AcDbVertex
100
AcDb2dVertex
 10
-50.6384080199759
 20
-94.49630875001364
 30
0
  0
VERTEX
  5
2C1
100
AcDbEntity
  8
s005-#def-solid-edge
  6
CONTINUOUS
 62
    7
420
    0
370
   35
100
AcDbVertex
100
AcDb2dVertex
 10
-50.53749506462393
 20
-94.46351272513688
 30
0
  0
VERTEX
  5
2C2
100
AcDbEntity
  8
s005-#def-solid-edge
  6
CONTINUOUS
 62
    7
420
    0
370
   35
100
AcDbVertex
100
AcDb2dVertex
 10
-50.44577504738389
 20
-94.41016066572891
 30
0
  0
VERTEX
  5
2C3
100
AcDbEntity
  8
s005-#def-solid-edge
  6
CONTINUOUS
 62
    7
420
    0
370
   35
100
AcDbVertex
100
AcDb2dVertex
 10
-50.36894121360588
 20
-94.34041059388259
 30
0
  0
VERTEX
  5
2C4
100
AcDbEntity
  8
s005-#def-solid-edge
  6
CONTINUOUS
 62
    7
420
    0
370
   35
100
AcDbVertex
100
AcDb2dVertex
 10
-50.31857423518117
 20
-94.29728781882584
 30
0
  0
VERTEX
  5
2C5
100
AcDbEntity
  8
s005-#def-solid-edge
  6
CONTINUOUS
 62
    7
420
    0
370
   35
100
AcDbVertex
100
AcDb2dVertex
 10
-50.25622262501403
 20
-94.26816297612871
 30
0
  0
VERTEX
  5
2C6
100
AcDbEntity
  8
s005-#def-solid-edge
  6
CONTINUOUS
 62
    7
420
    0
370
   35
100
AcDbVertex
100
AcDb2dVertex
 10
-50.18829237854398
 20
-94.25714202484943
 30
0
  0
VERTEX
  5
2C7
100
AcDbEntity
  8
s005-#def-solid-edge
  6
CONTINUOUS
 62
    7
420
    0
370
   35
100
AcDbVertex
100
AcDb2dVertex
 10
-50.12238946916696
 20
-94.26443673388204
 30
0
  0
VERTEX
  5
2C8
100
AcDbEntity
  8
s005-#def-solid-edge
  6
CONTINUOUS
 62
    7
420
    0
370
   35
100
AcDbVertex
100
AcDb2dVertex
 10
-50.06072207489203
 20
-94.28879938413932
 30
0
  0
VERTEX
  5
2C9
100
AcDbEntity
  8
s005-#def-solid-edge
  6
CONTINUOUS
 62
    7
420
    0
370
   35
100
AcDbVertex
100
AcDb2dVertex
 10
-50.00582552018426
 20
-94.33030056525261
 30
0
  0
VERTEX
  5
2CA
100
AcDbEntity
  8
s005-#def-solid-edge
  6
CONTINUOUS
 62
    7
420
    0
370
   35
100
AcDbVertex
100
AcDb2dVertex
 10
-49.96432433907097
 20
-94.38519711996032
 30
0
  0
VERTEX
  5
2CB
100
AcDbEntity
  8
s005-#def-solid-edge
  6
CONTINUOUS
 62
    7
420
    0
370
   35
100
AcDbVertex
100
AcDb2dVertex
 10
-49.93996168881372
 20
-94.4468645142353
 30
0
  0
VERTEX
  5
2CC
100
AcDbEntity
  8
s005-#def-solid-edge
  6
CONTINUOUS
 62
    7
420
    0
370
   35
100
AcDbVertex
100
AcDb2dVertex
 10
-49.93266697978112
 20
-94.51276742361235
 30
0
  0
VERTEX
  5
2CD
100
AcDbEntity
  8
s005-#def-solid-edge
  6
CONTINUOUS
 62
    7
420
    0
370
   35
100
AcDbVertex
100
AcDb2dVertex
 10
-49.94368793106037
 20
-94.58069767008234
 30
0
  0
VERTEX
  5
2CE
100
AcDbEntity
  8
s005-#def-solid-edge
  6
CONTINUOUS
 62
    7
420
    0
370
   35
100
AcDbVertex
100
AcDb2dVertex
 10
-49.97281277375751
 20
-94.64304928024954
 30
0
  0
VERTEX
  5
2CF
100
AcDbEntity
  8
s005-#def-solid-edge
  6
CONTINUOUS
 62
    7
420
    0
370
   35
100
AcDbVertex
100
AcDb2dVertex
 10
-50.01593554881424
 20
-94.69341625867422
 30
0
  0
VERTEX
  5
2D0
100
AcDbEntity
  8
s005-#def-solid-edge
  6
CONTINUOUS
 62
    7
420
    0
370
   35
100
AcDbVertex
100
AcDb2dVertex
 10
-50.08568562066095
 20
-94.7702500924527
 30
0
  0
VERTEX
  5
2D1
100
AcDbEntity
  8
s005-#def-solid-edge
  6
CONTINUOUS
 62
    7
420
    0
370
   35
100
AcDbVertex
100
AcDb2dVertex
 10
-50.13903768006855
 20
-94.86197010969225
 30
0
  0
VERTEX
  5
2D2
100
AcDbEntity
  8
s005-#def-solid-edge
  6
CONTINUOUS
 62
    7
420
    0
370
   35
100
AcDbVertex
100
AcDb2dVertex
 10
-50.1718337049453
 20
-94.96288306504422
 30
0
  0
VERTEX
  5
2D3
100
AcDbEntity
  8
s005-#def-solid-edge
  6
CONTINUOUS
 62
    7
420
    0
370
   35
100
AcDbVertex
100
AcDb2dVertex
 10
-50.1826022154809
 20
-95.06609425492418
 30
0
  0
VERTEX
  5
2D4
100
AcDbEntity
  8
s005-#def-solid-edge
  6
CONTINUOUS
 62
    7
420
    0
370
   35
100
AcDbVertex
100
AcDb2dVertex
 10
-50.1826022154809
 20
-96.94806026617428
 30
0
  0
VERTEX
  5
2D5
100
AcDbEntity
  8
s005-#def-solid-edge
  6
CONTINUOUS
 62
    7
420
    0
370
   35
100
AcDbVertex
100
AcDb2dVertex
 10
-50.17183370494519
 20
-97.05127145605485
 30
0
  0
VERTEX
  5
2D6
100
AcDbEntity
  8
s005-#def-solid-edge
  6
CONTINUOUS
 62
    7
420
    0
370
   35
100
AcDbVertex
100
AcDb2dVertex
 10
-50.13903768006855
 20
-97.15218441140622
 30
0
  0
VERTEX
  5
2D7
100
AcDbEntity
  8
s005-#def-solid-edge
  6
CONTINUOUS
 62
    7
420
    0
370
   35
100
AcDbVertex
100
AcDb2dVertex
 10
-50.08568562066061
 20
-97.24390442864629
 30
0
  0
VERTEX
  5
2D8
100
AcDbEntity
  8
s005-#def-solid-edge
  6
CONTINUOUS
 62
    7
420
    0
370
   35
100
AcDbVertex
100
AcDb2dVertex
 10
-50.01593554881423
 20
-97.32073826242424
 30
0
  0
VERTEX
  5
2D9
100
AcDbEntity
  8
s005-#def-solid-edge
  6
CONTINUOUS
 62
    7
420
    0
370
   35
100
AcDbVertex
100
AcDb2dVertex
 10
-49.9728127737492
 20
-97.37110524086175
 30
0
  0
VERTEX
  5
2DA
100
AcDbEntity
  8
s005-#def-solid-edge
  6
CONTINUOUS
 62
    7
420
    0
370
   35
100
AcDbVertex
100
AcDb2dVertex
 10
-49.94368793106032
 20
-97.43345685101615
 30
0
  0
VERTEX
  5
2DB
100
AcDbEntity
  8
s005-#def-solid-edge
  6
CONTINUOUS
 62
    7
420
    0
370
   35
100
AcDbVertex
100
AcDb2dVertex
 10
-49.93266697978112
 20
-97.50138709748613
 30
0
  0
VERTEX
  5
2DC
100
AcDbEntity
  8
s005-#def-solid-edge
  6
CONTINUOUS
 62
    7
420
    0
370
   35
100
AcDbVertex
100
AcDb2dVertex
 10
-49.93996168881375
 20
-97.56729000686316
 30
0
  0
VERTEX
  5
2DD
100
AcDbEntity
  8
s005-#def-solid-edge
  6
CONTINUOUS
 62
    7
420
    0
370
   35
100
AcDbVertex
100
AcDb2dVertex
 10
-49.964324339071
 20
-97.62895740113817
 30
0
  0
VERTEX
  5
2DE
100
AcDbEntity
  8
s005-#def-solid-edge
  6
CONTINUOUS
 62
    7
420
    0
370
   35
100
AcDbVertex
100
AcDb2dVertex
 10
-50.00582552018429
 20
-97.6838539558459
 30
0
  0
VERTEX
  5
2DF
100
AcDbEntity
  8
s005-#def-solid-edge
  6
CONTINUOUS
 62
    7
420
    0
370
   35
100
AcDbVertex
100
AcDb2dVertex
 10
-50.06072207489201
 20
-97.72535513695917
 30
0
  0
VERTEX
  5
2E0
100
AcDbEntity
  8
s005-#def-solid-edge
  6
CONTINUOUS
 62
    7
420
    0
370
   35
100
AcDbVertex
100
AcDb2dVertex
 10
-50.12238946916698
 20
-97.74971778721645
 30
0
  0
VERTEX
  5
2E1
100
AcDbEntity
  8
s005-#def-solid-edge
  6
CONTINUOUS
 62
    7
420
    0
370
   35
100
AcDbVertex
100
AcDb2dVertex
 10
-50.18829237854396
 20
-97.75701249624906
 30
0
  0
VERTEX
  5
2E2
100
AcDbEntity
  8
s005-#def-solid-edge
  6
CONTINUOUS
 62
    7
420
    0
370
   35
100
AcDbVertex
100
AcDb2dVertex
 10
-50.25622262501402
 20
-97.74599154496978
 30
0
  0
VERTEX
  5
2E3
100
AcDbEntity
  8
s005-#def-solid-edge
  6
CONTINUOUS
 62
    7
420
    0
370
   35
100
AcDbVertex
100
AcDb2dVertex
 10
-50.31857423518117
 20
-97.71686670227268
 30
0
  0
VERTEX
  5
2E4
100
AcDbEntity
  8
s005-#def-solid-edge
  6
CONTINUOUS
 62
    7
420
    0
370
   35
100
AcDbVertex
100
AcDb2dVertex
 10
-50.36894121360589
 20
-97.6737439272159
 30
0
  0
VERTEX
  5
2E5
100
AcDbEntity
  8
s005-#def-solid-edge
  6
CONTINUOUS
 62
    7
420
    0
370
   35
100
AcDbVertex
100
AcDb2dVertex
 10
-50.44577504738388
 20
-97.60399385536957
 30
0
  0
VERTEX
  5
2E6
100
AcDbEntity
  8
s005-#def-solid-edge
  6
CONTINUOUS
 62
    7
420
    0
370
   35
100
AcDbVertex
100
AcDb2dVertex
 10
-50.5374950646239
 20
-97.55064179596161
 30
0
  0
VERTEX
  5
2E7
100
AcDbEntity
  8
s005-#def-solid-edge
  6
CONTINUOUS
 62
    7
420
    0
370
   35
100
AcDbVertex
100
AcDb2dVertex
 10
-50.6384080199759
 20
-97.51784577108482
 30
0
  0
VERTEX
  5
2E8
100
AcDbEntity
  8
s005-#def-solid-edge
  6
CONTINUOUS
 62
    7
420
    0
370
   35
100
AcDbVertex
100
AcDb2dVertex
 10
-50.74161920985581
 20
-97.50707726054924
 30
0
  0
VERTEX
  5
2E9
100
AcDbEntity
  8
s005-#def-solid-edge
  6
CONTINUOUS
 62
    7
420
    0
370
   35
100
AcDbVertex
100
AcDb2dVertex
 10
-69.62358522110594
 20
-97.50707726054924
 30
0
  0
VERTEX
  5
2EA
100
AcDbEntity
  8
s005-#def-solid-edge
  6
CONTINUOUS
 62
    7
420
    0
370
   35
100
AcDbVertex
100
AcDb2dVertex
 10
-69.72679641098581
 20
-97.51784577108484
 30
0
  0
VERTEX
  5
2EB
100
AcDbEntity
  8
s005-#def-solid-edge
  6
CONTINUOUS
 62
    7
420
    0
370
   35
100
AcDbVertex
100
AcDb2dVertex
 10
-69.82770936633781
 20
-97.5506417959616
 30
0
  0
SEQEND
  5
2EC
100
AcDbEntity
  8
s005-#def-solid-edge
  6
CONTINUOUS
 62
    7
420
    0
370
   35
  0
POLYLINE
  5
2ED
100
AcDbEntity
  8
s005-#def-solid-edge
  6
CONTINUOUS
 62
    7
420
    0
370
   35
100
AcDb2dPolyline
 10
0
 20
0
 30
0
 70
    0
  0
VERTEX
  5
2EE
100
AcDbEntity
  8
s005-#def-solid-edge
  6
CONTINUOUS
 62
    7
420
    0
370
   35
100
AcDbVertex
100
AcDb2dVertex
 10
-96.54371598405866
 20
-97.56729000686316
 30
0
  0
VERTEX
  5
2EF
100
AcDbEntity
  8
s005-#def-solid-edge
  6
CONTINUOUS
 62
    7
420
    0
370
   35
100
AcDbVertex
100
AcDb2dVertex
 10
-96.5680786343159
 20
-97.62895740113817
 30
0
  0
VERTEX
  5
2F0
100
AcDbEntity
  8
s005-#def-solid-edge
  6
CONTINUOUS
 62
    7
420
    0
370
   35
100
AcDbVertex
100
AcDb2dVertex
 10
-96.60957981542927
 20
-97.6838539558459
 30
0
  0
VERTEX
  5
2F1
100
AcDbEntity
  8
s005-#def-solid-edge
  6
CONTINUOUS
 62
    7
420
    0
370
   35
100
AcDbVertex
100
AcDb2dVertex
 10
-96.66447637013694
 20
-97.72535513695917
 30
0
  0
VERTEX
  5
2F2
100
AcDbEntity
  8
s005-#def-solid-edge
  6
CONTINUOUS
 62
    7
420
    0
370
   35
100
AcDbVertex
100
AcDb2dVertex
 10
-96.72614376441192
 20
-97.74971778721645
 30
0
  0
VERTEX
  5
2F3
100
AcDbEntity
  8
s005-#def-solid-edge
  6
CONTINUOUS
 62
    7
420
    0
370
   35
100
AcDbVertex
100
AcDb2dVertex
 10
-96.79204667378899
 20
-97.75701249624906
 30
0
  0
VERTEX
  5
2F4
100
AcDbEntity
  8
s005-#def-solid-edge
  6
CONTINUOUS
 62
    7
420
    0
370
   35
100
AcDbVertex
100
AcDb2dVertex
 10
-96.85997692025902
 20
-97.74599154496977
 30
0
  0
VERTEX
  5
2F5
100
AcDbEntity
  8
s005-#def-solid-edge
  6
CONTINUOUS
 62
    7
420
    0
370
   35
100
AcDbVertex
100
AcDb2dVertex
 10
-96.92232853042614
 20
-97.71686670227268
 30
0
  0
VERTEX
  5
2F6
100
AcDbEntity
  8
s005-#def-solid-edge
  6
CONTINUOUS
 62
    7
420
    0
370
   35
100
AcDbVertex
100
AcDb2dVertex
 10
-96.97269550885088
 20
-97.67374392721591
 30
0
  0
VERTEX
  5
2F7
100
AcDbEntity
  8
s005-#def-solid-edge
  6
CONTINUOUS
 62
    7
420
    0
370
   35
100
AcDbVertex
100
AcDb2dVertex
 10
-97.04952934262876
 20
-97.60399385536957
 30
0
  0
VERTEX
  5
2F8
100
AcDbEntity
  8
s005-#def-solid-edge
  6
CONTINUOUS
 62
    7
420
    0
370
   35
100
AcDbVertex
100
AcDb2dVertex
 10
-97.14124935986887
 20
-97.55064179596162
 30
0
  0
VERTEX
  5
2F9
100
AcDbEntity
  8
s005-#def-solid-edge
  6
CONTINUOUS
 62
    7
420
    0
370
   35
100
AcDbVertex
100
AcDb2dVertex
 10
-97.24216231522094
 20
-97.51784577108484
 30
0
  0
VERTEX
  5
2FA
100
AcDbEntity
  8
s005-#def-solid-edge
  6
CONTINUOUS
 62
    7
420
    0
370
   35
100
AcDbVertex
100
AcDb2dVertex
 10
-97.34537350510081
 20
-97.50707726054924
 30
0
  0
VERTEX
  5
2FB
100
AcDbEntity
  8
s005-#def-solid-edge
  6
CONTINUOUS
 62
    7
420
    0
370
   35
100
AcDbVertex
100
AcDb2dVertex
 10
-116.2273395163509
 20
-97.50707726054924
 30
0
  0
VERTEX
  5
2FC
100
AcDbEntity
  8
s005-#def-solid-edge
  6
CONTINUOUS
 62
    7
420
    0
370
   35
100
AcDbVertex
100
AcDb2dVertex
 10
-116.3305507062309
 20
-97.51784577108484
 30
0
  0
VERTEX
  5
2FD
100
AcDbEntity
  8
s005-#def-solid-edge
  6
CONTINUOUS
 62
    7
420
    0
370
   35
100
AcDbVertex
100
AcDb2dVertex
 10
-116.4314636615829
 20
-97.55064179596161
 30
0
  0
VERTEX
  5
2FE
100
AcDbEntity
  8
s005-#def-solid-edge
  6
CONTINUOUS
 62
    7
420
    0
370
   35
100
AcDbVertex
100
AcDb2dVertex
 10
-116.5231836788229
 20
-97.60399385536957
 30
0
  0
VERTEX
  5
2FF
100
AcDbEntity
  8
s005-#def-solid-edge
  6
CONTINUOUS
 62
    7
420
    0
370
   35
100
AcDbVertex
100
AcDb2dVertex
 10
-116.6000175126009
 20
-97.6737439272159
 30
0
  0
VERTEX
  5
300
100
AcDbEntity
  8
s005-#def-solid-edge
  6
CONTINUOUS
 62
    7
420
    0
370
   35
100
AcDbVertex
100
AcDb2dVertex
 10
-116.6503844910256
 20
-97.71686670227263
 30
0
  0
VERTEX
  5
301
100
AcDbEntity
  8
s005-#def-solid-edge
  6
CONTINUOUS
 62
    7
420
    0
370
   35
100
AcDbVertex
100
AcDb2dVertex
 10
-116.7127361011928
 20
-97.74599154496977
 30
0
  0
VERTEX
  5
302
100
AcDbEntity
  8
s005-#def-solid-edge
  6
CONTINUOUS
 62
    7
420
    0
370
   35
100
AcDbVertex
100
AcDb2dVertex
 10
-116.7806663476628
 20
-97.75701249624903
 30
0
  0
VERTEX
  5
303
100
AcDbEntity
  8
s005-#def-solid-edge
  6
CONTINUOUS
 62
    7
420
    0
370
   35
100
AcDbVertex
100
AcDb2dVertex
 10
-116.8465692570398
 20
-97.74971778721643
 30
0
  0
VERTEX
  5
304
100
AcDbEntity
  8
s005-#def-solid-edge
  6
CONTINUOUS
 62
    7
420
    0
370
   35
100
AcDbVertex
100
AcDb2dVertex
 10
-116.9082366513281
 20
-97.72535513695171
 30
0
  0
VERTEX
  5
305
100
AcDbEntity
  8
s005-#def-solid-edge
  6
CONTINUOUS
 62
    7
420
    0
370
   35
100
AcDbVertex
100
AcDb2dVertex
 10
-116.9631332060225
 20
-97.68385395584588
 30
0
  0
VERTEX
  5
306
100
AcDbEntity
  8
s005-#def-solid-edge
  6
CONTINUOUS
 62
    7
420
    0
370
   35
100
AcDbVertex
100
AcDb2dVertex
 10
-117.0046343871358
 20
-97.62895740113821
 30
0
  0
VERTEX
  5
307
100
AcDbEntity
  8
s005-#def-solid-edge
  6
CONTINUOUS
 62
    7
420
    0
370
   35
100
AcDbVertex
100
AcDb2dVertex
 10
-117.0289970373931
 20
-97.56729000686316
 30
0
  0
VERTEX
  5
308
100
AcDbEntity
  8
s005-#def-solid-edge
  6
CONTINUOUS
 62
    7
420
    0
370
   35
100
AcDbVertex
100
AcDb2dVertex
 10
-117.0362917464253
 20
-97.50138709747085
 30
0
  0
VERTEX
  5
309
100
AcDbEntity
  8
s005-#def-solid-edge
  6
CONTINUOUS
 62
    7
420
    0
370
   35
100
AcDbVertex
100
AcDb2dVertex
 10
-117.0252707951464
 20
-97.43345685101615
 30
0
  0
VERTEX
  5
30A
100
AcDbEntity
  8
s005-#def-solid-edge
  6
CONTINUOUS
 62
    7
420
    0
370
   35
100
AcDbVertex
100
AcDb2dVertex
 10
-116.9961459524493
 20
-97.37110524084893
 30
0
  0
VERTEX
  5
30B
100
AcDbEntity
  8
s005-#def-solid-edge
  6
CONTINUOUS
 62
    7
420
    0
370
   35
100
AcDbVertex
100
AcDb2dVertex
 10
-116.9530231773925
 20
-97.32073826242426
 30
0
  0
VERTEX
  5
30C
100
AcDbEntity
  8
s005-#def-solid-edge
  6
CONTINUOUS
 62
    7
420
    0
370
   35
100
AcDbVertex
100
AcDb2dVertex
 10
-116.8832731055462
 20
-97.24390442864629
 30
0
  0
VERTEX
  5
30D
100
AcDbEntity
  8
s005-#def-solid-edge
  6
CONTINUOUS
 62
    7
420
    0
370
   35
100
AcDbVertex
100
AcDb2dVertex
 10
-116.8299210461382
 20
-97.15218441140622
 30
0
  0
VERTEX
  5
30E
100
AcDbEntity
  8
s005-#def-solid-edge
  6
CONTINUOUS
 62
    7
420
    0
370
   35
100
AcDbVertex
100
AcDb2dVertex
 10
-116.7971250212615
 20
-97.05127145605425
 30
0
  0
VERTEX
  5
30F
100
AcDbEntity
  8
s005-#def-solid-edge
  6
CONTINUOUS
 62
    7
420
    0
370
   35
100
AcDbVertex
100
AcDb2dVertex
 10
-116.7863565107259
 20
-96.94806026617428
 30
0
  0
VERTEX
  5
310
100
AcDbEntity
  8
s005-#def-solid-edge
  6
CONTINUOUS
 62
    7
420
    0
370
   35
100
AcDbVertex
100
AcDb2dVertex
 10
-116.7863565107259
 20
-95.0660942549242
 30
0
  0
VERTEX
  5
311
100
AcDbEntity
  8
s005-#def-solid-edge
  6
CONTINUOUS
 62
    7
420
    0
370
   35
100
AcDbVertex
100
AcDb2dVertex
 10
-116.7971250212615
 20
-94.96288306504424
 30
0
  0
VERTEX
  5
312
100
AcDbEntity
  8
s005-#def-solid-edge
  6
CONTINUOUS
 62
    7
420
    0
370
   35
100
AcDbVertex
100
AcDb2dVertex
 10
-116.8299210461382
 20
-94.86197010969225
 30
0
  0
VERTEX
  5
313
100
AcDbEntity
  8
s005-#def-solid-edge
  6
CONTINUOUS
 62
    7
420
    0
370
   35
100
AcDbVertex
100
AcDb2dVertex
 10
-116.8832731055462
 20
-94.77025009245219
 30
0
  0
VERTEX
  5
314
100
AcDbEntity
  8
s005-#def-solid-edge
  6
CONTINUOUS
 62
    7
420
    0
370
   35
100
AcDbVertex
100
AcDb2dVertex
 10
-116.9530231773925
 20
-94.69341625867422
 30
0
  0
VERTEX
  5
315
100
AcDbEntity
  8
s005-#def-solid-edge
  6
CONTINUOUS
 62
    7
420
    0
370
   35
100
AcDbVertex
100
AcDb2dVertex
 10
-116.9961459524493
 20
-94.64304928024956
 30
0
  0
VERTEX
  5
316
100
AcDbEntity
  8
s005-#def-solid-edge
  6
CONTINUOUS
 62
    7
420
    0
370
   35
100
AcDbVertex
100
AcDb2dVertex
 10
-117.0252707951464
 20
-94.58069767008234
 30
0
  0
VERTEX
  5
317
100
AcDbEntity
  8
s005-#def-solid-edge
  6
CONTINUOUS
 62
    7
420
    0
370
   35
100
AcDbVertex
100
AcDb2dVertex
 10
-117.0362917464257
 20
-94.5127674236124
 30
0
  0
VERTEX
  5
318
100
AcDbEntity
  8
s005-#def-solid-edge
  6
CONTINUOUS
 62
    7
420
    0
370
   35
100
AcDbVertex
100
AcDb2dVertex
 10
-117.0289970373931
 20
-94.44686451423532
 30
0
  0
VERTEX
  5
319
100
AcDbEntity
  8
s005-#def-solid-edge
  6
CONTINUOUS
 62
    7
420
    0
370
   35
100
AcDbVertex
100
AcDb2dVertex
 10
-117.0046343871358
 20
-94.3851971199603
 30
0
  0
VERTEX
  5
31A
100
AcDbEntity
  8
s005-#def-solid-edge
  6
CONTINUOUS
 62
    7
420
    0
370
   35
100
AcDbVertex
100
AcDb2dVertex
 10
-116.9631332060225
 20
-94.33030056525259
 30
0
  0
VERTEX
  5
31B
100
AcDbEntity
  8
s005-#def-solid-edge
  6
CONTINUOUS
 62
    7
420
    0
370
   35
100
AcDbVertex
100
AcDb2dVertex
 10
-116.9082366513149
 20
-94.28879938413932
 30
0
  0
VERTEX
  5
31C
100
AcDbEntity
  8
s005-#def-solid-edge
  6
CONTINUOUS
 62
    7
420
    0
370
   35
100
AcDbVertex
100
AcDb2dVertex
 10
-116.8465692570398
 20
-94.26443673388202
 30
0
  0
VERTEX
  5
31D
100
AcDbEntity
  8
s005-#def-solid-edge
  6
CONTINUOUS
 62
    7
420
    0
370
   35
100
AcDbVertex
100
AcDb2dVertex
 10
-116.7806663476628
 20
-94.25714202484943
 30
0
  0
VERTEX
  5
31E
100
AcDbEntity
  8
s005-#def-solid-edge
  6
CONTINUOUS
 62
    7
420
    0
370
   35
100
AcDbVertex
100
AcDb2dVertex
 10
-116.7127361011927
 20
-94.26816297612869
 30
0
  0
VERTEX
  5
31F
100
AcDbEntity
  8
s005-#def-solid-edge
  6
CONTINUOUS
 62
    7
420
    0
370
   35
100
AcDbVertex
100
AcDb2dVertex
 10
-116.6503844910256
 20
-94.29728781882582
 30
0
  0
VERTEX
  5
320
100
AcDbEntity
  8
s005-#def-solid-edge
  6
CONTINUOUS
 62
    7
420
    0
370
   35
100
AcDbVertex
100
AcDb2dVertex
 10
-116.6000175126009
 20
-94.34041059388257
 30
0
  0
VERTEX
  5
321
100
AcDbEntity
  8
s005-#def-solid-edge
  6
CONTINUOUS
 62
    7
420
    0
370
   35
100
AcDbVertex
100
AcDb2dVertex
 10
-116.5231836788229
 20
-94.41016066572891
 30
0
  0
VERTEX
  5
322
100
AcDbEntity
  8
s005-#def-solid-edge
  6
CONTINUOUS
 62
    7
420
    0
370
   35
100
AcDbVertex
100
AcDb2dVertex
 10
-116.4314636615829
 20
-94.46351272513687
 30
0
  0
VERTEX
  5
323
100
AcDbEntity
  8
s005-#def-solid-edge
  6
CONTINUOUS
 62
    7
420
    0
370
   35
100
AcDbVertex
100
AcDb2dVertex
 10
-116.3305507062309
 20
-94.49630875001364
 30
0
  0
VERTEX
  5
324
100
AcDbEntity
  8
s005-#def-solid-edge
  6
CONTINUOUS
 62
    7
420
    0
370
   35
100
AcDbVertex
100
AcDb2dVertex
 10
-116.2273395163509
 20
-94.50707726054924
 30
0
  0
VERTEX
  5
325
100
AcDbEntity
  8
s005-#def-solid-edge
  6
CONTINUOUS
 62
    7
420
    0
370
   35
100
AcDbVertex
100
AcDb2dVertex
 10
-97.3453735051008
 20
-94.50707726054924
 30
0
  0
VERTEX
  5
326
100
AcDbEntity
  8
s005-#def-solid-edge
  6
CONTINUOUS
 62
    7
420
    0
370
   35
100
AcDbVertex
100
AcDb2dVertex
 10
-97.24216231522081
 20
-94.49630875001364
 30
0
  0
VERTEX
  5
327
100
AcDbEntity
  8
s005-#def-solid-edge
  6
CONTINUOUS
 62
    7
420
    0
370
   35
100
AcDbVertex
100
AcDb2dVertex
 10
-97.14124935986892
 20
-94.46351272513688
 30
0
  0
VERTEX
  5
328
100
AcDbEntity
  8
s005-#def-solid-edge
  6
CONTINUOUS
 62
    7
420
    0
370
   35
100
AcDbVertex
100
AcDb2dVertex
 10
-97.04952934262882
 20
-94.41016066572891
 30
0
  0
VERTEX
  5
329
100
AcDbEntity
  8
s005-#def-solid-edge
  6
CONTINUOUS
 62
    7
420
    0
370
   35
100
AcDbVertex
100
AcDb2dVertex
 10
-96.97269550885089
 20
-94.34041059388259
 30
0
  0
VERTEX
  5
32A
100
AcDbEntity
  8
s005-#def-solid-edge
  6
CONTINUOUS
 62
    7
420
    0
370
   35
100
AcDbVertex
100
AcDb2dVertex
 10
-96.92232853042616
 20
-94.29728781882584
 30
0
  0
VERTEX
  5
32B
100
AcDbEntity
  8
s005-#def-solid-edge
  6
CONTINUOUS
 62
    7
420
    0
370
   35
100
AcDbVertex
100
AcDb2dVertex
 10
-96.85997692025893
 20
-94.26816297612871
 30
0
  0
VERTEX
  5
32C
100
AcDbEntity
  8
s005-#def-solid-edge
  6
CONTINUOUS
 62
    7
420
    0
370
   35
100
AcDbVertex
100
AcDb2dVertex
 10
-96.79204667378897
 20
-94.25714202484943
 30
0
  0
VERTEX
  5
32D
100
AcDbEntity
  8
s005-#def-solid-edge
  6
CONTINUOUS
 62
    7
420
    0
370
   35
100
AcDbVertex
100
AcDb2dVertex
 10
-96.72614376441196
 20
-94.26443673388204
 30
0
  0
VERTEX
  5
32E
100
AcDbEntity
  8
s005-#def-solid-edge
  6
CONTINUOUS
 62
    7
420
    0
370
   35
100
AcDbVertex
100
AcDb2dVertex
 10
-96.66447637013697
 20
-94.28879938413932
 30
0
  0
VERTEX
  5
32F
100
AcDbEntity
  8
s005-#def-solid-edge
  6
CONTINUOUS
 62
    7
420
    0
370
   35
100
AcDbVertex
100
AcDb2dVertex
 10
-96.60957981542927
 20
-94.33030056525261
 30
0
  0
VERTEX
  5
330
100
AcDbEntity
  8
s005-#def-solid-edge
  6
CONTINUOUS
 62
    7
420
    0
370
   35
100
AcDbVertex
100
AcDb2dVertex
 10
-96.56807863431594
 20
-94.38519711996032
 30
0
  0
VERTEX
  5
331
100
AcDbEntity
  8
s005-#def-solid-edge
  6
CONTINUOUS
 62
    7
420
    0
370
   35
100
AcDbVertex
100
AcDb2dVertex
 10
-96.54371598405868
 20
-94.4468645142353
 30
0
  0
VERTEX
  5
332
100
AcDbEntity
  8
s005-#def-solid-edge
  6
CONTINUOUS
 62
    7
420
    0
370
   35
100
AcDbVertex
100
AcDb2dVertex
 10
-96.53642127502606
 20
-94.51276742361235
 30
0
  0
VERTEX
  5
333
100
AcDbEntity
  8
s005-#def-solid-edge
  6
CONTINUOUS
 62
    7
420
    0
370
   35
100
AcDbVertex
100
AcDb2dVertex
 10
-96.54744222630538
 20
-94.58069767008234
 30
0
  0
VERTEX
  5
334
100
AcDbEntity
  8
s005-#def-solid-edge
  6
CONTINUOUS
 62
    7
420
    0
370
   35
100
AcDbVertex
100
AcDb2dVertex
 10
-96.57656706900244
 20
-94.64304928024949
 30
0
  0
VERTEX
  5
335
100
AcDbEntity
  8
s005-#def-solid-edge
  6
CONTINUOUS
 62
    7
420
    0
370
   35
100
AcDbVertex
100
AcDb2dVertex
 10
-96.61968984405922
 20
-94.69341625867422
 30
0
  0
VERTEX
  5
336
100
AcDbEntity
  8
s005-#def-solid-edge
  6
CONTINUOUS
 62
    7
420
    0
370
   35
100
AcDbVertex
100
AcDb2dVertex
 10
-96.68943991590554
 20
-94.77025009245219
 30
0
  0
VERTEX
  5
337
100
AcDbEntity
  8
s005-#def-solid-edge
  6
CONTINUOUS
 62
    7
420
    0
370
   35
100
AcDbVertex
100
AcDb2dVertex
 10
-96.74279197531349
 20
-94.86197010969225
 30
0
  0
VERTEX
  5
338
100
AcDbEntity
  8
s005-#def-solid-edge
  6
CONTINUOUS
 62
    7
420
    0
370
   35
100
AcDbVertex
100
AcDb2dVertex
 10
-96.77558800019033
 20
-94.96288306504424
 30
0
  0
VERTEX
  5
339
100
AcDbEntity
  8
s005-#def-solid-edge
  6
CONTINUOUS
 62
    7
420
    0
370
   35
100
AcDbVertex
100
AcDb2dVertex
 10
-96.78635651072588
 20
-95.06609425492418
 30
0
  0
VERTEX
  5
33A
100
AcDbEntity
  8
s005-#def-solid-edge
  6
CONTINUOUS
 62
    7
420
    0
370
   35
100
AcDbVertex
100
AcDb2dVertex
 10
-96.78635651072588
 20
-96.94806026617429
 30
0
  0
VERTEX
  5
33B
100
AcDbEntity
  8
s005-#def-solid-edge
  6
CONTINUOUS
 62
    7
420
    0
370
   35
100
AcDbVertex
100
AcDb2dVertex
 10
-96.77558800019033
 20
-97.05127145605425
 30
0
  0
VERTEX
  5
33C
100
AcDbEntity
  8
s005-#def-solid-edge
  6
CONTINUOUS
 62
    7
420
    0
370
   35
100
AcDbVertex
100
AcDb2dVertex
 10
-96.74279197531351
 20
-97.15218441140622
 30
0
  0
VERTEX
  5
33D
100
AcDbEntity
  8
s005-#def-solid-edge
  6
CONTINUOUS
 62
    7
420
    0
370
   35
100
AcDbVertex
100
AcDb2dVertex
 10
-96.68943991590552
 20
-97.24390442864629
 30
0
  0
VERTEX
  5
33E
100
AcDbEntity
  8
s005-#def-solid-edge
  6
CONTINUOUS
 62
    7
420
    0
370
   35
100
AcDbVertex
100
AcDb2dVertex
 10
-96.61968984405922
 20
-97.32073826242424
 30
0
  0
VERTEX
  5
33F
100
AcDbEntity
  8
s005-#def-solid-edge
  6
CONTINUOUS
 62
    7
420
    0
370
   35
100
AcDbVertex
100
AcDb2dVertex
 10
-96.57656706899417
 20
-97.37110524086175
 30
0
  0
VERTEX
  5
340
100
AcDbEntity
  8
s005-#def-solid-edge
  6
CONTINUOUS
 62
    7
420
    0
370
   35
100
AcDbVertex
100
AcDb2dVertex
 10
-96.54744222630535
 20
-97.43345685101612
 30
0
  0
VERTEX
  5
341
100
AcDbEntity
  8
s005-#def-solid-edge
  6
CONTINUOUS
 62
    7
420
    0
370
   35
100
AcDbVertex
100
AcDb2dVertex
 10
-96.53642127502606
 20
-97.50138709748613
 30
0
  0
VERTEX
  5
342
100
AcDbEntity
  8
s005-#def-solid-edge
  6
CONTINUOUS
 62
    7
420
    0
370
   35
100
AcDbVertex
100
AcDb2dVertex
 10
-96.54371598405866
 20
-97.56729000686316
 30
0
  0
SEQEND
  5
343
100
AcDbEntity
  8
s005-#def-solid-edge
  6
CONTINUOUS
 62
    7
420
    0
370
   35
  0
POLYLINE
  5
344
100
AcDbEntity
  8
s005-#def-solid-edge
  6
CONTINUOUS
 62
    7
420
    0
370
   35
100
AcDb2dPolyline
 10
0
 20
0
 30
0
 70
    0
  0
VERTEX
  5
345
100
AcDbEntity
  8
s005-#def-solid-edge
  6
CONTINUOUS
 62
    7
420
    0
370
   35
100
AcDbVertex
100
AcDb2dVertex
 10
-283.1411609453918
 20
-97.74971778721645
 30
0
  0
VERTEX
  5
346
100
AcDbEntity
  8
s005-#def-solid-edge
  6
CONTINUOUS
 62
    7
420
    0
370
   35
100
AcDbVertex
100
AcDb2dVertex
 10
-283.2070638547689
 20
-97.75701249624906
 30
0
  0
VERTEX
  5
347
100
AcDbEntity
  8
s005-#def-solid-edge
  6
CONTINUOUS
 62
    7
420
    0
370
   35
100
AcDbVertex
100
AcDb2dVertex
 10
-283.2749941012389
 20
-97.7459915449698
 30
0
  0
VERTEX
  5
348
100
AcDbEntity
  8
s005-#def-solid-edge
  6
CONTINUOUS
 62
    7
420
    0
370
   35
100
AcDbVertex
100
AcDb2dVertex
 10
-283.337345711406
 20
-97.7168667022727
 30
0
  0
VERTEX
  5
349
100
AcDbEntity
  8
s005-#def-solid-edge
  6
CONTINUOUS
 62
    7
420
    0
370
   35
100
AcDbVertex
100
AcDb2dVertex
 10
-283.3877126898308
 20
-97.67374392721591
 30
0
  0
VERTEX
  5
34A
100
AcDbEntity
  8
s005-#def-solid-edge
  6
CONTINUOUS
 62
    7
420
    0
370
   35
100
AcDbVertex
100
AcDb2dVertex
 10
-283.4645465236088
 20
-97.60399385536957
 30
0
  0
VERTEX
  5
34B
100
AcDbEntity
  8
s005-#def-solid-edge
  6
CONTINUOUS
 62
    7
420
    0
370
   35
100
AcDbVertex
100
AcDb2dVertex
 10
-283.5562665408488
 20
-97.55064179596161
 30
0
  0
VERTEX
  5
34C
100
AcDbEntity
  8
s005-#def-solid-edge
  6
CONTINUOUS
 62
    7
420
    0
370
   35
100
AcDbVertex
100
AcDb2dVertex
 10
-283.6571794962008
 20
-97.51784577108484
 30
0
  0
VERTEX
  5
34D
100
AcDbEntity
  8
s005-#def-solid-edge
  6
CONTINUOUS
 62
    7
420
    0
370
   35
100
AcDbVertex
100
AcDb2dVertex
 10
-283.7603906860808
 20
-97.50707726054924
 30
0
  0
VERTEX
  5
34E
100
AcDbEntity
  8
s005-#def-solid-edge
  6
CONTINUOUS
 62
    7
420
    0
370
   35
100
AcDbVertex
100
AcDb2dVertex
 10
-302.6423566973308
 20
-97.50707726054924
 30
0
  0
VERTEX
  5
34F
100
AcDbEntity
  8
s005-#def-solid-edge
  6
CONTINUOUS
 62
    7
420
    0
370
   35
100
AcDbVertex
100
AcDb2dVertex
 10
-302.7455678872114
 20
-97.51784577108495
 30
0
  0
VERTEX
  5
350
100
AcDbEntity
  8
s005-#def-solid-edge
  6
CONTINUOUS
 62
    7
420
    0
370
   35
100
AcDbVertex
100
AcDb2dVertex
 10
-302.8464808425628
 20
-97.5506417959616
 30
0
  0
VERTEX
  5
351
100
AcDbEntity
  8
s005-#def-solid-edge
  6
CONTINUOUS
 62
    7
420
    0
370
   35
100
AcDbVertex
100
AcDb2dVertex
 10
-302.9382008598028
 20
-97.60399385536955
 30
0
  0
VERTEX
  5
352
100
AcDbEntity
  8
s005-#def-solid-edge
  6
CONTINUOUS
 62
    7
420
    0
370
   35
100
AcDbVertex
100
AcDb2dVertex
 10
-303.0150346935808
 20
-97.6737439272159
 30
0
  0
VERTEX
  5
353
100
AcDbEntity
  8
s005-#def-solid-edge
  6
CONTINUOUS
 62
    7
420
    0
370
   35
100
AcDbVertex
100
AcDb2dVertex
 10
-303.0654016720055
 20
-97.71686670227263
 30
0
  0
VERTEX
  5
354
100
AcDbEntity
  8
s005-#def-solid-edge
  6
CONTINUOUS
 62
    7
420
    0
370
   35
100
AcDbVertex
100
AcDb2dVertex
 10
-303.1277532821728
 20
-97.74599154496977
 30
0
  0
VERTEX
  5
355
100
AcDbEntity
  8
s005-#def-solid-edge
  6
CONTINUOUS
 62
    7
420
    0
370
   35
100
AcDbVertex
100
AcDb2dVertex
 10
-303.1956835286427
 20
-97.75701249624903
 30
0
  0
VERTEX
  5
356
100
AcDbEntity
  8
s005-#def-solid-edge
  6
CONTINUOUS
 62
    7
420
    0
370
   35
100
AcDbVertex
100
AcDb2dVertex
 10
-303.2615864380197
 20
-97.74971778721643
 30
0
  0
VERTEX
  5
357
100
AcDbEntity
  8
s005-#def-solid-edge
  6
CONTINUOUS
 62
    7
420
    0
370
   35
100
AcDbVertex
100
AcDb2dVertex
 10
-303.3232538322947
 20
-97.72535513695917
 30
0
  0
VERTEX
  5
358
100
AcDbEntity
  8
s005-#def-solid-edge
  6
CONTINUOUS
 62
    7
420
    0
370
   35
100
AcDbVertex
100
AcDb2dVertex
 10
-303.3781503870024
 20
-97.68385395584586
 30
0
  0
VERTEX
  5
359
100
AcDbEntity
  8
s005-#def-solid-edge
  6
CONTINUOUS
 62
    7
420
    0
370
   35
100
AcDbVertex
100
AcDb2dVertex
 10
-303.4196515681157
 20
-97.62895740113817
 30
0
  0
VERTEX
  5
35A
100
AcDbEntity
  8
s005-#def-solid-edge
  6
CONTINUOUS
 62
    7
420
    0
370
   35
100
AcDbVertex
100
AcDb2dVertex
 10
-303.444014218373
 20
-97.56729000686316
 30
0
  0
VERTEX
  5
35B
100
AcDbEntity
  8
s005-#def-solid-edge
  6
CONTINUOUS
 62
    7
420
    0
370
   35
100
AcDbVertex
100
AcDb2dVertex
 10
-303.4513089274053
 20
-97.50138709747085
 30
0
  0
VERTEX
  5
35C
100
AcDbEntity
  8
s005-#def-solid-edge
  6
CONTINUOUS
 62
    7
420
    0
370
   35
100
AcDbVertex
100
AcDb2dVertex
 10
-303.4402879761263
 20
-97.43345685101613
 30
0
  0
VERTEX
  5
35D
100
AcDbEntity
  8
s005-#def-solid-edge
  6
CONTINUOUS
 62
    7
420
    0
370
   35
100
AcDbVertex
100
AcDb2dVertex
 10
-303.4111631334292
 20
-97.37110524084898
 30
0
  0
VERTEX
  5
35E
100
AcDbEntity
  8
s005-#def-solid-edge
  6
CONTINUOUS
 62
    7
420
    0
370
   35
100
AcDbVertex
100
AcDb2dVertex
 10
-303.3680403583725
 20
-97.32073826242426
 30
0
  0
VERTEX
  5
35F
100
AcDbEntity
  8
s005-#def-solid-edge
  6
CONTINUOUS
 62
    7
420
    0
370
   35
100
AcDbVertex
100
AcDb2dVertex
 10
-303.2982902865261
 20
-97.24390442864629
 30
0
  0
VERTEX
  5
360
100
AcDbEntity
  8
s005-#def-solid-edge
  6
CONTINUOUS
 62
    7
420
    0
370
   35
100
AcDbVertex
100
AcDb2dVertex
 10
-303.2449382271181
 20
-97.15218441140621
 30
0
  0
VERTEX
  5
361
100
AcDbEntity
  8
s005-#def-solid-edge
  6
CONTINUOUS
 62
    7
420
    0
370
   35
100
AcDbVertex
100
AcDb2dVertex
 10
-303.2121422022414
 20
-97.05127145605424
 30
0
  0
VERTEX
  5
362
100
AcDbEntity
  8
s005-#def-solid-edge
  6
CONTINUOUS
 62
    7
420
    0
370
   35
100
AcDbVertex
100
AcDb2dVertex
 10
-303.2013736917058
 20
-96.94806026617429
 30
0
  0
VERTEX
  5
363
100
AcDbEntity
  8
s005-#def-solid-edge
  6
CONTINUOUS
 62
    7
420
    0
370
   35
100
AcDbVertex
100
AcDb2dVertex
 10
-303.2013736917058
 20
-95.06609425492418
 30
0
  0
VERTEX
  5
364
100
AcDbEntity
  8
s005-#def-solid-edge
  6
CONTINUOUS
 62
    7
420
    0
370
   35
100
AcDbVertex
100
AcDb2dVertex
 10
-303.2121422022415
 20
-94.96288306504363
 30
0
  0
VERTEX
  5
365
100
AcDbEntity
  8
s005-#def-solid-edge
  6
CONTINUOUS
 62
    7
420
    0
370
   35
100
AcDbVertex
100
AcDb2dVertex
 10
-303.2449382271182
 20
-94.86197010969225
 30
0
  0
VERTEX
  5
366
100
AcDbEntity
  8
s005-#def-solid-edge
  6
CONTINUOUS
 62
    7
420
    0
370
   35
100
AcDbVertex
100
AcDb2dVertex
 10
-303.2982902865261
 20
-94.77025009245219
 30
0
  0
VERTEX
  5
367
100
AcDbEntity
  8
s005-#def-solid-edge
  6
CONTINUOUS
 62
    7
420
    0
370
   35
100
AcDbVertex
100
AcDb2dVertex
 10
-303.3680403583725
 20
-94.69341625867423
 30
0
  0
VERTEX
  5
368
100
AcDbEntity
  8
s005-#def-solid-edge
  6
CONTINUOUS
 62
    7
420
    0
370
   35
100
AcDbVertex
100
AcDb2dVertex
 10
-303.4111631334375
 20
-94.64304928023672
 30
0
  0
VERTEX
  5
369
100
AcDbEntity
  8
s005-#def-solid-edge
  6
CONTINUOUS
 62
    7
420
    0
370
   35
100
AcDbVertex
100
AcDb2dVertex
 10
-303.4402879761263
 20
-94.58069767008237
 30
0
  0
VERTEX
  5
36A
100
AcDbEntity
  8
s005-#def-solid-edge
  6
CONTINUOUS
 62
    7
420
    0
370
   35
100
AcDbVertex
100
AcDb2dVertex
 10
-303.4513089274055
 20
-94.51276742361235
 30
0
  0
VERTEX
  5
36B
100
AcDbEntity
  8
s005-#def-solid-edge
  6
CONTINUOUS
 62
    7
420
    0
370
   35
100
AcDbVertex
100
AcDb2dVertex
 10
-303.444014218373
 20
-94.4468645142353
 30
0
  0
VERTEX
  5
36C
100
AcDbEntity
  8
s005-#def-solid-edge
  6
CONTINUOUS
 62
    7
420
    0
370
   35
100
AcDbVertex
100
AcDb2dVertex
 10
-303.4196515681083
 20
-94.38519711994698
 30
0
  0
VERTEX
  5
36D
100
AcDbEntity
  8
s005-#def-solid-edge
  6
CONTINUOUS
 62
    7
420
    0
370
   35
100
AcDbVertex
100
AcDb2dVertex
 10
-303.3781503870024
 20
-94.33030056525259
 30
0
  0
VERTEX
  5
36E
100
AcDbEntity
  8
s005-#def-solid-edge
  6
CONTINUOUS
 62
    7
420
    0
370
   35
100
AcDbVertex
100
AcDb2dVertex
 10
-303.3232538322948
 20
-94.28879938413931
 30
0
  0
VERTEX
  5
36F
100
AcDbEntity
  8
s005-#def-solid-edge
  6
CONTINUOUS
 62
    7
420
    0
370
   35
100
AcDbVertex
100
AcDb2dVertex
 10
-303.2615864380197
 20
-94.26443673388202
 30
0
  0
VERTEX
  5
370
100
AcDbEntity
  8
s005-#def-solid-edge
  6
CONTINUOUS
 62
    7
420
    0
370
   35
100
AcDbVertex
100
AcDb2dVertex
 10
-303.1956835286427
 20
-94.25714202484943
 30
0
  0
VERTEX
  5
371
100
AcDbEntity
  8
s005-#def-solid-edge
  6
CONTINUOUS
 62
    7
420
    0
370
   35
100
AcDbVertex
100
AcDb2dVertex
 10
-303.1277532821726
 20
-94.26816297612869
 30
0
  0
VERTEX
  5
372
100
AcDbEntity
  8
s005-#def-solid-edge
  6
CONTINUOUS
 62
    7
420
    0
370
   35
100
AcDbVertex
100
AcDb2dVertex
 10
-303.0654016720055
 20
-94.29728781882582
 30
0
  0
VERTEX
  5
373
100
AcDbEntity
  8
s005-#def-solid-edge
  6
CONTINUOUS
 62
    7
420
    0
370
   35
100
AcDbVertex
100
AcDb2dVertex
 10
-303.0150346935808
 20
-94.34041059388257
 30
0
  0
VERTEX
  5
374
100
AcDbEntity
  8
s005-#def-solid-edge
  6
CONTINUOUS
 62
    7
420
    0
370
   35
100
AcDbVertex
100
AcDb2dVertex
 10
-302.9382008598028
 20
-94.41016066572891
 30
0
  0
VERTEX
  5
375
100
AcDbEntity
  8
s005-#def-solid-edge
  6
CONTINUOUS
 62
    7
420
    0
370
   35
100
AcDbVertex
100
AcDb2dVertex
 10
-302.8464808425628
 20
-94.46351272513687
 30
0
  0
VERTEX
  5
376
100
AcDbEntity
  8
s005-#def-solid-edge
  6
CONTINUOUS
 62
    7
420
    0
370
   35
100
AcDbVertex
100
AcDb2dVertex
 10
-302.7455678872107
 20
-94.49630875001364
 30
0
  0
VERTEX
  5
377
100
AcDbEntity
  8
s005-#def-solid-edge
  6
CONTINUOUS
 62
    7
420
    0
370
   35
100
AcDbVertex
100
AcDb2dVertex
 10
-302.6423566973308
 20
-94.50707726054924
 30
0
  0
VERTEX
  5
378
100
AcDbEntity
  8
s005-#def-solid-edge
  6
CONTINUOUS
 62
    7
420
    0
370
   35
100
AcDbVertex
100
AcDb2dVertex
 10
-283.7603906860808
 20
-94.50707726054924
 30
0
  0
VERTEX
  5
379
100
AcDbEntity
  8
s005-#def-solid-edge
  6
CONTINUOUS
 62
    7
420
    0
370
   35
100
AcDbVertex
100
AcDb2dVertex
 10
-283.6571794962007
 20
-94.49630875001364
 30
0
  0
VERTEX
  5
37A
100
AcDbEntity
  8
s005-#def-solid-edge
  6
CONTINUOUS
 62
    7
420
    0
370
   35
100
AcDbVertex
100
AcDb2dVertex
 10
-283.5562665408488
 20
-94.46351272513688
 30
0
  0
VERTEX
  5
37B
100
AcDbEntity
  8
s005-#def-solid-edge
  6
CONTINUOUS
 62
    7
420
    0
370
   35
100
AcDbVertex
100
AcDb2dVertex
 10
-283.4645465236088
 20
-94.41016066572891
 30
0
  0
VERTEX
  5
37C
100
AcDbEntity
  8
s005-#def-solid-edge
  6
CONTINUOUS
 62
    7
420
    0
370
   35
100
AcDbVertex
100
AcDb2dVertex
 10
-283.3877126898307
 20
-94.34041059388259
 30
0
  0
VERTEX
  5
37D
100
AcDbEntity
  8
s005-#def-solid-edge
  6
CONTINUOUS
 62
    7
420
    0
370
   35
100
AcDbVertex
100
AcDb2dVertex
 10
-283.3373457114061
 20
-94.29728781882584
 30
0
  0
VERTEX
  5
37E
100
AcDbEntity
  8
s005-#def-solid-edge
  6
CONTINUOUS
 62
    7
420
    0
370
   35
100
AcDbVertex
100
AcDb2dVertex
 10
-283.2749941012388
 20
-94.26816297612871
 30
0
  0
VERTEX
  5
37F
100
AcDbEntity
  8
s005-#def-solid-edge
  6
CONTINUOUS
 62
    7
420
    0
370
   35
100
AcDbVertex
100
AcDb2dVertex
 10
-283.2070638547689
 20
-94.25714202484943
 30
0
  0
VERTEX
  5
380
100
AcDbEntity
  8
s005-#def-solid-edge
  6
CONTINUOUS
 62
    7
420
    0
370
   35
100
AcDbVertex
100
AcDb2dVertex
 10
-283.1411609453919
 20
-94.26443673388204
 30
0
  0
VERTEX
  5
381
100
AcDbEntity
  8
s005-#def-solid-edge
  6
CONTINUOUS
 62
    7
420
    0
370
   35
100
AcDbVertex
100
AcDb2dVertex
 10
-283.0794935511169
 20
-94.28879938413932
 30
0
  0
VERTEX
  5
382
100
AcDbEntity
  8
s005-#def-solid-edge
  6
CONTINUOUS
 62
    7
420
    0
370
   35
100
AcDbVertex
100
AcDb2dVertex
 10
-283.0245969964092
 20
-94.33030056525261
 30
0
  0
VERTEX
  5
383
100
AcDbEntity
  8
s005-#def-solid-edge
  6
CONTINUOUS
 62
    7
420
    0
370
   35
100
AcDbVertex
100
AcDb2dVertex
 10
-282.9830958152959
 20
-94.38519711996032
 30
0
  0
VERTEX
  5
384
100
AcDbEntity
  8
s005-#def-solid-edge
  6
CONTINUOUS
 62
    7
420
    0
370
   35
100
AcDbVertex
100
AcDb2dVertex
 10
-282.9587331650386
 20
-94.4468645142353
 30
0
  0
VERTEX
  5
385
100
AcDbEntity
  8
s005-#def-solid-edge
  6
CONTINUOUS
 62
    7
420
    0
370
   35
100
AcDbVertex
100
AcDb2dVertex
 10
-282.951438456006
 20
-94.51276742361235
 30
0
  0
VERTEX
  5
386
100
AcDbEntity
  8
s005-#def-solid-edge
  6
CONTINUOUS
 62
    7
420
    0
370
   35
100
AcDbVertex
100
AcDb2dVertex
 10
-282.9624594072852
 20
-94.58069767008234
 30
0
  0
VERTEX
  5
387
100
AcDbEntity
  8
s005-#def-solid-edge
  6
CONTINUOUS
 62
    7
420
    0
370
   35
100
AcDbVertex
100
AcDb2dVertex
 10
-282.9915842499823
 20
-94.64304928024949
 30
0
  0
VERTEX
  5
388
100
AcDbEntity
  8
s005-#def-solid-edge
  6
CONTINUOUS
 62
    7
420
    0
370
   35
100
AcDbVertex
100
AcDb2dVertex
 10
-283.0347070250391
 20
-94.69341625867422
 30
0
  0
VERTEX
  5
389
100
AcDbEntity
  8
s005-#def-solid-edge
  6
CONTINUOUS
 62
    7
420
    0
370
   35
100
AcDbVertex
100
AcDb2dVertex
 10
-283.1044570968855
 20
-94.77025009245219
 30
0
  0
VERTEX
  5
38A
100
AcDbEntity
  8
s005-#def-solid-edge
  6
CONTINUOUS
 62
    7
420
    0
370
   35
100
AcDbVertex
100
AcDb2dVertex
 10
-283.1578091562934
 20
-94.86197010969225
 30
0
  0
VERTEX
  5
38B
100
AcDbEntity
  8
s005-#def-solid-edge
  6
CONTINUOUS
 62
    7
420
    0
370
   35
100
AcDbVertex
100
AcDb2dVertex
 10
-283.1906051811702
 20
-94.96288306504422
 30
0
  0
VERTEX
  5
38C
100
AcDbEntity
  8
s005-#def-solid-edge
  6
CONTINUOUS
 62
    7
420
    0
370
   35
100
AcDbVertex
100
AcDb2dVertex
 10
-283.2013736917058
 20
-95.0660942549242
 30
0
  0
VERTEX
  5
38D
100
AcDbEntity
  8
s005-#def-solid-edge
  6
CONTINUOUS
 62
    7
420
    0
370
   35
100
AcDbVertex
100
AcDb2dVertex
 10
-283.2013736917058
 20
-96.94806026617429
 30
0
  0
VERTEX
  5
38E
100
AcDbEntity
  8
s005-#def-solid-edge
  6
CONTINUOUS
 62
    7
420
    0
370
   35
100
AcDbVertex
100
AcDb2dVertex
 10
-283.1906051811702
 20
-97.05127145605424
 30
0
  0
VERTEX
  5
38F
100
AcDbEntity
  8
s005-#def-solid-edge
  6
CONTINUOUS
 62
    7
420
    0
370
   35
100
AcDbVertex
100
AcDb2dVertex
 10
-283.1578091562934
 20
-97.15218441140622
 30
0
  0
VERTEX
  5
390
100
AcDbEntity
  8
s005-#def-solid-edge
  6
CONTINUOUS
 62
    7
420
    0
370
   35
100
AcDbVertex
100
AcDb2dVertex
 10
-283.1044570968855
 20
-97.24390442864629
 30
0
  0
VERTEX
  5
391
100
AcDbEntity
  8
s005-#def-solid-edge
  6
CONTINUOUS
 62
    7
420
    0
370
   35
100
AcDbVertex
100
AcDb2dVertex
 10
-283.0347070250391
 20
-97.32073826242424
 30
0
  0
VERTEX
  5
392
100
AcDbEntity
  8
s005-#def-solid-edge
  6
CONTINUOUS
 62
    7
420
    0
370
   35
100
AcDbVertex
100
AcDb2dVertex
 10
-282.9915842499741
 20
-97.37110524086177
 30
0
  0
VERTEX
  5
393
100
AcDbEntity
  8
s005-#def-solid-edge
  6
CONTINUOUS
 62
    7
420
    0
370
   35
100
AcDbVertex
100
AcDb2dVertex
 10
-282.9624594072852
 20
-97.43345685101615
 30
0
  0
VERTEX
  5
394
100
AcDbEntity
  8
s005-#def-solid-edge
  6
CONTINUOUS
 62
    7
420
    0
370
   35
100
AcDbVertex
100
AcDb2dVertex
 10
-282.951438456006
 20
-97.50138709748613
 30
0
  0
VERTEX
  5
395
100
AcDbEntity
  8
s005-#def-solid-edge
  6
CONTINUOUS
 62
    7
420
    0
370
   35
100
AcDbVertex
100
AcDb2dVertex
 10
-282.9587331650386
 20
-97.56729000686316
 30
0
  0
VERTEX
  5
396
100
AcDbEntity
  8
s005-#def-solid-edge
  6
CONTINUOUS
 62
    7
420
    0
370
   35
100
AcDbVertex
100
AcDb2dVertex
 10
-282.9830958152958
 20
-97.62895740113817
 30
0
  0
VERTEX
  5
397
100
AcDbEntity
  8
s005-#def-solid-edge
  6
CONTINUOUS
 62
    7
420
    0
370
   35
100
AcDbVertex
100
AcDb2dVertex
 10
-283.0245969964091
 20
-97.6838539558459
 30
0
  0
VERTEX
  5
398
100
AcDbEntity
  8
s005-#def-solid-edge
  6
CONTINUOUS
 62
    7
420
    0
370
   35
100
AcDbVertex
100
AcDb2dVertex
 10
-283.0794935511169
 20
-97.72535513695917
 30
0
  0
VERTEX
  5
399
100
AcDbEntity
  8
s005-#def-solid-edge
  6
CONTINUOUS
 62
    7
420
    0
370
   35
100
AcDbVertex
100
AcDb2dVertex
 10
-283.1411609453918
 20
-97.74971778721645
 30
0
  0
SEQEND
  5
39A
100
AcDbEntity
  8
s005-#def-solid-edge
  6
CONTINUOUS
 62
    7
420
    0
370
   35
  0
POLYLINE
  5
39B
100
AcDbEntity
  8
s005-#def-solid-edge
  6
CONTINUOUS
 62
    7
420
    0
370
   35
100
AcDb2dPolyline
 10
0
 20
0
 30
0
 70
    0
  0
VERTEX
  5
39C
100
AcDbEntity
  8
s005-#def-solid-edge
  6
CONTINUOUS
 62
    7
420
    0
370
   35
100
AcDbVertex
100
AcDb2dVertex
 10
-256.5239989869277
 20
-97.74599154496977
 30
0
  0
VERTEX
  5
39D
100
AcDbEntity
  8
s005-#def-solid-edge
  6
CONTINUOUS
 62
    7
420
    0
370
   35
100
AcDbVertex
100
AcDb2dVertex
 10
-256.5919292333977
 20
-97.75701249624903
 30
0
  0
VERTEX
  5
39E
100
AcDbEntity
  8
s005-#def-solid-edge
  6
CONTINUOUS
 62
    7
420
    0
370
   35
100
AcDbVertex
100
AcDb2dVertex
 10
-256.6578321427747
 20
-97.74971778721643
 30
0
  0
VERTEX
  5
39F
100
AcDbEntity
  8
s005-#def-solid-edge
  6
CONTINUOUS
 62
    7
420
    0
370
   35
100
AcDbVertex
100
AcDb2dVertex
 10
-256.7194995370497
 20
-97.72535513695917
 30
0
  0
VERTEX
  5
3A0
100
AcDbEntity
  8
s005-#def-solid-edge
  6
CONTINUOUS
 62
    7
420
    0
370
   35
100
AcDbVertex
100
AcDb2dVertex
 10
-256.7743960917575
 20
-97.68385395584586
 30
0
  0
VERTEX
  5
3A1
100
AcDbEntity
  8
s005-#def-solid-edge
  6
CONTINUOUS
 62
    7
420
    0
370
   35
100
AcDbVertex
100
AcDb2dVertex
 10
-256.8158972728708
 20
-97.62895740113815
 30
0
  0
VERTEX
  5
3A2
100
AcDbEntity
  8
s005-#def-solid-edge
  6
CONTINUOUS
 62
    7
420
    0
370
   35
100
AcDbVertex
100
AcDb2dVertex
 10
-256.840259923128
 20
-97.56729000686316
 30
0
  0
VERTEX
  5
3A3
100
AcDbEntity
  8
s005-#def-solid-edge
  6
CONTINUOUS
 62
    7
420
    0
370
   35
100
AcDbVertex
100
AcDb2dVertex
 10
-256.8475546321603
 20
-97.50138709747085
 30
0
  0
VERTEX
  5
3A4
100
AcDbEntity
  8
s005-#def-solid-edge
  6
CONTINUOUS
 62
    7
420
    0
370
   35
100
AcDbVertex
100
AcDb2dVertex
 10
-256.8365336808814
 20
-97.43345685101613
 30
0
  0
VERTEX
  5
3A5
100
AcDbEntity
  8
s005-#def-solid-edge
  6
CONTINUOUS
 62
    7
420
    0
370
   35
100
AcDbVertex
100
AcDb2dVertex
 10
-256.8074088381842
 20
-97.37110524084898
 30
0
  0
VERTEX
  5
3A6
100
AcDbEntity
  8
s005-#def-solid-edge
  6
CONTINUOUS
 62
    7
420
    0
370
   35
100
AcDbVertex
100
AcDb2dVertex
 10
-256.7642860631274
 20
-97.32073826242426
 30
0
  0
VERTEX
  5
3A7
100
AcDbEntity
  8
s005-#def-solid-edge
  6
CONTINUOUS
 62
    7
420
    0
370
   35
100
AcDbVertex
100
AcDb2dVertex
 10
-256.6945359912808
 20
-97.24390442864579
 30
0
  0
VERTEX
  5
3A8
100
AcDbEntity
  8
s005-#def-solid-edge
  6
CONTINUOUS
 62
    7
420
    0
370
   35
100
AcDbVertex
100
AcDb2dVertex
 10
-256.6411839318732
 20
-97.15218441140621
 30
0
  0
VERTEX
  5
3A9
100
AcDbEntity
  8
s005-#def-solid-edge
  6
CONTINUOUS
 62
    7
420
    0
370
   35
100
AcDbVertex
100
AcDb2dVertex
 10
-256.6083879069963
 20
-97.05127145605424
 30
0
  0
VERTEX
  5
3AA
100
AcDbEntity
  8
s005-#def-solid-edge
  6
CONTINUOUS
 62
    7
420
    0
370
   35
100
AcDbVertex
100
AcDb2dVertex
 10
-256.5976193964608
 20
-96.94806026617428
 30
0
  0
VERTEX
  5
3AB
100
AcDbEntity
  8
s005-#def-solid-edge
  6
CONTINUOUS
 62
    7
420
    0
370
   35
100
AcDbVertex
100
AcDb2dVertex
 10
-256.5976193964608
 20
-95.06609425492418
 30
0
  0
VERTEX
  5
3AC
100
AcDbEntity
  8
s005-#def-solid-edge
  6
CONTINUOUS
 62
    7
420
    0
370
   35
100
AcDbVertex
100
AcDb2dVertex
 10
-256.6083879069964
 20
-94.96288306504424
 30
0
  0
VERTEX
  5
3AD
100
AcDbEntity
  8
s005-#def-solid-edge
  6
CONTINUOUS
 62
    7
420
    0
370
   35
100
AcDbVertex
100
AcDb2dVertex
 10
-256.6411839318731
 20
-94.86197010969225
 30
0
  0
VERTEX
  5
3AE
100
AcDbEntity
  8
s005-#def-solid-edge
  6
CONTINUOUS
 62
    7
420
    0
370
   35
100
AcDbVertex
100
AcDb2dVertex
 10
-256.6945359912811
 20
-94.7702500924522
 30
0
  0
VERTEX
  5
3AF
100
AcDbEntity
  8
s005-#def-solid-edge
  6
CONTINUOUS
 62
    7
420
    0
370
   35
100
AcDbVertex
100
AcDb2dVertex
 10
-256.7642860631274
 20
-94.69341625867423
 30
0
  0
VERTEX
  5
3B0
100
AcDbEntity
  8
s005-#def-solid-edge
  6
CONTINUOUS
 62
    7
420
    0
370
   35
100
AcDbVertex
100
AcDb2dVertex
 10
-256.8074088381842
 20
-94.64304928024956
 30
0
  0
VERTEX
  5
3B1
100
AcDbEntity
  8
s005-#def-solid-edge
  6
CONTINUOUS
 62
    7
420
    0
370
   35
100
AcDbVertex
100
AcDb2dVertex
 10
-256.8365336808813
 20
-94.58069767008236
 30
0
  0
VERTEX
  5
3B2
100
AcDbEntity
  8
s005-#def-solid-edge
  6
CONTINUOUS
 62
    7
420
    0
370
   35
100
AcDbVertex
100
AcDb2dVertex
 10
-256.8475546321606
 20
-94.5127674236124
 30
0
  0
VERTEX
  5
3B3
100
AcDbEntity
  8
s005-#def-solid-edge
  6
CONTINUOUS
 62
    7
420
    0
370
   35
100
AcDbVertex
100
AcDb2dVertex
 10
-256.840259923128
 20
-94.4468645142353
 30
0
  0
VERTEX
  5
3B4
100
AcDbEntity
  8
s005-#def-solid-edge
  6
CONTINUOUS
 62
    7
420
    0
370
   35
100
AcDbVertex
100
AcDb2dVertex
 10
-256.8158972728708
 20
-94.3851971199603
 30
0
  0
VERTEX
  5
3B5
100
AcDbEntity
  8
s005-#def-solid-edge
  6
CONTINUOUS
 62
    7
420
    0
370
   35
100
AcDbVertex
100
AcDb2dVertex
 10
-256.7743960917575
 20
-94.3303005652526
 30
0
  0
VERTEX
  5
3B6
100
AcDbEntity
  8
s005-#def-solid-edge
  6
CONTINUOUS
 62
    7
420
    0
370
   35
100
AcDbVertex
100
AcDb2dVertex
 10
-256.7194995370498
 20
-94.28879938413935
 30
0
  0
VERTEX
  5
3B7
100
AcDbEntity
  8
s005-#def-solid-edge
  6
CONTINUOUS
 62
    7
420
    0
370
   35
100
AcDbVertex
100
AcDb2dVertex
 10
-256.6578321427747
 20
-94.26443673388202
 30
0
  0
VERTEX
  5
3B8
100
AcDbEntity
  8
s005-#def-solid-edge
  6
CONTINUOUS
 62
    7
420
    0
370
   35
100
AcDbVertex
100
AcDb2dVertex
 10
-256.5919292333977
 20
-94.25714202484943
 30
0
  0
VERTEX
  5
3B9
100
AcDbEntity
  8
s005-#def-solid-edge
  6
CONTINUOUS
 62
    7
420
    0
370
   35
100
AcDbVertex
100
AcDb2dVertex
 10
-256.5239989869277
 20
-94.26816297612869
 30
0
  0
VERTEX
  5
3BA
100
AcDbEntity
  8
s005-#def-solid-edge
  6
CONTINUOUS
 62
    7
420
    0
370
   35
100
AcDbVertex
100
AcDb2dVertex
 10
-256.4616473767605
 20
-94.29728781882582
 30
0
  0
VERTEX
  5
3BB
100
AcDbEntity
  8
s005-#def-solid-edge
  6
CONTINUOUS
 62
    7
420
    0
370
   35
100
AcDbVertex
100
AcDb2dVertex
 10
-256.4112803983358
 20
-94.34041059388257
 30
0
  0
VERTEX
  5
3BC
100
AcDbEntity
  8
s005-#def-solid-edge
  6
CONTINUOUS
 62
    7
420
    0
370
   35
100
AcDbVertex
100
AcDb2dVertex
 10
-256.3344465645573
 20
-94.41016066572928
 30
0
  0
VERTEX
  5
3BD
100
AcDbEntity
  8
s005-#def-solid-edge
  6
CONTINUOUS
 62
    7
420
    0
370
   35
100
AcDbVertex
100
AcDb2dVertex
 10
-256.2427265473178
 20
-94.46351272513687
 30
0
  0
VERTEX
  5
3BE
100
AcDbEntity
  8
s005-#def-solid-edge
  6
CONTINUOUS
 62
    7
420
    0
370
   35
100
AcDbVertex
100
AcDb2dVertex
 10
-256.1418135919658
 20
-94.49630875001364
 30
0
  0
VERTEX
  5
3BF
100
AcDbEntity
  8
s005-#def-solid-edge
  6
CONTINUOUS
 62
    7
420
    0
370
   35
100
AcDbVertex
100
AcDb2dVertex
 10
-256.0386024020859
 20
-94.50707726054924
 30
0
  0
VERTEX
  5
3C0
100
AcDbEntity
  8
s005-#def-solid-edge
  6
CONTINUOUS
 62
    7
420
    0
370
   35
100
AcDbVertex
100
AcDb2dVertex
 10
-237.1566363908358
 20
-94.50707726054924
 30
0
  0
VERTEX
  5
3C1
100
AcDbEntity
  8
s005-#def-solid-edge
  6
CONTINUOUS
 62
    7
420
    0
370
   35
100
AcDbVertex
100
AcDb2dVertex
 10
-237.0534252009558
 20
-94.49630875001364
 30
0
  0
VERTEX
  5
3C2
100
AcDbEntity
  8
s005-#def-solid-edge
  6
CONTINUOUS
 62
    7
420
    0
370
   35
100
AcDbVertex
100
AcDb2dVertex
 10
-236.9525122456038
 20
-94.46351272513688
 30
0
  0
VERTEX
  5
3C3
100
AcDbEntity
  8
s005-#def-solid-edge
  6
CONTINUOUS
 62
    7
420
    0
370
   35
100
AcDbVertex
100
AcDb2dVertex
 10
-236.8607922283637
 20
-94.41016066572891
 30
0
  0
VERTEX
  5
3C4
100
AcDbEntity
  8
s005-#def-solid-edge
  6
CONTINUOUS
 62
    7
420
    0
370
   35
100
AcDbVertex
100
AcDb2dVertex
 10
-236.7839583945858
 20
-94.34041059388259
 30
0
  0
VERTEX
  5
3C5
100
AcDbEntity
  8
s005-#def-solid-edge
  6
CONTINUOUS
 62
    7
420
    0
370
   35
100
AcDbVertex
100
AcDb2dVertex
 10
-236.7335914161611
 20
-94.29728781882584
 30
0
  0
VERTEX
  5
3C6
100
AcDbEntity
  8
s005-#def-solid-edge
  6
CONTINUOUS
 62
    7
420
    0
370
   35
100
AcDbVertex
100
AcDb2dVertex
 10
-236.6712398059939
 20
-94.26816297612871
 30
0
  0
VERTEX
  5
3C7
100
AcDbEntity
  8
s005-#def-solid-edge
  6
CONTINUOUS
 62
    7
420
    0
370
   35
100
AcDbVertex
100
AcDb2dVertex
 10
-236.6033095595239
 20
-94.25714202484943
 30
0
  0
VERTEX
  5
3C8
100
AcDbEntity
  8
s005-#def-solid-edge
  6
CONTINUOUS
 62
    7
420
    0
370
   35
100
AcDbVertex
100
AcDb2dVertex
 10
-236.5374066501469
 20
-94.26443673388204
 30
0
  0
VERTEX
  5
3C9
100
AcDbEntity
  8
s005-#def-solid-edge
  6
CONTINUOUS
 62
    7
420
    0
370
   35
100
AcDbVertex
100
AcDb2dVertex
 10
-236.4757392558719
 20
-94.28879938413932
 30
0
  0
VERTEX
  5
3CA
100
AcDbEntity
  8
s005-#def-solid-edge
  6
CONTINUOUS
 62
    7
420
    0
370
   35
100
AcDbVertex
100
AcDb2dVertex
 10
-236.4208427011642
 20
-94.33030056525261
 30
0
  0
VERTEX
  5
3CB
100
AcDbEntity
  8
s005-#def-solid-edge
  6
CONTINUOUS
 62
    7
420
    0
370
   35
100
AcDbVertex
100
AcDb2dVertex
 10
-236.3793415200509
 20
-94.38519711996032
 30
0
  0
VERTEX
  5
3CC
100
AcDbEntity
  8
s005-#def-solid-edge
  6
CONTINUOUS
 62
    7
420
    0
370
   35
100
AcDbVertex
100
AcDb2dVertex
 10
-236.3549788697936
 20
-94.4468645142353
 30
0
  0
VERTEX
  5
3CD
100
AcDbEntity
  8
s005-#def-solid-edge
  6
CONTINUOUS
 62
    7
420
    0
370
   35
100
AcDbVertex
100
AcDb2dVertex
 10
-236.347684160761
 20
-94.51276742361235
 30
0
  0
VERTEX
  5
3CE
100
AcDbEntity
  8
s005-#def-solid-edge
  6
CONTINUOUS
 62
    7
420
    0
370
   35
100
AcDbVertex
100
AcDb2dVertex
 10
-236.3587051120403
 20
-94.58069767008234
 30
0
  0
VERTEX
  5
3CF
100
AcDbEntity
  8
s005-#def-solid-edge
  6
CONTINUOUS
 62
    7
420
    0
370
   35
100
AcDbVertex
100
AcDb2dVertex
 10
-236.3878299547374
 20
-94.64304928024954
 30
0
  0
VERTEX
  5
3D0
100
AcDbEntity
  8
s005-#def-solid-edge
  6
CONTINUOUS
 62
    7
420
    0
370
   35
100
AcDbVertex
100
AcDb2dVertex
 10
-236.4309527297941
 20
-94.69341625867422
 30
0
  0
VERTEX
  5
3D1
100
AcDbEntity
  8
s005-#def-solid-edge
  6
CONTINUOUS
 62
    7
420
    0
370
   35
100
AcDbVertex
100
AcDb2dVertex
 10
-236.5007028016408
 20
-94.77025009245268
 30
0
  0
VERTEX
  5
3D2
100
AcDbEntity
  8
s005-#def-solid-edge
  6
CONTINUOUS
 62
    7
420
    0
370
   35
100
AcDbVertex
100
AcDb2dVertex
 10
-236.5540548610484
 20
-94.86197010969225
 30
0
  0
VERTEX
  5
3D3
100
AcDbEntity
  8
s005-#def-solid-edge
  6
CONTINUOUS
 62
    7
420
    0
370
   35
100
AcDbVertex
100
AcDb2dVertex
 10
-236.5868508859253
 20
-94.96288306504424
 30
0
  0
VERTEX
  5
3D4
100
AcDbEntity
  8
s005-#def-solid-edge
  6
CONTINUOUS
 62
    7
420
    0
370
   35
100
AcDbVertex
100
AcDb2dVertex
 10
-236.5976193964608
 20
-95.0660942549242
 30
0
  0
VERTEX
  5
3D5
100
AcDbEntity
  8
s005-#def-solid-edge
  6
CONTINUOUS
 62
    7
420
    0
370
   35
100
AcDbVertex
100
AcDb2dVertex
 10
-236.5976193964608
 20
-96.94806026617429
 30
0
  0
VERTEX
  5
3D6
100
AcDbEntity
  8
s005-#def-solid-edge
  6
CONTINUOUS
 62
    7
420
    0
370
   35
100
AcDbVertex
100
AcDb2dVertex
 10
-236.5868508859253
 20
-97.05127145605424
 30
0
  0
VERTEX
  5
3D7
100
AcDbEntity
  8
s005-#def-solid-edge
  6
CONTINUOUS
 62
    7
420
    0
370
   35
100
AcDbVertex
100
AcDb2dVertex
 10
-236.5540548610485
 20
-97.15218441140622
 30
0
  0
VERTEX
  5
3D8
100
AcDbEntity
  8
s005-#def-solid-edge
  6
CONTINUOUS
 62
    7
420
    0
370
   35
100
AcDbVertex
100
AcDb2dVertex
 10
-236.5007028016405
 20
-97.24390442864627
 30
0
  0
VERTEX
  5
3D9
100
AcDbEntity
  8
s005-#def-solid-edge
  6
CONTINUOUS
 62
    7
420
    0
370
   35
100
AcDbVertex
100
AcDb2dVertex
 10
-236.4309527297941
 20
-97.32073826242424
 30
0
  0
VERTEX
  5
3DA
100
AcDbEntity
  8
s005-#def-solid-edge
  6
CONTINUOUS
 62
    7
420
    0
370
   35
100
AcDbVertex
100
AcDb2dVertex
 10
-236.3878299547291
 20
-97.37110524086174
 30
0
  0
VERTEX
  5
3DB
100
AcDbEntity
  8
s005-#def-solid-edge
  6
CONTINUOUS
 62
    7
420
    0
370
   35
100
AcDbVertex
100
AcDb2dVertex
 10
-236.3587051120403
 20
-97.43345685101613
 30
0
  0
VERTEX
  5
3DC
100
AcDbEntity
  8
s005-#def-solid-edge
  6
CONTINUOUS
 62
    7
420
    0
370
   35
100
AcDbVertex
100
AcDb2dVertex
 10
-236.347684160761
 20
-97.50138709748613
 30
0
  0
VERTEX
  5
3DD
100
AcDbEntity
  8
s005-#def-solid-edge
  6
CONTINUOUS
 62
    7
420
    0
370
   35
100
AcDbVertex
100
AcDb2dVertex
 10
-236.3549788697936
 20
-97.56729000686316
 30
0
  0
VERTEX
  5
3DE
100
AcDbEntity
  8
s005-#def-solid-edge
  6
CONTINUOUS
 62
    7
420
    0
370
   35
100
AcDbVertex
100
AcDb2dVertex
 10
-236.3793415200508
 20
-97.62895740113817
 30
0
  0
VERTEX
  5
3DF
100
AcDbEntity
  8
s005-#def-solid-edge
  6
CONTINUOUS
 62
    7
420
    0
370
   35
100
AcDbVertex
100
AcDb2dVertex
 10
-236.4208427011642
 20
-97.6838539558459
 30
0
  0
VERTEX
  5
3E0
100
AcDbEntity
  8
s005-#def-solid-edge
  6
CONTINUOUS
 62
    7
420
    0
370
   35
100
AcDbVertex
100
AcDb2dVertex
 10
-236.4757392558719
 20
-97.72535513695917
 30
0
  0
VERTEX
  5
3E1
100
AcDbEntity
  8
s005-#def-solid-edge
  6
CONTINUOUS
 62
    7
420
    0
370
   35
100
AcDbVertex
100
AcDb2dVertex
 10
-236.5374066501469
 20
-97.74971778721645
 30
0
  0
VERTEX
  5
3E2
100
AcDbEntity
  8
s005-#def-solid-edge
  6
CONTINUOUS
 62
    7
420
    0
370
   35
100
AcDbVertex
100
AcDb2dVertex
 10
-236.6033095595239
 20
-97.75701249624906
 30
0
  0
VERTEX
  5
3E3
100
AcDbEntity
  8
s005-#def-solid-edge
  6
CONTINUOUS
 62
    7
420
    0
370
   35
100
AcDbVertex
100
AcDb2dVertex
 10
-236.6712398059939
 20
-97.7459915449698
 30
0
  0
VERTEX
  5
3E4
100
AcDbEntity
  8
s005-#def-solid-edge
  6
CONTINUOUS
 62
    7
420
    0
370
   35
100
AcDbVertex
100
AcDb2dVertex
 10
-236.7335914161611
 20
-97.71686670227268
 30
0
  0
VERTEX
  5
3E5
100
AcDbEntity
  8
s005-#def-solid-edge
  6
CONTINUOUS
 62
    7
420
    0
370
   35
100
AcDbVertex
100
AcDb2dVertex
 10
-236.7839583945858
 20
-97.67374392721591
 30
0
  0
VERTEX
  5
3E6
100
AcDbEntity
  8
s005-#def-solid-edge
  6
CONTINUOUS
 62
    7
420
    0
370
   35
100
AcDbVertex
100
AcDb2dVertex
 10
-236.8607922283642
 20
-97.60399385536921
 30
0
  0
VERTEX
  5
3E7
100
AcDbEntity
  8
s005-#def-solid-edge
  6
CONTINUOUS
 62
    7
420
    0
370
   35
100
AcDbVertex
100
AcDb2dVertex
 10
-236.9525122456038
 20
-97.55064179596161
 30
0
  0
VERTEX
  5
3E8
100
AcDbEntity
  8
s005-#def-solid-edge
  6
CONTINUOUS
 62
    7
420
    0
370
   35
100
AcDbVertex
100
AcDb2dVertex
 10
-237.0534252009558
 20
-97.51784577108484
 30
0
  0
VERTEX
  5
3E9
100
AcDbEntity
  8
s005-#def-solid-edge
  6
CONTINUOUS
 62
    7
420
    0
370
   35
100
AcDbVertex
100
AcDb2dVertex
 10
-237.1566363908358
 20
-97.50707726054924
 30
0
  0
VERTEX
  5
3EA
100
AcDbEntity
  8
s005-#def-solid-edge
  6
CONTINUOUS
 62
    7
420
    0
370
   35
100
AcDbVertex
100
AcDb2dVertex
 10
-256.0386024020859
 20
-97.50707726054924
 30
0
  0
VERTEX
  5
3EB
100
AcDbEntity
  8
s005-#def-solid-edge
  6
CONTINUOUS
 62
    7
420
    0
370
   35
100
AcDbVertex
100
AcDb2dVertex
 10
-256.1418135919664
 20
-97.51784577108495
 30
0
  0
VERTEX
  5
3EC
100
AcDbEntity
  8
s005-#def-solid-edge
  6
CONTINUOUS
 62
    7
420
    0
370
   35
100
AcDbVertex
100
AcDb2dVertex
 10
-256.2427265473178
 20
-97.5506417959616
 30
0
  0
VERTEX
  5
3ED
100
AcDbEntity
  8
s005-#def-solid-edge
  6
CONTINUOUS
 62
    7
420
    0
370
   35
100
AcDbVertex
100
AcDb2dVertex
 10
-256.3344465645578
 20
-97.60399385536957
 30
0
  0
VERTEX
  5
3EE
100
AcDbEntity
  8
s005-#def-solid-edge
  6
CONTINUOUS
 62
    7
420
    0
370
   35
100
AcDbVertex
100
AcDb2dVertex
 10
-256.4112803983359
 20
-97.6737439272159
 30
0
  0
VERTEX
  5
3EF
100
AcDbEntity
  8
s005-#def-solid-edge
  6
CONTINUOUS
 62
    7
420
    0
370
   35
100
AcDbVertex
100
AcDb2dVertex
 10
-256.4616473767605
 20
-97.71686670227263
 30
0
  0
VERTEX
  5
3F0
100
AcDbEntity
  8
s005-#def-solid-edge
  6
CONTINUOUS
 62
    7
420
    0
370
   35
100
AcDbVertex
100
AcDb2dVertex
 10
-256.5239989869277
 20
-97.74599154496977
 30
0
  0
SEQEND
  5
3F1
100
AcDbEntity
  8
s005-#def-solid-edge
  6
CONTINUOUS
 62
    7
420
    0
370
   35
  0
ENDSEC
  0
SECTION
  2
OBJECTS
  0
DICTIONARY
  5
C
330
0
100
AcDbDictionary
281
    1
  3
ACAD_GROUP
350
D
  0
DICTIONARY
  5
D
330
C
100
AcDbDictionary
281
    1
  0
ENDSEC
  0
EOF
