  0
SECTION
  2
HEADER
  9
$ACADVER
  1
AC1021
  9
$ACADMAINTVER
 70
    25
  9
$DWGCODEPAGE
  3
ANSI_1252
  9
$LASTSAVEDBY
  1
hff
  9
$INSBASE
 10
0.0
 20
0.0
 30
0.0
  9
$EXTMIN
 10
1.818055593413032
 20
2.096009091276585
 30
0.0
  9
$EXTMAX
 10
111.818055593413
 20
68.86253830227558
 30
0.0
  9
$LIMMIN
 10
0.0
 20
0.0
  9
$LIMMAX
 10
12.0
 20
9.0
  9
$ORTHOMODE
 70
     0
  9
$REGENMODE
 70
     1
  9
$FILLMODE
 70
     1
  9
$QTEXTMODE
 70
     0
  9
$MIRRTEXT
 70
     1
  9
$LTSCALE
 40
1.0
  9
$ATTMODE
 70
     1
  9
$TEXTSIZE
 40
0.2
  9
$TRACEWID
 40
0.05
  9
$TEXTSTYLE
  7
Standard
  9
$CLAYER
  8
Default
  9
$CELTYPE
  6
ByLayer
  9
$CECOLOR
 62
   256
  9
$CELTSCALE
 40
1.0
  9
$DISPSILH
 70
     0
  9
$DIMSCALE
 40
1.0
  9
$DIMASZ
 40
0.18
  9
$DIMEXO
 40
0.0625
  9
$DIMDLI
 40
0.38
  9
$DIMRND
 40
0.0
  9
$DIMDLE
 40
0.0
  9
$DIMEXE
 40
0.18
  9
$DIMTP
 40
0.0
  9
$DIMTM
 40
0.0
  9
$DIMTXT
 40
0.18
  9
$DIMCEN
 40
0.09
  9
$DIMTSZ
 40
0.0
  9
$DIMTOL
 70
     0
  9
$DIMLIM
 70
     0
  9
$DIMTIH
 70
     1
  9
$DIMTOH
 70
     1
  9
$DIMSE1
 70
     0
  9
$DIMSE2
 70
     0
  9
$DIMTAD
 70
     0
  9
$DIMZIN
 70
     0
  9
$DIMBLK
  1

  9
$DIMASO
 70
     1
  9
$DIMSHO
 70
     1
  9
$DIMPOST
  1

  9
$DIMAPOST
  1

  9
$DIMALT
 70
     0
  9
$DIMALTD
 70
     2
  9
$DIMALTF
 40
25.4
  9
$DIMLFAC
 40
1.0
  9
$DIMTOFL
 70
     0
  9
$DIMTVP
 40
0.0
  9
$DIMTIX
 70
     0
  9
$DIMSOXD
 70
     0
  9
$DIMSAH
 70
     0
  9
$DIMBLK1
  1

  9
$DIMBLK2
  1

  9
$DIMSTYLE
  2
STANDARD_ACAD
  9
$DIMCLRD
 70
     0
  9
$DIMCLRE
 70
     0
  9
$DIMCLRT
 70
     0
  9
$DIMTFAC
 40
1.0
  9
$DIMGAP
 40
0.09
  9
$DIMJUST
 70
     0
  9
$DIMSD1
 70
     0
  9
$DIMSD2
 70
     0
  9
$DIMTOLJ
 70
     1
  9
$DIMTZIN
 70
     0
  9
$DIMALTZ
 70
     0
  9
$DIMALTTZ
 70
     0
  9
$DIMUPT
 70
     0
  9
$DIMDEC
 70
     4
  9
$DIMTDEC
 70
     4
  9
$DIMALTU
 70
     2
  9
$DIMALTTD
 70
     2
  9
$DIMTXSTY
  7
Standard
  9
$DIMAUNIT
 70
     0
  9
$DIMADEC
 70
     0
  9
$DIMALTRND
 40
0.0
  9
$DIMAZIN
 70
     0
  9
$DIMDSEP
 70
    46
  9
$DIMATFIT
 70
     3
  9
$DIMFRAC
 70
     0
  9
$DIMLDRBLK
  1

  9
$DIMLUNIT
 70
     2
  9
$DIMLWD
 70
    -2
  9
$DIMLWE
 70
    -2
  9
$DIMTMOVE
 70
     2
  9
$DIMFXL
 40
1.0
  9
$DIMFXLON
 70
     0
  9
$DIMJOGANG
 40
0.7853981633974483
  9
$DIMTFILL
 70
     0
  9
$DIMTFILLCLR
 70
     0
  9
$DIMARCSYM
 70
     0
  9
$DIMLTYPE
  6

  9
$DIMLTEX1
  6

  9
$DIMLTEX2
  6

  9
$LUNITS
 70
     2
  9
$LUPREC
 70
     3
  9
$SKETCHINC
 40
0.1
  9
$FILLETRAD
 40
0.0
  9
$AUNITS
 70
     0
  9
$AUPREC
 70
     0
  9
$MENU
  1
.
  9
$ELEVATION
 40
0.0
  9
$PELEVATION
 40
0.0
  9
$THICKNESS
 40
0.0
  9
$LIMCHECK
 70
     0
  9
$CHAMFERA
 40
0.0
  9
$CHAMFERB
 40
0.0
  9
$CHAMFERC
 40
0.0
  9
$CHAMFERD
 40
0.0
  9
$SKPOLY
 70
     0
  9
$TDCREATE
 40
2459958.841669329
  9
$TDUCREATE
 40
2459958.841669329
  9
$TDUPDATE
 40
2459958.841708796
  9
$TDUUPDATE
 40
2459958.841708796
  9
$TDINDWG
 40
0.0000000116
  9
$TDUSRTIMER
 40
0.0000000116
  9
$USRTIMER
 70
     1
  9
$ANGBASE
 50
0.0
  9
$ANGDIR
 70
     0
  9
$PDMODE
 70
     0
  9
$PDSIZE
 40
0.0
  9
$PLINEWID
 40
0.0
  9
$SPLFRAME
 70
     0
  9
$SPLINETYPE
 70
     6
  9
$SPLINESEGS
 70
     8
  9
$HANDSEED
  5
43D
  9
$SURFTAB1
 70
     6
  9
$SURFTAB2
 70
     6
  9
$SURFTYPE
 70
     6
  9
$SURFU
 70
     6
  9
$SURFV
 70
     6
  9
$UCSBASE
  2

  9
$UCSNAME
  2

  9
$UCSORG
 10
0.0
 20
0.0
 30
0.0
  9
$UCSXDIR
 10
1.0
 20
0.0
 30
0.0
  9
$UCSYDIR
 10
0.0
 20
1.0
 30
0.0
  9
$UCSORTHOREF
  2

  9
$UCSORTHOVIEW
 70
     0
  9
$UCSORGTOP
 10
0.0
 20
0.0
 30
0.0
  9
$UCSORGBOTTOM
 10
0.0
 20
0.0
 30
0.0
  9
$UCSORGLEFT
 10
0.0
 20
0.0
 30
0.0
  9
$UCSORGRIGHT
 10
0.0
 20
0.0
 30
0.0
  9
$UCSORGFRONT
 10
0.0
 20
0.0
 30
0.0
  9
$UCSORGBACK
 10
0.0
 20
0.0
 30
0.0
  9
$PUCSBASE
  2

  9
$PUCSNAME
  2

  9
$PUCSORG
 10
0.0
 20
0.0
 30
0.0
  9
$PUCSXDIR
 10
1.0
 20
0.0
 30
0.0
  9
$PUCSYDIR
 10
0.0
 20
1.0
 30
0.0
  9
$PUCSORTHOREF
  2

  9
$PUCSORTHOVIEW
 70
     0
  9
$PUCSORGTOP
 10
0.0
 20
0.0
 30
0.0
  9
$PUCSORGBOTTOM
 10
0.0
 20
0.0
 30
0.0
  9
$PUCSORGLEFT
 10
0.0
 20
0.0
 30
0.0
  9
$PUCSORGRIGHT
 10
0.0
 20
0.0
 30
0.0
  9
$PUCSORGFRONT
 10
0.0
 20
0.0
 30
0.0
  9
$PUCSORGBACK
 10
0.0
 20
0.0
 30
0.0
  9
$USERI1
 70
     0
  9
$USERI2
 70
     0
  9
$USERI3
 70
     0
  9
$USERI4
 70
     0
  9
$USERI5
 70
     0
  9
$USERR1
 40
0.0
  9
$USERR2
 40
0.0
  9
$USERR3
 40
0.0
  9
$USERR4
 40
0.0
  9
$USERR5
 40
0.0
  9
$WORLDVIEW
 70
     1
  9
$SHADEDGE
 70
     3
  9
$SHADEDIF
 70
    70
  9
$TILEMODE
 70
     1
  9
$MAXACTVP
 70
    64
  9
$PINSBASE
 10
0.0
 20
0.0
 30
0.0
  9
$PLIMCHECK
 70
     0
  9
$PEXTMIN
 10
1.000000000000000E+20
 20
1.000000000000000E+20
 30
1.000000000000000E+20
  9
$PEXTMAX
 10
-1.000000000000000E+20
 20
-1.000000000000000E+20
 30
-1.000000000000000E+20
  9
$PLIMMIN
 10
0.0
 20
0.0
  9
$PLIMMAX
 10
12.0
 20
9.0
  9
$UNITMODE
 70
     0
  9
$VISRETAIN
 70
     1
  9
$PLINEGEN
 70
     0
  9
$PSLTSCALE
 70
     1
  9
$TREEDEPTH
 70
  3020
  9
$CMLSTYLE
  2
Standard
  9
$CMLJUST
 70
     0
  9
$CMLSCALE
 40
1.0
  9
$PROXYGRAPHICS
 70
     1
  9
$MEASUREMENT
 70
     1
  9
$CELWEIGHT
370
    -1
  9
$ENDCAPS
280
     0
  9
$JOINSTYLE
280
     0
  9
$LWDISPLAY
290
     0
  9
$INSUNITS
 70
     4
  9
$HYPERLINKBASE
  1

  9
$STYLESHEET
  1

  9
$XEDIT
290
     1
  9
$CEPSNTYPE
380
     0
  9
$PSTYLEMODE
290
     1
  9
$FINGERPRINTGUID
  2
{fe4a96b5-534f-ef4e-80ba-d63e0d76b456}
  9
$VERSIONGUID
  2
{FAEB1C32-E019-11D5-929B-00C0DF256EC4}
  9
$EXTNAMES
290
     1
  9
$PSVPSCALE
 40
0.0
  9
$OLESTARTUP
290
     0
  9
$SORTENTS
280
   127
  9
$INDEXCTL
280
     0
  9
$HIDETEXT
280
     1
  9
$XCLIPFRAME
290
     0
  9
$HALOGAP
280
     0
  9
$OBSCOLOR
 70
   257
  9
$OBSLTYPE
280
     0
  9
$INTERSECTIONDISPLAY
280
     0
  9
$INTERSECTIONCOLOR
 70
   257
  9
$DIMASSOC
280
     2
  9
$PROJECTNAME
  1

  9
$CAMERADISPLAY
290
     0
  9
$LENSLENGTH
 40
50.0
  9
$CAMERAHEIGHT
 40
0.0
  9
$STEPSPERSEC
 40
2.0
  9
$STEPSIZE
 40
6.0
  9
$3DDWFPREC
 40
2.0
  9
$PSOLWIDTH
 40
0.25
  9
$PSOLHEIGHT
 40
4.0
  9
$LOFTANG1
 40
1.570796326794897
  9
$LOFTANG2
 40
1.570796326794897
  9
$LOFTMAG1
 40
0.0
  9
$LOFTMAG2
 40
0.0
  9
$LOFTPARAM
 70
     7
  9
$LOFTNORMALS
280
     1
  9
$LATITUDE
 40
37.795
  9
$LONGITUDE
 40
-122.394
  9
$NORTHDIRECTION
 40
0.0
  9
$TIMEZONE
 70
 -8000
  9
$LIGHTGLYPHDISPLAY
280
     1
  9
$TILEMODELIGHTSYNCH
280
     1
  9
$CMATERIAL
347
44
  9
$SOLIDHIST
280
     0
  9
$SHOWHIST
280
     1
  9
$DWFFRAME
280
     2
  9
$DGNFRAME
280
     2
  9
$REALWORLDSCALE
290
     1
  9
$INTERFERECOLOR
 62
   256
  9
$CSHADOW
280
     0
  9
$SHADOWPLANELOCATION
 40
0.0
  0
ENDSEC
  0
SECTION
  2
CLASSES
  0
CLASS
  1
ACDBDICTIONARYWDFLT
  2
AcDbDictionaryWithDefault
  3
ObjectDBX Classes
 90
        0
 91
        3
280
     0
281
     0
  0
CLASS
  1
VISUALSTYLE
  2
AcDbVisualStyle
  3
ObjectDBX Classes
 90
     4095
 91
        3
280
     0
281
     0
  0
CLASS
  1
MATERIAL
  2
AcDbMaterial
  3
ObjectDBX Classes
 90
     1153
 91
        3
280
     0
281
     0
  0
CLASS
  1
SCALE
  2
AcDbScale
  3
ObjectDBX Classes
 90
     1153
 91
        3
280
     0
281
     0
  0
CLASS
  1
TABLESTYLE
  2
AcDbTableStyle
  3
ObjectDBX Classes
 90
     4095
 91
        3
280
     0
281
     0
  0
CLASS
  1
MLEADERSTYLE
  2
AcDbMLeaderStyle
  3
ACDB_MLEADERSTYLE_CLASS
 90
     4095
 91
        3
280
     0
281
     0
  0
CLASS
  1
SUN
  2
AcDbSun
  3
SCENEOE
 90
     1153
 91
        3
280
     0
281
     0
  0
CLASS
  1
DICTIONARYVAR
  2
AcDbDictionaryVar
  3
ObjectDBX Classes
 90
        0
 91
        3
280
     0
281
     0
  0
CLASS
  1
CELLSTYLEMAP
  2
AcDbCellStyleMap
  3
ObjectDBX Classes
 90
     1152
 91
        3
280
     0
281
     0
  0
ENDSEC
  0
SECTION
  2
TABLES
  0
TABLE
  2
VPORT
  5
8
330
0
100
AcDbSymbolTable
 70
     1
  0
VPORT
  5
29
330
8
100
AcDbSymbolTableRecord
100
AcDbViewportTableRecord
  2
*Active
 70
     0
 10
0.0
 20
0.0
 11
1.0
 21
1.0
 12
10.42990654205607
 22
4.5
 13
0.0
 23
0.0
 14
0.5
 24
0.5
 15
0.5
 25
0.5
 16
0.0
 26
0.0
 36
1.0
 17
0.0
 27
0.0
 37
0.0
 40
9.0
 41
1.972972972850329
 42
50.0
 43
0.0
 44
0.0
 50
0.0
 51
0.0
 71
     0
 72
   100
 73
     1
 74
     3
 75
     0
 76
     0
 77
     0
 78
     0
281
     0
 65
     1
110
0.0
120
0.0
130
0.0
111
1.0
121
0.0
131
0.0
112
0.0
122
1.0
132
0.0
 79
     0
146
0.0
348
2F
 60
     3
 61
     5
292
     1
282
     1
141
0.0
142
0.0
 63
   250
361
5D
  0
ENDTAB
  0
TABLE
  2
LTYPE
  5
5
330
0
100
AcDbSymbolTable
 70
     1
  0
LTYPE
  5
14
330
5
100
AcDbSymbolTableRecord
100
AcDbLinetypeTableRecord
  2
ByBlock
 70
     0
  3

 72
    65
 73
     0
 40
0.0
  0
LTYPE
  5
15
330
5
100
AcDbSymbolTableRecord
100
AcDbLinetypeTableRecord
  2
ByLayer
 70
     0
  3

 72
    65
 73
     0
 40
0.0
  0
LTYPE
  5
16
330
5
100
AcDbSymbolTableRecord
100
AcDbLinetypeTableRecord
  2
Continuous
 70
     0
  3
Solid line
 72
    65
 73
     0
 40
0.0
  0
ENDTAB
  0
TABLE
  2
LAYER
  5
2
330
0
100
AcDbSymbolTable
 70
     3
  0
LAYER
  5
10
330
2
100
AcDbSymbolTableRecord
100
AcDbLayerTableRecord
  2
0
 70
     0
 62
     7
  6
Continuous
370
    -3
390
F
347
46
  0
LAYER
  5
5F
330
2
100
AcDbSymbolTableRecord
100
AcDbLayerTableRecord
  2
Layer 1
 70
     0
 62
    18
420
        0
  6
Continuous
370
    -3
390
F
347
46
  0
LAYER
  5
3EB
330
2
100
AcDbSymbolTableRecord
100
AcDbLayerTableRecord
  2
Default
 70
     0
 62
    18
420
        0
  6
Continuous
370
    -3
390
F
347
46
  0
ENDTAB
  0
TABLE
  2
STYLE
  5
3
330
0
100
AcDbSymbolTable
 70
     1
  0
STYLE
  5
11
330
3
100
AcDbSymbolTableRecord
100
AcDbTextStyleTableRecord
  2
Standard
 70
     0
 40
0.0
 41
1.0
 50
0.0
 71
     0
 42
0.2
  3
txt
  4

  0
ENDTAB
  0
TABLE
  2
VIEW
  5
6
330
0
100
AcDbSymbolTable
 70
     0
  0
ENDTAB
  0
TABLE
  2
UCS
  5
7
330
0
100
AcDbSymbolTable
 70
     0
  0
ENDTAB
  0
TABLE
  2
APPID
  5
9
330
0
100
AcDbSymbolTable
 70
     3
  0
APPID
  5
12
330
9
100
AcDbSymbolTableRecord
100
AcDbRegAppTableRecord
  2
ACAD
 70
     0
  0
APPID
  5
5E
330
9
100
AcDbSymbolTableRecord
100
AcDbRegAppTableRecord
  2
Rhino
 70
     0
  0
APPID
  5
435
330
9
100
AcDbSymbolTableRecord
100
AcDbRegAppTableRecord
  2
ACAD_MLEADERVER
 70
     0
  0
ENDTAB
  0
TABLE
  2
DIMSTYLE
  5
A
330
0
100
AcDbSymbolTable
 70
     1
100
AcDbDimStyleTable
  0
DIMSTYLE
105
27
330
A
100
AcDbSymbolTableRecord
100
AcDbDimStyleTableRecord
  2
STANDARD_ACAD
 70
     0
178
     0
340
11
  0
ENDTAB
  0
TABLE
  2
BLOCK_RECORD
  5
1
330
0
100
AcDbSymbolTable
 70
     1
  0
BLOCK_RECORD
  5
1F
330
1
100
AcDbSymbolTableRecord
100
AcDbBlockTableRecord
  2
*Model_Space
340
22
 70
     0
280
     1
281
     0
  0
BLOCK_RECORD
  5
1B
330
1
100
AcDbSymbolTableRecord
100
AcDbBlockTableRecord
  2
*Paper_Space
340
1E
 70
     0
280
     1
281
     0
  0
BLOCK_RECORD
  5
23
330
1
100
AcDbSymbolTableRecord
100
AcDbBlockTableRecord
  2
*Paper_Space0
340
26
 70
     0
280
     1
281
     0
  0
ENDTAB
  0
ENDSEC
  0
SECTION
  2
BLOCKS
  0
BLOCK
  5
20
330
1F
100
AcDbEntity
  8
0
100
AcDbBlockBegin
  2
*Model_Space
 70
     0
 10
0.0
 20
0.0
 30
0.0
  3
*Model_Space
  1

  0
ENDBLK
  5
21
330
1F
100
AcDbEntity
  8
0
100
AcDbBlockEnd
  0
BLOCK
  5
1C
330
1B
100
AcDbEntity
 67
     1
  8
0
100
AcDbBlockBegin
  2
*Paper_Space
 70
     0
 10
0.0
 20
0.0
 30
0.0
  3
*Paper_Space
  1

  0
ENDBLK
  5
1D
330
1B
100
AcDbEntity
 67
     1
  8
0
100
AcDbBlockEnd
  0
BLOCK
  5
24
330
23
100
AcDbEntity
  8
0
100
AcDbBlockBegin
  2
*Paper_Space0
 70
     0
 10
0.0
 20
0.0
 30
0.0
  3
*Paper_Space0
  1

  0
ENDBLK
  5
25
330
23
100
AcDbEntity
  8
0
100
AcDbBlockEnd
  0
ENDSEC
  0
SECTION
  2
ENTITIES
  0
POLYLINE
  5
60
330
1F
100
AcDbEntity
  8
Layer 1
100
AcDb2dPolyline
 66
     1
 10
0.0
 20
0.0
 30
0.0
 70
     1
  0
VERTEX
  5
61
330
60
100
AcDbEntity
  8
Layer 1
100
AcDbVertex
100
AcDb2dVertex
 10
33.07657763630834
 20
17.71664978083698
 30
0.0
  0
VERTEX
  5
62
330
60
100
AcDbEntity
  8
Layer 1
100
AcDbVertex
100
AcDb2dVertex
 10
30.22314375486158
 20
18.43506491689593
 30
0.0
  0
VERTEX
  5
63
330
60
100
AcDbEntity
  8
Layer 1
100
AcDbVertex
100
AcDb2dVertex
 10
24.41955211819962
 20
20.30841765267088
 30
0.0
  0
VERTEX
  5
64
330
60
100
AcDbEntity
  8
Layer 1
100
AcDbVertex
100
AcDb2dVertex
 10
23.70318595277227
 20
20.62487112953549
 30
0.0
  0
VERTEX
  5
65
330
60
100
AcDbEntity
  8
Layer 1
100
AcDbVertex
100
AcDb2dVertex
 10
23.73888545881909
 20
20.93033734749801
 30
0.0
  0
VERTEX
  5
66
330
60
100
AcDbEntity
  8
Layer 1
100
AcDbVertex
100
AcDb2dVertex
 10
24.15477977219846
 20
21.07070221906028
 30
0.0
  0
VERTEX
  5
67
330
60
100
AcDbEntity
  8
Layer 1
100
AcDbVertex
100
AcDb2dVertex
 10
30.02481931877751
 20
19.26851833229283
 30
0.0
  0
VERTEX
  5
68
330
60
100
AcDbEntity
  8
Layer 1
100
AcDbVertex
100
AcDb2dVertex
 10
32.00286510886021
 20
18.55115710089152
 30
0.0
  0
VERTEX
  5
69
330
60
100
AcDbEntity
  8
Layer 1
100
AcDbVertex
100
AcDb2dVertex
 10
33.08583607624001
 20
18.09186752775017
 30
0.0
  0
SEQEND
  5
6A
330
60
100
AcDbEntity
  8
Layer 1
  0
POLYLINE
  5
6B
330
1F
100
AcDbEntity
  8
Layer 1
100
AcDb2dPolyline
 66
     1
 10
0.0
 20
0.0
 30
0.0
 70
     1
  0
VERTEX
  5
6C
330
6B
100
AcDbEntity
  8
Layer 1
100
AcDbVertex
100
AcDb2dVertex
 10
33.88166734507344
 20
50.08408829053836
 30
0.0
  0
VERTEX
  5
6D
330
6B
100
AcDbEntity
  8
Layer 1
100
AcDbVertex
100
AcDb2dVertex
 10
30.33176688712911
 20
50.0966053552161
 30
0.0
  0
VERTEX
  5
6E
330
6B
100
AcDbEntity
  8
Layer 1
100
AcDbVertex
100
AcDb2dVertex
 10
24.93818050383017
 20
50.77777041285836
 30
0.0
  0
VERTEX
  5
6F
330
6B
100
AcDbEntity
  8
Layer 1
100
AcDbVertex
100
AcDb2dVertex
 10
24.71339942668527
 20
50.76524815653208
 30
0.0
  0
VERTEX
  5
70
330
6B
100
AcDbEntity
  8
Layer 1
100
AcDbVertex
100
AcDb2dVertex
 10
24.2711194247754
 20
51.07191883696048
 30
0.0
  0
VERTEX
  5
71
330
6B
100
AcDbEntity
  8
Layer 1
100
AcDbVertex
100
AcDb2dVertex
 10
23.88176654938335
 20
53.54693345488216
 30
0.0
  0
VERTEX
  5
72
330
6B
100
AcDbEntity
  8
Layer 1
100
AcDbVertex
100
AcDb2dVertex
 10
24.3991887419985
 20
56.90948808289693
 30
0.0
  0
VERTEX
  5
73
330
6B
100
AcDbEntity
  8
Layer 1
100
AcDbVertex
100
AcDb2dVertex
 10
24.59637966814699
 20
56.99420367354651
 30
0.0
  0
VERTEX
  5
74
330
6B
100
AcDbEntity
  8
Layer 1
100
AcDbVertex
100
AcDb2dVertex
 10
24.65054932922012
 20
55.63783530135815
 30
0.0
  0
VERTEX
  5
75
330
6B
100
AcDbEntity
  8
Layer 1
100
AcDbVertex
100
AcDb2dVertex
 10
24.69431319602987
 20
51.85134449634486
 30
0.0
  0
VERTEX
  5
76
330
6B
100
AcDbEntity
  8
Layer 1
100
AcDbVertex
100
AcDb2dVertex
 10
24.8022250724447
 20
51.25795637145298
 30
0.0
  0
VERTEX
  5
77
330
6B
100
AcDbEntity
  8
Layer 1
100
AcDbVertex
100
AcDb2dVertex
 10
25.08352243581177
 20
51.2761254108628
 30
0.0
  0
VERTEX
  5
78
330
6B
100
AcDbEntity
  8
Layer 1
100
AcDbVertex
100
AcDb2dVertex
 10
29.48776058075962
 20
50.89059185826126
 30
0.0
  0
VERTEX
  5
79
330
6B
100
AcDbEntity
  8
Layer 1
100
AcDbVertex
100
AcDb2dVertex
 10
32.43502139607844
 20
50.58002398031395
 30
0.0
  0
SEQEND
  5
7A
330
6B
100
AcDbEntity
  8
Layer 1
  0
POLYLINE
  5
7B
330
1F
100
AcDbEntity
  8
Layer 1
100
AcDb2dPolyline
 66
     1
 10
0.0
 20
0.0
 30
0.0
 70
     1
  0
VERTEX
  5
7C
330
7B
100
AcDbEntity
  8
Layer 1
100
AcDbVertex
100
AcDb2dVertex
 10
32.73080692002642
 20
44.42443684074686
 30
0.0
  0
VERTEX
  5
7D
330
7B
100
AcDbEntity
  8
Layer 1
100
AcDbVertex
100
AcDb2dVertex
 10
31.2763388872013
 20
45.9353709738581
 30
0.0
  0
VERTEX
  5
7E
330
7B
100
AcDbEntity
  8
Layer 1
100
AcDbVertex
100
AcDb2dVertex
 10
28.38569472997681
 20
47.37518471334837
 30
0.0
  0
VERTEX
  5
7F
330
7B
100
AcDbEntity
  8
Layer 1
100
AcDbVertex
100
AcDb2dVertex
 10
25.84024328549457
 20
48.03827072015581
 30
0.0
  0
VERTEX
  5
80
330
7B
100
AcDbEntity
  8
Layer 1
100
AcDbVertex
100
AcDb2dVertex
 10
24.91225341092244
 20
47.82470014280108
 30
0.0
  0
VERTEX
  5
81
330
7B
100
AcDbEntity
  8
Layer 1
100
AcDbVertex
100
AcDb2dVertex
 10
24.97329854523829
 20
46.73689228951307
 30
0.0
  0
VERTEX
  5
82
330
7B
100
AcDbEntity
  8
Layer 1
100
AcDbVertex
100
AcDb2dVertex
 10
25.09530574749303
 20
46.01636761358931
 30
0.0
  0
VERTEX
  5
83
330
7B
100
AcDbEntity
  8
Layer 1
100
AcDbVertex
100
AcDb2dVertex
 10
25.08644014230238
 20
45.28597361375333
 30
0.0
  0
VERTEX
  5
84
330
7B
100
AcDbEntity
  8
Layer 1
100
AcDbVertex
100
AcDb2dVertex
 10
25.44034098022897
 20
45.10123053030176
 30
0.0
  0
VERTEX
  5
85
330
7B
100
AcDbEntity
  8
Layer 1
100
AcDbVertex
100
AcDb2dVertex
 10
26.38901611321293
 20
44.90585841169872
 30
0.0
  0
VERTEX
  5
86
330
7B
100
AcDbEntity
  8
Layer 1
100
AcDbVertex
100
AcDb2dVertex
 10
31.26802878840655
 20
44.08259447187523
 30
0.0
  0
VERTEX
  5
87
330
7B
100
AcDbEntity
  8
Layer 1
100
AcDbVertex
100
AcDb2dVertex
 10
32.3842626481091
 20
44.01999876518951
 30
0.0
  0
VERTEX
  5
88
330
7B
100
AcDbEntity
  8
Layer 1
100
AcDbVertex
100
AcDb2dVertex
 10
32.85051249141965
 20
44.04727914782182
 30
0.0
  0
SEQEND
  5
89
330
7B
100
AcDbEntity
  8
Layer 1
  0
POLYLINE
  5
8A
330
1F
100
AcDbEntity
  8
Layer 1
100
AcDb2dPolyline
 66
     1
 10
0.0
 20
0.0
 30
0.0
 70
     1
  0
VERTEX
  5
8B
330
8A
100
AcDbEntity
  8
Layer 1
100
AcDbVertex
100
AcDb2dVertex
 10
29.69817463578997
 20
30.99747691423583
 30
0.0
  0
VERTEX
  5
8C
330
8A
100
AcDbEntity
  8
Layer 1
100
AcDbVertex
100
AcDb2dVertex
 10
28.92108002660893
 20
30.66868634984356
 30
0.0
  0
VERTEX
  5
8D
330
8A
100
AcDbEntity
  8
Layer 1
100
AcDbVertex
100
AcDb2dVertex
 10
27.29710985995433
 20
29.98003839607707
 30
0.0
  0
VERTEX
  5
8E
330
8A
100
AcDbEntity
  8
Layer 1
100
AcDbVertex
100
AcDb2dVertex
 10
26.44949189673672
 20
29.58058776423617
 30
0.0
  0
VERTEX
  5
8F
330
8A
100
AcDbEntity
  8
Layer 1
100
AcDbVertex
100
AcDb2dVertex
 10
29.33656073865302
 20
28.80497450544419
 30
0.0
  0
VERTEX
  5
90
330
8A
100
AcDbEntity
  8
Layer 1
100
AcDbVertex
100
AcDb2dVertex
 10
29.57833235098467
 20
29.75435051098374
 30
0.0
  0
SEQEND
  5
91
330
8A
100
AcDbEntity
  8
Layer 1
  0
POLYLINE
  5
92
330
1F
100
AcDbEntity
  8
Layer 1
100
AcDb2dPolyline
 66
     1
 10
0.0
 20
0.0
 30
0.0
 70
     1
  0
VERTEX
  5
93
330
92
100
AcDbEntity
  8
Layer 1
100
AcDbVertex
100
AcDb2dVertex
 10
21.27450506769744
 20
10.23715245587754
 30
0.0
  0
VERTEX
  5
94
330
92
100
AcDbEntity
  8
Layer 1
100
AcDbVertex
100
AcDb2dVertex
 10
20.80265862723941
 20
10.24239429037343
 30
0.0
  0
VERTEX
  5
95
330
92
100
AcDbEntity
  8
Layer 1
100
AcDbVertex
100
AcDb2dVertex
 10
20.59059708906608
 20
10.59584172432579
 30
0.0
  0
VERTEX
  5
96
330
92
100
AcDbEntity
  8
Layer 1
100
AcDbVertex
100
AcDb2dVertex
 10
20.14827901506676
 20
11.2880165380139
 30
0.0
  0
VERTEX
  5
97
330
92
100
AcDbEntity
  8
Layer 1
100
AcDbVertex
100
AcDb2dVertex
 10
19.65928109831662
 20
11.72648067823231
 30
0.0
  0
VERTEX
  5
98
330
92
100
AcDbEntity
  8
Layer 1
100
AcDbVertex
100
AcDb2dVertex
 10
18.58038557505628
 20
11.78072129183576
 30
0.0
  0
VERTEX
  5
99
330
92
100
AcDbEntity
  8
Layer 1
100
AcDbVertex
100
AcDb2dVertex
 10
16.26340646984495
 20
11.89481815223486
 30
0.0
  0
VERTEX
  5
9A
330
92
100
AcDbEntity
  8
Layer 1
100
AcDbVertex
100
AcDb2dVertex
 10
11.91297457057105
 20
12.3470591971815
 30
0.0
  0
VERTEX
  5
9B
330
92
100
AcDbEntity
  8
Layer 1
100
AcDbVertex
100
AcDb2dVertex
 10
11.65288855266988
 20
12.79103686817044
 30
0.0
  0
VERTEX
  5
9C
330
92
100
AcDbEntity
  8
Layer 1
100
AcDbVertex
100
AcDb2dVertex
 10
12.10164427088337
 20
12.91672667980361
 30
0.0
  0
VERTEX
  5
9D
330
92
100
AcDbEntity
  8
Layer 1
100
AcDbVertex
100
AcDb2dVertex
 10
15.87833843506427
 20
12.63163941298788
 30
0.0
  0
VERTEX
  5
9E
330
92
100
AcDbEntity
  8
Layer 1
100
AcDbVertex
100
AcDb2dVertex
 10
18.76416301187573
 20
12.48346284089262
 30
0.0
  0
VERTEX
  5
9F
330
92
100
AcDbEntity
  8
Layer 1
100
AcDbVertex
100
AcDb2dVertex
 10
19.17392944940498
 20
12.49820366170346
 30
0.0
  0
VERTEX
  5
A0
330
92
100
AcDbEntity
  8
Layer 1
100
AcDbVertex
100
AcDb2dVertex
 10
17.40698993416062
 20
14.38639932071093
 30
0.0
  0
VERTEX
  5
A1
330
92
100
AcDbEntity
  8
Layer 1
100
AcDbVertex
100
AcDb2dVertex
 10
15.31834818535766
 20
15.81328412473773
 30
0.0
  0
VERTEX
  5
A2
330
92
100
AcDbEntity
  8
Layer 1
100
AcDbVertex
100
AcDb2dVertex
 10
14.37029605020087
 20
15.99204296794936
 30
0.0
  0
VERTEX
  5
A3
330
92
100
AcDbEntity
  8
Layer 1
100
AcDbVertex
100
AcDb2dVertex
 10
13.52246003774375
 20
15.83958501634177
 30
0.0
  0
VERTEX
  5
A4
330
92
100
AcDbEntity
  8
Layer 1
100
AcDbVertex
100
AcDb2dVertex
 10
12.27368685140812
 20
14.65239343467316
 30
0.0
  0
VERTEX
  5
A5
330
92
100
AcDbEntity
  8
Layer 1
100
AcDbVertex
100
AcDb2dVertex
 10
11.54276330341903
 20
12.8763841093948
 30
0.0
  0
VERTEX
  5
A6
330
92
100
AcDbEntity
  8
Layer 1
100
AcDbVertex
100
AcDb2dVertex
 10
11.94247178713841
 20
11.20871237571318
 30
0.0
  0
VERTEX
  5
A7
330
92
100
AcDbEntity
  8
Layer 1
100
AcDbVertex
100
AcDb2dVertex
 10
13.60715659234861
 20
11.17375181431137
 30
0.0
  0
VERTEX
  5
A8
330
92
100
AcDbEntity
  8
Layer 1
100
AcDbVertex
100
AcDb2dVertex
 10
18.67061469647638
 20
11.04387061174089
 30
0.0
  0
VERTEX
  5
A9
330
92
100
AcDbEntity
  8
Layer 1
100
AcDbVertex
100
AcDb2dVertex
 10
19.59789850684438
 20
10.87854429390303
 30
0.0
  0
VERTEX
  5
AA
330
92
100
AcDbEntity
  8
Layer 1
100
AcDbVertex
100
AcDb2dVertex
 10
19.38200380148438
 20
10.44169821748577
 30
0.0
  0
VERTEX
  5
AB
330
92
100
AcDbEntity
  8
Layer 1
100
AcDbVertex
100
AcDb2dVertex
 10
18.05026114896478
 20
10.32338054680754
 30
0.0
  0
VERTEX
  5
AC
330
92
100
AcDbEntity
  8
Layer 1
100
AcDbVertex
100
AcDb2dVertex
 10
13.07027956203031
 20
10.49309899932701
 30
0.0
  0
VERTEX
  5
AD
330
92
100
AcDbEntity
  8
Layer 1
100
AcDbVertex
100
AcDb2dVertex
 10
12.16617819303142
 20
10.54760265645749
 30
0.0
  0
VERTEX
  5
AE
330
92
100
AcDbEntity
  8
Layer 1
100
AcDbVertex
100
AcDb2dVertex
 10
11.80910698838431
 20
10.50474386704667
 30
0.0
  0
VERTEX
  5
AF
330
92
100
AcDbEntity
  8
Layer 1
100
AcDbVertex
100
AcDb2dVertex
 10
11.29278888636289
 20
10.72516915104988
 30
0.0
  0
VERTEX
  5
B0
330
92
100
AcDbEntity
  8
Layer 1
100
AcDbVertex
100
AcDb2dVertex
 10
10.8107668147276
 20
12.77778951159532
 30
0.0
  0
VERTEX
  5
B1
330
92
100
AcDbEntity
  8
Layer 1
100
AcDbVertex
100
AcDb2dVertex
 10
11.87554797610332
 20
15.3250338053802
 30
0.0
  0
VERTEX
  5
B2
330
92
100
AcDbEntity
  8
Layer 1
100
AcDbVertex
100
AcDb2dVertex
 10
13.03703224465324
 20
16.38364901881639
 30
0.0
  0
VERTEX
  5
B3
330
92
100
AcDbEntity
  8
Layer 1
100
AcDbVertex
100
AcDb2dVertex
 10
14.33972070128259
 20
16.75503013744387
 30
0.0
  0
VERTEX
  5
B4
330
92
100
AcDbEntity
  8
Layer 1
100
AcDbVertex
100
AcDb2dVertex
 10
16.83850441686063
 20
15.75835475242535
 30
0.0
  0
VERTEX
  5
B5
330
92
100
AcDbEntity
  8
Layer 1
100
AcDbVertex
100
AcDb2dVertex
 10
20.87479831452759
 20
11.48669227565051
 30
0.0
  0
SEQEND
  5
B6
330
92
100
AcDbEntity
  8
Layer 1
  0
POLYLINE
  5
B7
330
1F
100
AcDbEntity
  8
Layer 1
100
AcDb2dPolyline
 66
     1
 10
0.0
 20
0.0
 30
0.0
 70
     1
  0
VERTEX
  5
B8
330
B7
100
AcDbEntity
  8
Layer 1
100
AcDbVertex
100
AcDb2dVertex
 10
47.01847037734051
 20
10.18916085659059
 30
0.0
  0
VERTEX
  5
B9
330
B7
100
AcDbEntity
  8
Layer 1
100
AcDbVertex
100
AcDb2dVertex
 10
46.90568008182896
 20
9.892414877659021
 30
0.0
  0
VERTEX
  5
BA
330
B7
100
AcDbEntity
  8
Layer 1
100
AcDbVertex
100
AcDb2dVertex
 10
46.52947073004084
 20
9.862630389871363
 30
0.0
  0
VERTEX
  5
BB
330
B7
100
AcDbEntity
  8
Layer 1
100
AcDbVertex
100
AcDb2dVertex
 10
46.37220531186686
 20
10.55495576136772
 30
0.0
  0
VERTEX
  5
BC
330
B7
100
AcDbEntity
  8
Layer 1
100
AcDbVertex
100
AcDb2dVertex
 10
46.00609198597807
 20
14.69615210983434
 30
0.0
  0
VERTEX
  5
BD
330
B7
100
AcDbEntity
  8
Layer 1
100
AcDbVertex
100
AcDb2dVertex
 10
44.84297061758229
 20
35.52181000421886
 30
0.0
  0
VERTEX
  5
BE
330
B7
100
AcDbEntity
  8
Layer 1
100
AcDbVertex
100
AcDb2dVertex
 10
44.28384737318517
 20
55.35849345894862
 30
0.0
  0
VERTEX
  5
BF
330
B7
100
AcDbEntity
  8
Layer 1
100
AcDbVertex
100
AcDb2dVertex
 10
44.50534386734121
 20
63.04452148581569
 30
0.0
  0
VERTEX
  5
C0
330
B7
100
AcDbEntity
  8
Layer 1
100
AcDbVertex
100
AcDb2dVertex
 10
44.7483424392825
 20
64.78077835807152
 30
0.0
  0
VERTEX
  5
C1
330
B7
100
AcDbEntity
  8
Layer 1
100
AcDbVertex
100
AcDb2dVertex
 10
44.95928604246595
 20
57.91276724488353
 30
0.0
  0
VERTEX
  5
C2
330
B7
100
AcDbEntity
  8
Layer 1
100
AcDbVertex
100
AcDb2dVertex
 10
45.02938887296916
 20
48.9156749017106
 30
0.0
  0
VERTEX
  5
C3
330
B7
100
AcDbEntity
  8
Layer 1
100
AcDbVertex
100
AcDb2dVertex
 10
45.77720085372331
 20
29.84212917428361
 30
0.0
  0
VERTEX
  5
C4
330
B7
100
AcDbEntity
  8
Layer 1
100
AcDbVertex
100
AcDb2dVertex
 10
46.73618487019758
 20
13.70731611414114
 30
0.0
  0
SEQEND
  5
C5
330
B7
100
AcDbEntity
  8
Layer 1
  0
POLYLINE
  5
C6
330
1F
100
AcDbEntity
  8
Layer 1
100
AcDb2dPolyline
 66
     1
 10
0.0
 20
0.0
 30
0.0
 70
     1
  0
VERTEX
  5
C7
330
C6
100
AcDbEntity
  8
Layer 1
100
AcDbVertex
100
AcDb2dVertex
 10
32.55661326644839
 20
19.25372386444687
 30
0.0
  0
VERTEX
  5
C8
330
C6
100
AcDbEntity
  8
Layer 1
100
AcDbVertex
100
AcDb2dVertex
 10
31.07496003121455
 20
19.52500134609349
 30
0.0
  0
VERTEX
  5
C9
330
C6
100
AcDbEntity
  8
Layer 1
100
AcDbVertex
100
AcDb2dVertex
 10
30.04733549858144
 20
19.86418039925395
 30
0.0
  0
VERTEX
  5
CA
330
C6
100
AcDbEntity
  8
Layer 1
100
AcDbVertex
100
AcDb2dVertex
 10
29.8386502625215
 20
19.94658916739345
 30
0.0
  0
VERTEX
  5
CB
330
C6
100
AcDbEntity
  8
Layer 1
100
AcDbVertex
100
AcDb2dVertex
 10
26.69043803694736
 20
21.08436836861923
 30
0.0
  0
VERTEX
  5
CC
330
C6
100
AcDbEntity
  8
Layer 1
100
AcDbVertex
100
AcDb2dVertex
 10
25.13628342957566
 20
21.616467351713
 30
0.0
  0
VERTEX
  5
CD
330
C6
100
AcDbEntity
  8
Layer 1
100
AcDbVertex
100
AcDb2dVertex
 10
24.68751559751555
 20
21.50330671860416
 30
0.0
  0
VERTEX
  5
CE
330
C6
100
AcDbEntity
  8
Layer 1
100
AcDbVertex
100
AcDb2dVertex
 10
23.78760908055299
 20
21.51726533103201
 30
0.0
  0
VERTEX
  5
CF
330
C6
100
AcDbEntity
  8
Layer 1
100
AcDbVertex
100
AcDb2dVertex
 10
23.74774933346022
 20
22.07306245925179
 30
0.0
  0
VERTEX
  5
D0
330
C6
100
AcDbEntity
  8
Layer 1
100
AcDbVertex
100
AcDb2dVertex
 10
23.92124730613124
 20
22.31439278145586
 30
0.0
  0
VERTEX
  5
D1
330
C6
100
AcDbEntity
  8
Layer 1
100
AcDbVertex
100
AcDb2dVertex
 10
24.00915229954606
 20
22.50780764855184
 30
0.0
  0
VERTEX
  5
D2
330
C6
100
AcDbEntity
  8
Layer 1
100
AcDbVertex
100
AcDb2dVertex
 10
24.69886800236635
 20
22.52029875498677
 30
0.0
  0
VERTEX
  5
D3
330
C6
100
AcDbEntity
  8
Layer 1
100
AcDbVertex
100
AcDb2dVertex
 10
25.12885937213513
 20
22.40736482386506
 30
0.0
  0
VERTEX
  5
D4
330
C6
100
AcDbEntity
  8
Layer 1
100
AcDbVertex
100
AcDb2dVertex
 10
26.83780817296634
 20
22.96648460716315
 30
0.0
  0
VERTEX
  5
D5
330
C6
100
AcDbEntity
  8
Layer 1
100
AcDbVertex
100
AcDb2dVertex
 10
32.31743401729761
 20
24.78099173706206
 30
0.0
  0
VERTEX
  5
D6
330
C6
100
AcDbEntity
  8
Layer 1
100
AcDbVertex
100
AcDb2dVertex
 10
32.62451656851177
 20
24.41773900952973
 30
0.0
  0
VERTEX
  5
D7
330
C6
100
AcDbEntity
  8
Layer 1
100
AcDbVertex
100
AcDb2dVertex
 10
31.924734259134
 20
23.93000439392915
 30
0.0
  0
VERTEX
  5
D8
330
C6
100
AcDbEntity
  8
Layer 1
100
AcDbVertex
100
AcDb2dVertex
 10
30.73117425523201
 20
23.55271517924059
 30
0.0
  0
VERTEX
  5
D9
330
C6
100
AcDbEntity
  8
Layer 1
100
AcDbVertex
100
AcDb2dVertex
 10
30.10942242370829
 20
23.24639406981521
 30
0.0
  0
VERTEX
  5
DA
330
C6
100
AcDbEntity
  8
Layer 1
100
AcDbVertex
100
AcDb2dVertex
 10
30.42032948936151
 20
22.51850763623363
 30
0.0
  0
VERTEX
  5
DB
330
C6
100
AcDbEntity
  8
Layer 1
100
AcDbVertex
100
AcDb2dVertex
 10
30.45723345787421
 20
21.26107304955069
 30
0.0
  0
VERTEX
  5
DC
330
C6
100
AcDbEntity
  8
Layer 1
100
AcDbVertex
100
AcDb2dVertex
 10
30.49400936572243
 20
20.49249620510679
 30
0.0
  0
VERTEX
  5
DD
330
C6
100
AcDbEntity
  8
Layer 1
100
AcDbVertex
100
AcDb2dVertex
 10
31.4602253486405
 20
20.14561620658259
 30
0.0
  0
VERTEX
  5
DE
330
C6
100
AcDbEntity
  8
Layer 1
100
AcDbVertex
100
AcDb2dVertex
 10
32.52542011135149
 20
19.70963540492531
 30
0.0
  0
SEQEND
  5
DF
330
C6
100
AcDbEntity
  8
Layer 1
  0
POLYLINE
  5
E0
330
1F
100
AcDbEntity
  8
Layer 1
100
AcDb2dPolyline
 66
     1
 10
0.0
 20
0.0
 30
0.0
 70
     1
  0
VERTEX
  5
E1
330
E0
100
AcDbEntity
  8
Layer 1
100
AcDbVertex
100
AcDb2dVertex
 10
99.26099656546666
 20
58.4384285837631
 30
0.0
  0
VERTEX
  5
E2
330
E0
100
AcDbEntity
  8
Layer 1
100
AcDbVertex
100
AcDb2dVertex
 10
98.850110462398
 20
53.09780739907141
 30
0.0
  0
VERTEX
  5
E3
330
E0
100
AcDbEntity
  8
Layer 1
100
AcDbVertex
100
AcDb2dVertex
 10
98.37696784034954
 20
51.6141173070526
 30
0.0
  0
VERTEX
  5
E4
330
E0
100
AcDbEntity
  8
Layer 1
100
AcDbVertex
100
AcDb2dVertex
 10
97.79930868004435
 20
51.46378966190404
 30
0.0
  0
VERTEX
  5
E5
330
E0
100
AcDbEntity
  8
Layer 1
100
AcDbVertex
100
AcDb2dVertex
 10
97.08853565066545
 20
51.56900534216682
 30
0.0
  0
VERTEX
  5
E6
330
E0
100
AcDbEntity
  8
Layer 1
100
AcDbVertex
100
AcDb2dVertex
 10
93.25286435884502
 20
51.59348223457685
 30
0.0
  0
VERTEX
  5
E7
330
E0
100
AcDbEntity
  8
Layer 1
100
AcDbVertex
100
AcDb2dVertex
 10
92.03033322542976
 20
52.00162887775544
 30
0.0
  0
VERTEX
  5
E8
330
E0
100
AcDbEntity
  8
Layer 1
100
AcDbVertex
100
AcDb2dVertex
 10
91.86489442187309
 20
53.46515633731745
 30
0.0
  0
VERTEX
  5
E9
330
E0
100
AcDbEntity
  8
Layer 1
100
AcDbVertex
100
AcDb2dVertex
 10
91.91131641274545
 20
56.137699338544
 30
0.0
  0
VERTEX
  5
EA
330
E0
100
AcDbEntity
  8
Layer 1
100
AcDbVertex
100
AcDb2dVertex
 10
92.71418582647645
 20
56.97089317151291
 30
0.0
  0
VERTEX
  5
EB
330
E0
100
AcDbEntity
  8
Layer 1
100
AcDbVertex
100
AcDb2dVertex
 10
93.15040198286847
 20
56.99708849959623
 30
0.0
  0
VERTEX
  5
EC
330
E0
100
AcDbEntity
  8
Layer 1
100
AcDbVertex
100
AcDb2dVertex
 10
94.79968835845025
 20
57.01211313052835
 30
0.0
  0
VERTEX
  5
ED
330
E0
100
AcDbEntity
  8
Layer 1
100
AcDbVertex
100
AcDb2dVertex
 10
96.2230255359612
 20
57.09667816336969
 30
0.0
  0
VERTEX
  5
EE
330
E0
100
AcDbEntity
  8
Layer 1
100
AcDbVertex
100
AcDb2dVertex
 10
97.19434663996309
 20
57.11052948172728
 30
0.0
  0
VERTEX
  5
EF
330
E0
100
AcDbEntity
  8
Layer 1
100
AcDbVertex
100
AcDb2dVertex
 10
97.2235271659683
 20
57.28008353204235
 30
0.0
  0
VERTEX
  5
F0
330
E0
100
AcDbEntity
  8
Layer 1
100
AcDbVertex
100
AcDb2dVertex
 10
97.29043021040914
 20
57.90978723861018
 30
0.0
  0
VERTEX
  5
F1
330
E0
100
AcDbEntity
  8
Layer 1
100
AcDbVertex
100
AcDb2dVertex
 10
97.32825310071694
 20
58.36993689486296
 30
0.0
  0
VERTEX
  5
F2
330
E0
100
AcDbEntity
  8
Layer 1
100
AcDbVertex
100
AcDb2dVertex
 10
97.166001969376
 20
58.40080124555105
 30
0.0
  0
VERTEX
  5
F3
330
E0
100
AcDbEntity
  8
Layer 1
100
AcDbVertex
100
AcDb2dVertex
 10
96.49515963962018
 20
58.46622986180093
 30
0.0
  0
VERTEX
  5
F4
330
E0
100
AcDbEntity
  8
Layer 1
100
AcDbVertex
100
AcDb2dVertex
 10
95.20278525812965
 20
58.58736486709761
 30
0.0
  0
VERTEX
  5
F5
330
E0
100
AcDbEntity
  8
Layer 1
100
AcDbVertex
100
AcDb2dVertex
 10
92.57564668465776
 20
58.60904865258244
 30
0.0
  0
VERTEX
  5
F6
330
E0
100
AcDbEntity
  8
Layer 1
100
AcDbVertex
100
AcDb2dVertex
 10
90.71998708717464
 20
58.53166366969934
 30
0.0
  0
VERTEX
  5
F7
330
E0
100
AcDbEntity
  8
Layer 1
100
AcDbVertex
100
AcDb2dVertex
 10
90.62643531067627
 20
51.86866729703949
 30
0.0
  0
VERTEX
  5
F8
330
E0
100
AcDbEntity
  8
Layer 1
100
AcDbVertex
100
AcDb2dVertex
 10
90.66425300933551
 20
49.56570045129111
 30
0.0
  0
VERTEX
  5
F9
330
E0
100
AcDbEntity
  8
Layer 1
100
AcDbVertex
100
AcDb2dVertex
 10
90.89521214826658
 20
49.56970667342975
 30
0.0
  0
VERTEX
  5
FA
330
E0
100
AcDbEntity
  8
Layer 1
100
AcDbVertex
100
AcDb2dVertex
 10
91.97391904162924
 20
49.64248320294128
 30
0.0
  0
VERTEX
  5
FB
330
E0
100
AcDbEntity
  8
Layer 1
100
AcDbVertex
100
AcDb2dVertex
 10
96.57993233840392
 20
49.53832661898468
 30
0.0
  0
VERTEX
  5
FC
330
E0
100
AcDbEntity
  8
Layer 1
100
AcDbVertex
100
AcDb2dVertex
 10
97.87130646227189
 20
49.39531573720646
 30
0.0
  0
VERTEX
  5
FD
330
E0
100
AcDbEntity
  8
Layer 1
100
AcDbVertex
100
AcDb2dVertex
 10
99.03600782237939
 20
48.98039572320683
 30
0.0
  0
VERTEX
  5
FE
330
E0
100
AcDbEntity
  8
Layer 1
100
AcDbVertex
100
AcDb2dVertex
 10
99.21231620747076
 20
48.28319366316329
 30
0.0
  0
VERTEX
  5
FF
330
E0
100
AcDbEntity
  8
Layer 1
100
AcDbVertex
100
AcDb2dVertex
 10
98.85300048009628
 20
47.65744253169898
 30
0.0
  0
VERTEX
  5
100
330
E0
100
AcDbEntity
  8
Layer 1
100
AcDbVertex
100
AcDb2dVertex
 10
98.02449816687596
 20
47.51254015929545
 30
0.0
  0
VERTEX
  5
101
330
E0
100
AcDbEntity
  8
Layer 1
100
AcDbVertex
100
AcDb2dVertex
 10
96.55168803968898
 20
47.63785963333136
 30
0.0
  0
VERTEX
  5
102
330
E0
100
AcDbEntity
  8
Layer 1
100
AcDbVertex
100
AcDb2dVertex
 10
90.40058994557663
 20
47.60555892654169
 30
0.0
  0
VERTEX
  5
103
330
E0
100
AcDbEntity
  8
Layer 1
100
AcDbVertex
100
AcDb2dVertex
 10
89.46772338245731
 20
47.59369427903299
 30
0.0
  0
VERTEX
  5
104
330
E0
100
AcDbEntity
  8
Layer 1
100
AcDbVertex
100
AcDb2dVertex
 10
88.88632104354048
 20
48.05040533338963
 30
0.0
  0
VERTEX
  5
105
330
E0
100
AcDbEntity
  8
Layer 1
100
AcDbVertex
100
AcDb2dVertex
 10
88.7579558023495
 20
48.23062995204468
 30
0.0
  0
VERTEX
  5
106
330
E0
100
AcDbEntity
  8
Layer 1
100
AcDbVertex
100
AcDb2dVertex
 10
88.74291732702122
 20
51.37067917553324
 30
0.0
  0
VERTEX
  5
107
330
E0
100
AcDbEntity
  8
Layer 1
100
AcDbVertex
100
AcDb2dVertex
 10
88.98077270578924
 20
59.77968406699381
 30
0.0
  0
VERTEX
  5
108
330
E0
100
AcDbEntity
  8
Layer 1
100
AcDbVertex
100
AcDb2dVertex
 10
89.61705250053284
 20
60.39863759994377
 30
0.0
  0
VERTEX
  5
109
330
E0
100
AcDbEntity
  8
Layer 1
100
AcDbVertex
100
AcDb2dVertex
 10
90.44793085824409
 20
60.48159322173157
 30
0.0
  0
VERTEX
  5
10A
330
E0
100
AcDbEntity
  8
Layer 1
100
AcDbVertex
100
AcDb2dVertex
 10
92.62216039465468
 20
60.49230013161143
 30
0.0
  0
VERTEX
  5
10B
330
E0
100
AcDbEntity
  8
Layer 1
100
AcDbVertex
100
AcDb2dVertex
 10
93.93089539130668
 20
60.56010652290168
 30
0.0
  0
VERTEX
  5
10C
330
E0
100
AcDbEntity
  8
Layer 1
100
AcDbVertex
100
AcDb2dVertex
 10
94.94979103216122
 20
60.50098922075105
 30
0.0
  0
VERTEX
  5
10D
330
E0
100
AcDbEntity
  8
Layer 1
100
AcDbVertex
100
AcDb2dVertex
 10
98.05229944491377
 20
60.24772502905749
 30
0.0
  0
VERTEX
  5
10E
330
E0
100
AcDbEntity
  8
Layer 1
100
AcDbVertex
100
AcDb2dVertex
 10
98.86854946753297
 20
60.01237029434579
 30
0.0
  0
VERTEX
  5
10F
330
E0
100
AcDbEntity
  8
Layer 1
100
AcDbVertex
100
AcDb2dVertex
 10
99.28825791205426
 20
59.34264070793127
 30
0.0
  0
SEQEND
  5
110
330
E0
100
AcDbEntity
  8
Layer 1
  0
POLYLINE
  5
111
330
1F
100
AcDbEntity
  8
Layer 1
100
AcDb2dPolyline
 66
     1
 10
0.0
 20
0.0
 30
0.0
 70
     1
  0
VERTEX
  5
112
330
111
100
AcDbEntity
  8
Layer 1
100
AcDbVertex
100
AcDb2dVertex
 10
19.8429927742543
 20
18.10737671254786
 30
0.0
  0
VERTEX
  5
113
330
111
100
AcDbEntity
  8
Layer 1
100
AcDbVertex
100
AcDb2dVertex
 10
17.50683052761446
 20
18.63967297828689
 30
0.0
  0
VERTEX
  5
114
330
111
100
AcDbEntity
  8
Layer 1
100
AcDbVertex
100
AcDb2dVertex
 10
12.81599261557046
 20
19.98054947117272
 30
0.0
  0
VERTEX
  5
115
330
111
100
AcDbEntity
  8
Layer 1
100
AcDbVertex
100
AcDb2dVertex
 10
11.50624524744928
 20
20.3477634265562
 30
0.0
  0
VERTEX
  5
116
330
111
100
AcDbEntity
  8
Layer 1
100
AcDbVertex
100
AcDb2dVertex
 10
11.39983029636919
 20
20.79946280950312
 30
0.0
  0
VERTEX
  5
117
330
111
100
AcDbEntity
  8
Layer 1
100
AcDbVertex
100
AcDb2dVertex
 10
11.70906738173566
 20
20.93789638780112
 30
0.0
  0
VERTEX
  5
118
330
111
100
AcDbEntity
  8
Layer 1
100
AcDbVertex
100
AcDb2dVertex
 10
19.84268127534072
 20
18.54621811256161
 30
0.0
  0
VERTEX
  5
119
330
111
100
AcDbEntity
  8
Layer 1
100
AcDbVertex
100
AcDb2dVertex
 10
19.84275395842055
 20
18.10730402946802
 30
0.0
  0
SEQEND
  5
11A
330
111
100
AcDbEntity
  8
Layer 1
  0
POLYLINE
  5
11B
330
1F
100
AcDbEntity
  8
Layer 1
100
AcDb2dPolyline
 66
     1
 10
0.0
 20
0.0
 30
0.0
 70
     1
  0
VERTEX
  5
11C
330
11B
100
AcDbEntity
  8
Layer 1
100
AcDbVertex
100
AcDb2dVertex
 10
88.71949606981838
 20
11.70100006710072
 30
0.0
  0
VERTEX
  5
11D
330
11B
100
AcDbEntity
  8
Layer 1
100
AcDbVertex
100
AcDb2dVertex
 10
88.66331551020306
 20
10.4859293326659
 30
0.0
  0
VERTEX
  5
11E
330
11B
100
AcDbEntity
  8
Layer 1
100
AcDbVertex
100
AcDb2dVertex
 10
88.34991126159257
 20
9.092582578335502
 30
0.0
  0
VERTEX
  5
11F
330
11B
100
AcDbEntity
  8
Layer 1
100
AcDbVertex
100
AcDb2dVertex
 10
87.27557746686678
 20
8.891657126322976
 30
0.0
  0
VERTEX
  5
120
330
11B
100
AcDbEntity
  8
Layer 1
100
AcDbVertex
100
AcDb2dVertex
 10
84.29164284612142
 20
8.807995440331045
 30
0.0
  0
VERTEX
  5
121
330
11B
100
AcDbEntity
  8
Layer 1
100
AcDbVertex
100
AcDb2dVertex
 10
83.29242701440762
 20
8.724361443131421
 30
0.0
  0
VERTEX
  5
122
330
11B
100
AcDbEntity
  8
Layer 1
100
AcDbVertex
100
AcDb2dVertex
 10
82.8545426082784
 20
8.758134847562559
 30
0.0
  0
VERTEX
  5
123
330
11B
100
AcDbEntity
  8
Layer 1
100
AcDbVertex
100
AcDb2dVertex
 10
82.81597039002848
 20
8.450301237856753
 30
0.0
  0
VERTEX
  5
124
330
11B
100
AcDbEntity
  8
Layer 1
100
AcDbVertex
100
AcDb2dVertex
 10
82.8148784132814
 20
7.993676710976104
 30
0.0
  0
VERTEX
  5
125
330
11B
100
AcDbEntity
  8
Layer 1
100
AcDbVertex
100
AcDb2dVertex
 10
83.03319761851881
 20
7.882244896837708
 30
0.0
  0
VERTEX
  5
126
330
11B
100
AcDbEntity
  8
Layer 1
100
AcDbVertex
100
AcDb2dVertex
 10
85.7290961160665
 20
8.110656666875425
 30
0.0
  0
VERTEX
  5
127
330
11B
100
AcDbEntity
  8
Layer 1
100
AcDbVertex
100
AcDb2dVertex
 10
88.24903926062484
 20
7.716771482290653
 30
0.0
  0
VERTEX
  5
128
330
11B
100
AcDbEntity
  8
Layer 1
100
AcDbVertex
100
AcDb2dVertex
 10
88.61900998139359
 20
6.940905563268771
 30
0.0
  0
VERTEX
  5
129
330
11B
100
AcDbEntity
  8
Layer 1
100
AcDbVertex
100
AcDb2dVertex
 10
88.163737013688
 20
6.178053376636807
 30
0.0
  0
VERTEX
  5
12A
330
11B
100
AcDbEntity
  8
Layer 1
100
AcDbVertex
100
AcDb2dVertex
 10
87.07896627480747
 20
6.109456124215948
 30
0.0
  0
VERTEX
  5
12B
330
11B
100
AcDbEntity
  8
Layer 1
100
AcDbVertex
100
AcDb2dVertex
 10
85.87029338194786
 20
6.21426858644058
 30
0.0
  0
VERTEX
  5
12C
330
11B
100
AcDbEntity
  8
Layer 1
100
AcDbVertex
100
AcDb2dVertex
 10
83.29897022214253
 20
6.024449801247025
 30
0.0
  0
VERTEX
  5
12D
330
11B
100
AcDbEntity
  8
Layer 1
100
AcDbVertex
100
AcDb2dVertex
 10
81.85173761686026
 20
6.025341034249781
 30
0.0
  0
VERTEX
  5
12E
330
11B
100
AcDbEntity
  8
Layer 1
100
AcDbVertex
100
AcDb2dVertex
 10
81.1187668287891
 20
6.566622313096344
 30
0.0
  0
VERTEX
  5
12F
330
11B
100
AcDbEntity
  8
Layer 1
100
AcDbVertex
100
AcDb2dVertex
 10
80.95285904631254
 20
8.705694005459836
 30
0.0
  0
VERTEX
  5
130
330
11B
100
AcDbEntity
  8
Layer 1
100
AcDbVertex
100
AcDb2dVertex
 10
80.8860684875905
 20
10.57073145079148
 30
0.0
  0
VERTEX
  5
131
330
11B
100
AcDbEntity
  8
Layer 1
100
AcDbVertex
100
AcDb2dVertex
 10
80.82416500071275
 20
12.644450671084
 30
0.0
  0
VERTEX
  5
132
330
11B
100
AcDbEntity
  8
Layer 1
100
AcDbVertex
100
AcDb2dVertex
 10
81.2700531983717
 20
13.43525296301248
 30
0.0
  0
VERTEX
  5
133
330
11B
100
AcDbEntity
  8
Layer 1
100
AcDbVertex
100
AcDb2dVertex
 10
81.48818031261241
 20
13.57952195429172
 30
0.0
  0
VERTEX
  5
134
330
11B
100
AcDbEntity
  8
Layer 1
100
AcDbVertex
100
AcDb2dVertex
 10
84.66831425463134
 20
13.58733711592376
 30
0.0
  0
VERTEX
  5
135
330
11B
100
AcDbEntity
  8
Layer 1
100
AcDbVertex
100
AcDb2dVertex
 10
87.84844819665031
 20
13.59515227755581
 30
0.0
  0
VERTEX
  5
136
330
11B
100
AcDbEntity
  8
Layer 1
100
AcDbVertex
100
AcDb2dVertex
 10
88.11767843821482
 20
13.46093258733886
 30
0.0
  0
VERTEX
  5
137
330
11B
100
AcDbEntity
  8
Layer 1
100
AcDbVertex
100
AcDb2dVertex
 10
88.68970292928309
 20
12.72222329705958
 30
0.0
  0
SEQEND
  5
138
330
11B
100
AcDbEntity
  8
Layer 1
  0
POLYLINE
  5
139
330
1F
100
AcDbEntity
  8
Layer 1
100
AcDb2dPolyline
 66
     1
 10
0.0
 20
0.0
 30
0.0
 70
     1
  0
VERTEX
  5
13A
330
139
100
AcDbEntity
  8
Layer 1
100
AcDbVertex
100
AcDb2dVertex
 10
33.86920219688131
 20
9.806067378812148
 30
0.0
  0
VERTEX
  5
13B
330
139
100
AcDbEntity
  8
Layer 1
100
AcDbVertex
100
AcDb2dVertex
 10
33.61497408910515
 20
9.658688590045578
 30
0.0
  0
VERTEX
  5
13C
330
139
100
AcDbEntity
  8
Layer 1
100
AcDbVertex
100
AcDb2dVertex
 10
30.16609099828823
 20
9.865586168451419
 30
0.0
  0
VERTEX
  5
13D
330
139
100
AcDbEntity
  8
Layer 1
100
AcDbVertex
100
AcDb2dVertex
 10
25.95569170506874
 20
10.19769938792196
 30
0.0
  0
VERTEX
  5
13E
330
139
100
AcDbEntity
  8
Layer 1
100
AcDbVertex
100
AcDb2dVertex
 10
24.40503972992541
 20
10.42235759605094
 30
0.0
  0
VERTEX
  5
13F
330
139
100
AcDbEntity
  8
Layer 1
100
AcDbVertex
100
AcDb2dVertex
 10
24.49300356202391
 20
10.91995634391518
 30
0.0
  0
VERTEX
  5
140
330
139
100
AcDbEntity
  8
Layer 1
100
AcDbVertex
100
AcDb2dVertex
 10
29.68942151631812
 20
10.62519703583251
 30
0.0
  0
VERTEX
  5
141
330
139
100
AcDbEntity
  8
Layer 1
100
AcDbVertex
100
AcDb2dVertex
 10
32.65640713506521
 20
10.39544582046636
 30
0.0
  0
VERTEX
  5
142
330
139
100
AcDbEntity
  8
Layer 1
100
AcDbVertex
100
AcDb2dVertex
 10
33.92469053668864
 20
10.14293787891302
 30
0.0
  0
SEQEND
  5
143
330
139
100
AcDbEntity
  8
Layer 1
  0
POLYLINE
  5
144
330
1F
100
AcDbEntity
  8
Layer 1
100
AcDb2dPolyline
 66
     1
 10
0.0
 20
0.0
 30
0.0
 70
     1
  0
VERTEX
  5
145
330
144
100
AcDbEntity
  8
Layer 1
100
AcDbVertex
100
AcDb2dVertex
 10
32.67297195507005
 20
26.01631855362779
 30
0.0
  0
VERTEX
  5
146
330
144
100
AcDbEntity
  8
Layer 1
100
AcDbVertex
100
AcDb2dVertex
 10
32.00574993490994
 20
25.92847066834712
 30
0.0
  0
VERTEX
  5
147
330
144
100
AcDbEntity
  8
Layer 1
100
AcDbVertex
100
AcDb2dVertex
 10
23.96711725170675
 20
27.71219305283585
 30
0.0
  0
VERTEX
  5
148
330
144
100
AcDbEntity
  8
Layer 1
100
AcDbVertex
100
AcDb2dVertex
 10
23.66036177435186
 20
28.19451970118664
 30
0.0
  0
VERTEX
  5
149
330
144
100
AcDbEntity
  8
Layer 1
100
AcDbVertex
100
AcDb2dVertex
 10
24.40642936118991
 20
28.30960816646067
 30
0.0
  0
VERTEX
  5
14A
330
144
100
AcDbEntity
  8
Layer 1
100
AcDbVertex
100
AcDb2dVertex
 10
28.64005089841746
 20
27.27445055176726
 30
0.0
  0
VERTEX
  5
14B
330
144
100
AcDbEntity
  8
Layer 1
100
AcDbVertex
100
AcDb2dVertex
 10
31.85266206327709
 20
26.64771819872517
 30
0.0
  0
VERTEX
  5
14C
330
144
100
AcDbEntity
  8
Layer 1
100
AcDbVertex
100
AcDb2dVertex
 10
32.7939806302518
 20
26.24154438199929
 30
0.0
  0
SEQEND
  5
14D
330
144
100
AcDbEntity
  8
Layer 1
  0
POLYLINE
  5
14E
330
1F
100
AcDbEntity
  8
Layer 1
100
AcDb2dPolyline
 66
     1
 10
0.0
 20
0.0
 30
0.0
 70
     1
  0
VERTEX
  5
14F
330
14E
100
AcDbEntity
  8
Layer 1
100
AcDbVertex
100
AcDb2dVertex
 10
32.92757386154254
 20
51.23381520564983
 30
0.0
  0
VERTEX
  5
150
330
14E
100
AcDbEntity
  8
Layer 1
100
AcDbVertex
100
AcDb2dVertex
 10
31.07088804819413
 20
51.28621105346501
 30
0.0
  0
VERTEX
  5
151
330
14E
100
AcDbEntity
  8
Layer 1
100
AcDbVertex
100
AcDb2dVertex
 10
28.03050290210835
 20
51.65618004368422
 30
0.0
  0
VERTEX
  5
152
330
14E
100
AcDbEntity
  8
Layer 1
100
AcDbVertex
100
AcDb2dVertex
 10
24.88197052487302
 20
52.35431486991902
 30
0.0
  0
VERTEX
  5
153
330
14E
100
AcDbEntity
  8
Layer 1
100
AcDbVertex
100
AcDb2dVertex
 10
26.39390145450772
 20
52.50443657967469
 30
0.0
  0
VERTEX
  5
154
330
14E
100
AcDbEntity
  8
Layer 1
100
AcDbVertex
100
AcDb2dVertex
 10
27.87171113925779
 20
52.37604364969138
 30
0.0
  0
VERTEX
  5
155
330
14E
100
AcDbEntity
  8
Layer 1
100
AcDbVertex
100
AcDb2dVertex
 10
27.84878135811859
 20
53.09463184070233
 30
0.0
  0
VERTEX
  5
156
330
14E
100
AcDbEntity
  8
Layer 1
100
AcDbVertex
100
AcDb2dVertex
 10
27.72708565477744
 20
54.11384590266853
 30
0.0
  0
VERTEX
  5
157
330
14E
100
AcDbEntity
  8
Layer 1
100
AcDbVertex
100
AcDb2dVertex
 10
27.83457527710941
 20
54.9313540347887
 30
0.0
  0
VERTEX
  5
158
330
14E
100
AcDbEntity
  8
Layer 1
100
AcDbVertex
100
AcDb2dVertex
 10
28.12194513874193
 20
55.03100080669633
 30
0.0
  0
VERTEX
  5
159
330
14E
100
AcDbEntity
  8
Layer 1
100
AcDbVertex
100
AcDb2dVertex
 10
28.44396925451123
 20
53.95577231786872
 30
0.0
  0
VERTEX
  5
15A
330
14E
100
AcDbEntity
  8
Layer 1
100
AcDbVertex
100
AcDb2dVertex
 10
28.97406080016187
 20
52.27736079386638
 30
0.0
  0
VERTEX
  5
15B
330
14E
100
AcDbEntity
  8
Layer 1
100
AcDbVertex
100
AcDb2dVertex
 10
29.65726098403957
 20
52.18896951603642
 30
0.0
  0
VERTEX
  5
15C
330
14E
100
AcDbEntity
  8
Layer 1
100
AcDbVertex
100
AcDb2dVertex
 10
32.9657670894476
 20
51.6513085467856
 30
0.0
  0
SEQEND
  5
15D
330
14E
100
AcDbEntity
  8
Layer 1
  0
POLYLINE
  5
15E
330
1F
100
AcDbEntity
  8
Layer 1
100
AcDb2dPolyline
 66
     1
 10
0.0
 20
0.0
 30
0.0
 70
     1
  0
VERTEX
  5
15F
330
15E
100
AcDbEntity
  8
Layer 1
100
AcDbVertex
100
AcDb2dVertex
 10
18.1791576688584
 20
47.95758384878866
 30
0.0
  0
VERTEX
  5
160
330
15E
100
AcDbEntity
  8
Layer 1
100
AcDbVertex
100
AcDb2dVertex
 10
17.85426603253455
 20
47.81019467672496
 30
0.0
  0
VERTEX
  5
161
330
15E
100
AcDbEntity
  8
Layer 1
100
AcDbVertex
100
AcDb2dVertex
 10
13.74862036285603
 20
47.76627506045844
 30
0.0
  0
VERTEX
  5
162
330
15E
100
AcDbEntity
  8
Layer 1
100
AcDbVertex
100
AcDb2dVertex
 10
9.623094140292448
 20
47.86998689318837
 30
0.0
  0
VERTEX
  5
163
330
15E
100
AcDbEntity
  8
Layer 1
100
AcDbVertex
100
AcDb2dVertex
 10
9.460706295539454
 20
48.38446888216916
 30
0.0
  0
VERTEX
  5
164
330
15E
100
AcDbEntity
  8
Layer 1
100
AcDbVertex
100
AcDb2dVertex
 10
10.5243972107176
 20
48.43273390828026
 30
0.0
  0
VERTEX
  5
165
330
15E
100
AcDbEntity
  8
Layer 1
100
AcDbVertex
100
AcDb2dVertex
 10
14.61368745688318
 20
48.45710869826861
 30
0.0
  0
VERTEX
  5
166
330
15E
100
AcDbEntity
  8
Layer 1
100
AcDbVertex
100
AcDb2dVertex
 10
18.23877336927078
 20
48.31378804812627
 30
0.0
  0
SEQEND
  5
167
330
15E
100
AcDbEntity
  8
Layer 1
  0
POLYLINE
  5
168
330
1F
100
AcDbEntity
  8
Layer 1
100
AcDb2dPolyline
 66
     1
 10
0.0
 20
0.0
 30
0.0
 70
     1
  0
VERTEX
  5
169
330
168
100
AcDbEntity
  8
Layer 1
100
AcDbVertex
100
AcDb2dVertex
 10
34.63788806594497
 20
58.32156111358256
 30
0.0
  0
VERTEX
  5
16A
330
168
100
AcDbEntity
  8
Layer 1
100
AcDbVertex
100
AcDb2dVertex
 10
32.22884026517386
 20
58.10786939776143
 30
0.0
  0
VERTEX
  5
16B
330
168
100
AcDbEntity
  8
Layer 1
100
AcDbVertex
100
AcDb2dVertex
 10
27.53812349159624
 20
58.35438963797583
 30
0.0
  0
VERTEX
  5
16C
330
168
100
AcDbEntity
  8
Layer 1
100
AcDbVertex
100
AcDb2dVertex
 10
24.66532476102136
 20
58.76641098152955
 30
0.0
  0
VERTEX
  5
16D
330
168
100
AcDbEntity
  8
Layer 1
100
AcDbVertex
100
AcDb2dVertex
 10
24.58159212249911
 20
58.97220446934166
 30
0.0
  0
VERTEX
  5
16E
330
168
100
AcDbEntity
  8
Layer 1
100
AcDbVertex
100
AcDb2dVertex
 10
24.40292672896157
 20
59.52393480618962
 30
0.0
  0
VERTEX
  5
16F
330
168
100
AcDbEntity
  8
Layer 1
100
AcDbVertex
100
AcDb2dVertex
 10
24.1092784336707
 20
62.41953871833823
 30
0.0
  0
VERTEX
  5
170
330
168
100
AcDbEntity
  8
Layer 1
100
AcDbVertex
100
AcDb2dVertex
 10
24.39557189350182
 20
64.63824337741127
 30
0.0
  0
VERTEX
  5
171
330
168
100
AcDbEntity
  8
Layer 1
100
AcDbVertex
100
AcDb2dVertex
 10
24.8065635600912
 20
64.64224959954991
 30
0.0
  0
VERTEX
  5
172
330
168
100
AcDbEntity
  8
Layer 1
100
AcDbVertex
100
AcDb2dVertex
 10
24.8273076571867
 20
63.117583555998
 30
0.0
  0
VERTEX
  5
173
330
168
100
AcDbEntity
  8
Layer 1
100
AcDbVertex
100
AcDb2dVertex
 10
24.90418558906048
 20
60.72935599650125
 30
0.0
  0
VERTEX
  5
174
330
168
100
AcDbEntity
  8
Layer 1
100
AcDbVertex
100
AcDb2dVertex
 10
26.7752366939739
 20
60.44773502037397
 30
0.0
  0
VERTEX
  5
175
330
168
100
AcDbEntity
  8
Layer 1
100
AcDbVertex
100
AcDb2dVertex
 10
28.55535261326308
 20
60.33457265671564
 30
0.0
  0
VERTEX
  5
176
330
168
100
AcDbEntity
  8
Layer 1
100
AcDbVertex
100
AcDb2dVertex
 10
28.44682293066962
 20
60.88025299244187
 30
0.0
  0
VERTEX
  5
177
330
168
100
AcDbEntity
  8
Layer 1
100
AcDbVertex
100
AcDb2dVertex
 10
28.22521048969574
 20
63.117021127404
 30
0.0
  0
VERTEX
  5
178
330
168
100
AcDbEntity
  8
Layer 1
100
AcDbVertex
100
AcDb2dVertex
 10
28.40326499925275
 20
63.92248982651398
 30
0.0
  0
VERTEX
  5
179
330
168
100
AcDbEntity
  8
Layer 1
100
AcDbVertex
100
AcDb2dVertex
 10
28.66715649554826
 20
64.00270944951075
 30
0.0
  0
VERTEX
  5
17A
330
168
100
AcDbEntity
  8
Layer 1
100
AcDbVertex
100
AcDb2dVertex
 10
28.9176414247128
 20
62.8434437454454
 30
0.0
  0
VERTEX
  5
17B
330
168
100
AcDbEntity
  8
Layer 1
100
AcDbVertex
100
AcDb2dVertex
 10
29.18682840253933
 20
60.82729644658222
 30
0.0
  0
VERTEX
  5
17C
330
168
100
AcDbEntity
  8
Layer 1
100
AcDbVertex
100
AcDb2dVertex
 10
29.30691815592599
 20
60.28050509806418
 30
0.0
  0
VERTEX
  5
17D
330
168
100
AcDbEntity
  8
Layer 1
100
AcDbVertex
100
AcDb2dVertex
 10
29.59294338058151
 20
60.24110394659421
 30
0.0
  0
VERTEX
  5
17E
330
168
100
AcDbEntity
  8
Layer 1
100
AcDbVertex
100
AcDb2dVertex
 10
31.98408864656887
 20
60.22276012168285
 30
0.0
  0
VERTEX
  5
17F
330
168
100
AcDbEntity
  8
Layer 1
100
AcDbVertex
100
AcDb2dVertex
 10
34.19038007393537
 20
60.14232937164464
 30
0.0
  0
VERTEX
  5
180
330
168
100
AcDbEntity
  8
Layer 1
100
AcDbVertex
100
AcDb2dVertex
 10
34.15215915723799
 20
59.93510644992905
 30
0.0
  0
VERTEX
  5
181
330
168
100
AcDbEntity
  8
Layer 1
100
AcDbVertex
100
AcDb2dVertex
 10
30.36952747765418
 20
59.55516603337594
 30
0.0
  0
VERTEX
  5
182
330
168
100
AcDbEntity
  8
Layer 1
100
AcDbVertex
100
AcDb2dVertex
 10
25.43860350851094
 20
59.96700913032913
 30
0.0
  0
VERTEX
  5
183
330
168
100
AcDbEntity
  8
Layer 1
100
AcDbVertex
100
AcDb2dVertex
 10
25.01016617221108
 20
60.02360675237873
 30
0.0
  0
VERTEX
  5
184
330
168
100
AcDbEntity
  8
Layer 1
100
AcDbVertex
100
AcDb2dVertex
 10
25.11425526473636
 20
59.5803126484502
 30
0.0
  0
VERTEX
  5
185
330
168
100
AcDbEntity
  8
Layer 1
100
AcDbVertex
100
AcDb2dVertex
 10
25.25174569354601
 20
59.17023298145783
 30
0.0
  0
VERTEX
  5
186
330
168
100
AcDbEntity
  8
Layer 1
100
AcDbVertex
100
AcDb2dVertex
 10
25.50487836347605
 20
59.13191169288828
 30
0.0
  0
VERTEX
  5
187
330
168
100
AcDbEntity
  8
Layer 1
100
AcDbVertex
100
AcDb2dVertex
 10
26.19318886008614
 20
59.08947515756033
 30
0.0
  0
VERTEX
  5
188
330
168
100
AcDbEntity
  8
Layer 1
100
AcDbVertex
100
AcDb2dVertex
 10
28.74903744608418
 20
58.94319872883797
 30
0.0
  0
VERTEX
  5
189
330
168
100
AcDbEntity
  8
Layer 1
100
AcDbVertex
100
AcDb2dVertex
 10
32.55244264210535
 20
58.77797451342178
 30
0.0
  0
VERTEX
  5
18A
330
168
100
AcDbEntity
  8
Layer 1
100
AcDbVertex
100
AcDb2dVertex
 10
34.70769324193076
 20
58.58090818683873
 30
0.0
  0
SEQEND
  5
18B
330
168
100
AcDbEntity
  8
Layer 1
  0
POLYLINE
  5
18C
330
1F
100
AcDbEntity
  8
Layer 1
100
AcDb2dPolyline
 66
     1
 10
0.0
 20
0.0
 30
0.0
 70
     1
  0
VERTEX
  5
18D
330
18C
100
AcDbEntity
  8
Layer 1
100
AcDbVertex
100
AcDb2dVertex
 10
66.72142375611597
 20
6.490556008947404
 30
0.0
  0
VERTEX
  5
18E
330
18C
100
AcDbEntity
  8
Layer 1
100
AcDbVertex
100
AcDb2dVertex
 10
66.36754195423411
 20
5.970313020614764
 30
0.0
  0
VERTEX
  5
18F
330
18C
100
AcDbEntity
  8
Layer 1
100
AcDbVertex
100
AcDb2dVertex
 10
65.62187585488466
 20
5.830841112604789
 30
0.0
  0
VERTEX
  5
190
330
18C
100
AcDbEntity
  8
Layer 1
100
AcDbVertex
100
AcDb2dVertex
 10
64.56444260677061
 20
5.778007435761054
 30
0.0
  0
VERTEX
  5
191
330
18C
100
AcDbEntity
  8
Layer 1
100
AcDbVertex
100
AcDb2dVertex
 10
62.59549604606377
 20
6.038406683125334
 30
0.0
  0
VERTEX
  5
192
330
18C
100
AcDbEntity
  8
Layer 1
100
AcDbVertex
100
AcDb2dVertex
 10
62.30497485375543
 20
7.553836783889352
 30
0.0
  0
VERTEX
  5
193
330
18C
100
AcDbEntity
  8
Layer 1
100
AcDbVertex
100
AcDb2dVertex
 10
62.68720478732342
 20
10.11183817349019
 30
0.0
  0
VERTEX
  5
194
330
18C
100
AcDbEntity
  8
Layer 1
100
AcDbVertex
100
AcDb2dVertex
 10
63.11362603343256
 20
10.44525449674925
 30
0.0
  0
VERTEX
  5
195
330
18C
100
AcDbEntity
  8
Layer 1
100
AcDbVertex
100
AcDb2dVertex
 10
64.27716619481215
 20
10.55046844646251
 30
0.0
  0
VERTEX
  5
196
330
18C
100
AcDbEntity
  8
Layer 1
100
AcDbVertex
100
AcDb2dVertex
 10
65.90156380719817
 20
10.32354494901193
 30
0.0
  0
VERTEX
  5
197
330
18C
100
AcDbEntity
  8
Layer 1
100
AcDbVertex
100
AcDb2dVertex
 10
66.67240247986464
 20
9.813472400207964
 30
0.0
  0
VERTEX
  5
198
330
18C
100
AcDbEntity
  8
Layer 1
100
AcDbVertex
100
AcDb2dVertex
 10
66.76839952283473
 20
8.155676912636643
 30
0.0
  0
SEQEND
  5
199
330
18C
100
AcDbEntity
  8
Layer 1
  0
POLYLINE
  5
19A
330
1F
100
AcDbEntity
  8
Layer 1
100
AcDb2dPolyline
 66
     1
 10
0.0
 20
0.0
 30
0.0
 70
     1
  0
VERTEX
  5
19B
330
19A
100
AcDbEntity
  8
Layer 1
100
AcDbVertex
100
AcDb2dVertex
 10
67.91371872831888
 20
32.68634095733859
 30
0.0
  0
VERTEX
  5
19C
330
19A
100
AcDbEntity
  8
Layer 1
100
AcDbVertex
100
AcDb2dVertex
 10
67.29257085857762
 20
32.02362182702936
 30
0.0
  0
VERTEX
  5
19D
330
19A
100
AcDbEntity
  8
Layer 1
100
AcDbVertex
100
AcDb2dVertex
 10
65.35557024200884
 20
31.88151256155099
 30
0.0
  0
VERTEX
  5
19E
330
19A
100
AcDbEntity
  8
Layer 1
100
AcDbVertex
100
AcDb2dVertex
 10
64.50801111747492
 20
31.82136385188649
 30
0.0
  0
VERTEX
  5
19F
330
19A
100
AcDbEntity
  8
Layer 1
100
AcDbVertex
100
AcDb2dVertex
 10
63.15829670819075
 20
31.70535300371834
 30
0.0
  0
VERTEX
  5
1A0
330
19A
100
AcDbEntity
  8
Layer 1
100
AcDbVertex
100
AcDb2dVertex
 10
62.01443462540237
 20
31.43856456752643
 30
0.0
  0
VERTEX
  5
1A1
330
19A
100
AcDbEntity
  8
Layer 1
100
AcDbVertex
100
AcDb2dVertex
 10
62.07718608154488
 20
30.40728511430723
 30
0.0
  0
VERTEX
  5
1A2
330
19A
100
AcDbEntity
  8
Layer 1
100
AcDbVertex
100
AcDb2dVertex
 10
62.30197581143737
 20
25.12318021583771
 30
0.0
  0
VERTEX
  5
1A3
330
19A
100
AcDbEntity
  8
Layer 1
100
AcDbVertex
100
AcDb2dVertex
 10
62.17569415186837
 20
24.26916441104489
 30
0.0
  0
VERTEX
  5
1A4
330
19A
100
AcDbEntity
  8
Layer 1
100
AcDbVertex
100
AcDb2dVertex
 10
61.5947902112133
 20
23.90116305562985
 30
0.0
  0
VERTEX
  5
1A5
330
19A
100
AcDbEntity
  8
Layer 1
100
AcDbVertex
100
AcDb2dVertex
 10
60.47770838224599
 20
24.56138673353133
 30
0.0
  0
VERTEX
  5
1A6
330
19A
100
AcDbEntity
  8
Layer 1
100
AcDbVertex
100
AcDb2dVertex
 10
60.38689433508814
 20
25.74483167548927
 30
0.0
  0
VERTEX
  5
1A7
330
19A
100
AcDbEntity
  8
Layer 1
100
AcDbVertex
100
AcDb2dVertex
 10
60.29869341770541
 20
27.77946297377494
 30
0.0
  0
VERTEX
  5
1A8
330
19A
100
AcDbEntity
  8
Layer 1
100
AcDbVertex
100
AcDb2dVertex
 10
60.15090794980166
 20
32.39787392731043
 30
0.0
  0
VERTEX
  5
1A9
330
19A
100
AcDbEntity
  8
Layer 1
100
AcDbVertex
100
AcDb2dVertex
 10
61.20819064010747
 20
33.40235928231246
 30
0.0
  0
VERTEX
  5
1AA
330
19A
100
AcDbEntity
  8
Layer 1
100
AcDbVertex
100
AcDb2dVertex
 10
61.77243284998458
 20
33.46013367803562
 30
0.0
  0
VERTEX
  5
1AB
330
19A
100
AcDbEntity
  8
Layer 1
100
AcDbVertex
100
AcDb2dVertex
 10
62.8962499776835
 20
33.57371656522729
 30
0.0
  0
VERTEX
  5
1AC
330
19A
100
AcDbEntity
  8
Layer 1
100
AcDbVertex
100
AcDb2dVertex
 10
64.47961453040224
 20
33.71334941434262
 30
0.0
  0
VERTEX
  5
1AD
330
19A
100
AcDbEntity
  8
Layer 1
100
AcDbVertex
100
AcDb2dVertex
 10
66.29710166657452
 20
33.81175365169491
 30
0.0
  0
VERTEX
  5
1AE
330
19A
100
AcDbEntity
  8
Layer 1
100
AcDbVertex
100
AcDb2dVertex
 10
67.50857112745835
 20
33.71001810651674
 30
0.0
  0
SEQEND
  5
1AF
330
19A
100
AcDbEntity
  8
Layer 1
  0
POLYLINE
  5
1B0
330
1F
100
AcDbEntity
  8
Layer 1
100
AcDb2dPolyline
 66
     1
 10
0.0
 20
0.0
 30
0.0
 70
     1
  0
VERTEX
  5
1B1
330
1B0
100
AcDbEntity
  8
Layer 1
100
AcDbVertex
100
AcDb2dVertex
 10
78.27804556411581
 20
25.06220603405218
 30
0.0
  0
VERTEX
  5
1B2
330
1B0
100
AcDbEntity
  8
Layer 1
100
AcDbVertex
100
AcDb2dVertex
 10
78.01462304674021
 20
24.70908048231053
 30
0.0
  0
VERTEX
  5
1B3
330
1B0
100
AcDbEntity
  8
Layer 1
100
AcDbVertex
100
AcDb2dVertex
 10
77.25521119255389
 20
24.52269337681498
 30
0.0
  0
VERTEX
  5
1B4
330
1B0
100
AcDbEntity
  8
Layer 1
100
AcDbVertex
100
AcDb2dVertex
 10
76.63895212520647
 20
24.93920549637298
 30
0.0
  0
VERTEX
  5
1B5
330
1B0
100
AcDbEntity
  8
Layer 1
100
AcDbVertex
100
AcDb2dVertex
 10
76.12833964495229
 20
25.57018634848653
 30
0.0
  0
VERTEX
  5
1B6
330
1B0
100
AcDbEntity
  8
Layer 1
100
AcDbVertex
100
AcDb2dVertex
 10
74.59570615141055
 20
27.68629018762141
 30
0.0
  0
VERTEX
  5
1B7
330
1B0
100
AcDbEntity
  8
Layer 1
100
AcDbVertex
100
AcDb2dVertex
 10
73.9094480865311
 20
28.81044131137769
 30
0.0
  0
VERTEX
  5
1B8
330
1B0
100
AcDbEntity
  8
Layer 1
100
AcDbVertex
100
AcDb2dVertex
 10
73.5339586433433
 20
29.41837989663324
 30
0.0
  0
VERTEX
  5
1B9
330
1B0
100
AcDbEntity
  8
Layer 1
100
AcDbVertex
100
AcDb2dVertex
 10
73.07744660218145
 20
29.43465225376924
 30
0.0
  0
VERTEX
  5
1BA
330
1B0
100
AcDbEntity
  8
Layer 1
100
AcDbVertex
100
AcDb2dVertex
 10
72.61853601938495
 20
29.3488914112096
 30
0.0
  0
VERTEX
  5
1BB
330
1B0
100
AcDbEntity
  8
Layer 1
100
AcDbVertex
100
AcDb2dVertex
 10
72.53815026363426
 20
28.34448220038648
 30
0.0
  0
VERTEX
  5
1BC
330
1B0
100
AcDbEntity
  8
Layer 1
100
AcDbVertex
100
AcDb2dVertex
 10
72.28030876846046
 20
25.26802894120614
 30
0.0
  0
VERTEX
  5
1BD
330
1B0
100
AcDbEntity
  8
Layer 1
100
AcDbVertex
100
AcDb2dVertex
 10
71.44919159491548
 20
24.7842053675206
 30
0.0
  0
VERTEX
  5
1BE
330
1B0
100
AcDbEntity
  8
Layer 1
100
AcDbVertex
100
AcDb2dVertex
 10
70.64844729599493
 20
25.21312725768606
 30
0.0
  0
VERTEX
  5
1BF
330
1B0
100
AcDbEntity
  8
Layer 1
100
AcDbVertex
100
AcDb2dVertex
 10
70.6394968938778
 20
27.92057198163076
 30
0.0
  0
VERTEX
  5
1C0
330
1B0
100
AcDbEntity
  8
Layer 1
100
AcDbVertex
100
AcDb2dVertex
 10
70.87243924255873
 20
35.80437412983453
 30
0.0
  0
VERTEX
  5
1C1
330
1B0
100
AcDbEntity
  8
Layer 1
100
AcDbVertex
100
AcDb2dVertex
 10
70.87298782675654
 20
41.55531898900089
 30
0.0
  0
VERTEX
  5
1C2
330
1B0
100
AcDbEntity
  8
Layer 1
100
AcDbVertex
100
AcDb2dVertex
 10
70.80960298948975
 20
43.45433923525557
 30
0.0
  0
VERTEX
  5
1C3
330
1B0
100
AcDbEntity
  8
Layer 1
100
AcDbVertex
100
AcDb2dVertex
 10
70.93813609398417
 20
44.25770877779786
 30
0.0
  0
VERTEX
  5
1C4
330
1B0
100
AcDbEntity
  8
Layer 1
100
AcDbVertex
100
AcDb2dVertex
 10
71.72230518960275
 20
44.71262006065378
 30
0.0
  0
VERTEX
  5
1C5
330
1B0
100
AcDbEntity
  8
Layer 1
100
AcDbVertex
100
AcDb2dVertex
 10
72.5254030358704
 20
44.29505749753719
 30
0.0
  0
VERTEX
  5
1C6
330
1B0
100
AcDbEntity
  8
Layer 1
100
AcDbVertex
100
AcDb2dVertex
 10
72.71081584198618
 20
42.74100153148813
 30
0.0
  0
VERTEX
  5
1C7
330
1B0
100
AcDbEntity
  8
Layer 1
100
AcDbVertex
100
AcDb2dVertex
 10
72.72668498108403
 20
34.83246290844635
 30
0.0
  0
VERTEX
  5
1C8
330
1B0
100
AcDbEntity
  8
Layer 1
100
AcDbVertex
100
AcDb2dVertex
 10
72.73432362666503
 20
31.39278634107549
 30
0.0
  0
VERTEX
  5
1C9
330
1B0
100
AcDbEntity
  8
Layer 1
100
AcDbVertex
100
AcDb2dVertex
 10
73.3460036599827
 20
31.34587633523851
 30
0.0
  0
VERTEX
  5
1CA
330
1B0
100
AcDbEntity
  8
Layer 1
100
AcDbVertex
100
AcDb2dVertex
 10
73.88955195870038
 20
31.38129030061455
 30
0.0
  0
VERTEX
  5
1CB
330
1B0
100
AcDbEntity
  8
Layer 1
100
AcDbVertex
100
AcDb2dVertex
 10
74.22859602899825
 20
31.70457598698389
 30
0.0
  0
VERTEX
  5
1CC
330
1B0
100
AcDbEntity
  8
Layer 1
100
AcDbVertex
100
AcDb2dVertex
 10
77.29676687817619
 20
33.85405866525933
 30
0.0
  0
VERTEX
  5
1CD
330
1B0
100
AcDbEntity
  8
Layer 1
100
AcDbVertex
100
AcDb2dVertex
 10
78.0557357116854
 20
33.48707487296203
 30
0.0
  0
VERTEX
  5
1CE
330
1B0
100
AcDbEntity
  8
Layer 1
100
AcDbVertex
100
AcDb2dVertex
 10
78.20921295696024
 20
32.67785088139378
 30
0.0
  0
VERTEX
  5
1CF
330
1B0
100
AcDbEntity
  8
Layer 1
100
AcDbVertex
100
AcDb2dVertex
 10
77.59780981156575
 20
32.02129423792506
 30
0.0
  0
VERTEX
  5
1D0
330
1B0
100
AcDbEntity
  8
Layer 1
100
AcDbVertex
100
AcDb2dVertex
 10
77.04945750738074
 20
31.6738258525641
 30
0.0
  0
VERTEX
  5
1D1
330
1B0
100
AcDbEntity
  8
Layer 1
100
AcDbVertex
100
AcDb2dVertex
 10
75.33045767493775
 20
30.14376741670802
 30
0.0
  0
VERTEX
  5
1D2
330
1B0
100
AcDbEntity
  8
Layer 1
100
AcDbVertex
100
AcDb2dVertex
 10
76.68984412548885
 20
27.92062908976492
 30
0.0
  0
VERTEX
  5
1D3
330
1B0
100
AcDbEntity
  8
Layer 1
100
AcDbVertex
100
AcDb2dVertex
 10
77.6061960545394
 20
26.74969255973711
 30
0.0
  0
VERTEX
  5
1D4
330
1B0
100
AcDbEntity
  8
Layer 1
100
AcDbVertex
100
AcDb2dVertex
 10
78.28963332370134
 20
25.7933943561178
 30
0.0
  0
SEQEND
  5
1D5
330
1B0
100
AcDbEntity
  8
Layer 1
  0
POLYLINE
  5
1D6
330
1F
100
AcDbEntity
  8
Layer 1
100
AcDb2dPolyline
 66
     1
 10
0.0
 20
0.0
 30
0.0
 70
     1
  0
VERTEX
  5
1D7
330
1D6
100
AcDbEntity
  8
Layer 1
100
AcDbVertex
100
AcDb2dVertex
 10
78.89619958318758
 20
63.66060749821112
 30
0.0
  0
VERTEX
  5
1D8
330
1D6
100
AcDbEntity
  8
Layer 1
100
AcDbVertex
100
AcDb2dVertex
 10
78.34062223475684
 20
63.16131281181733
 30
0.0
  0
VERTEX
  5
1D9
330
1D6
100
AcDbEntity
  8
Layer 1
100
AcDbVertex
100
AcDb2dVertex
 10
76.67348870197588
 20
63.21625602852588
 30
0.0
  0
VERTEX
  5
1DA
330
1D6
100
AcDbEntity
  8
Layer 1
100
AcDbVertex
100
AcDb2dVertex
 10
74.0383082648848
 20
63.27944531369694
 30
0.0
  0
VERTEX
  5
1DB
330
1D6
100
AcDbEntity
  8
Layer 1
100
AcDbVertex
100
AcDb2dVertex
 10
72.92703935175496
 20
63.23116125154112
 30
0.0
  0
VERTEX
  5
1DC
330
1D6
100
AcDbEntity
  8
Layer 1
100
AcDbVertex
100
AcDb2dVertex
 10
72.98408345558073
 20
62.56410017248636
 30
0.0
  0
VERTEX
  5
1DD
330
1D6
100
AcDbEntity
  8
Layer 1
100
AcDbVertex
100
AcDb2dVertex
 10
73.12369207700277
 20
61.00989364862907
 30
0.0
  0
VERTEX
  5
1DE
330
1D6
100
AcDbEntity
  8
Layer 1
100
AcDbVertex
100
AcDb2dVertex
 10
73.23041852699646
 20
59.90951681417774
 30
0.0
  0
VERTEX
  5
1DF
330
1D6
100
AcDbEntity
  8
Layer 1
100
AcDbVertex
100
AcDb2dVertex
 10
73.27149658095126
 20
59.71349747005424
 30
0.0
  0
VERTEX
  5
1E0
330
1D6
100
AcDbEntity
  8
Layer 1
100
AcDbVertex
100
AcDb2dVertex
 10
73.80636444327689
 20
59.64425818376145
 30
0.0
  0
VERTEX
  5
1E1
330
1D6
100
AcDbEntity
  8
Layer 1
100
AcDbVertex
100
AcDb2dVertex
 10
74.6296387663975
 20
59.571964477566
 30
0.0
  0
VERTEX
  5
1E2
330
1D6
100
AcDbEntity
  8
Layer 1
100
AcDbVertex
100
AcDb2dVertex
 10
75.51848707192765
 20
58.91811614409598
 30
0.0
  0
VERTEX
  5
1E3
330
1D6
100
AcDbEntity
  8
Layer 1
100
AcDbVertex
100
AcDb2dVertex
 10
75.14291975401146
 20
57.85056956458739
 30
0.0
  0
VERTEX
  5
1E4
330
1D6
100
AcDbEntity
  8
Layer 1
100
AcDbVertex
100
AcDb2dVertex
 10
73.77866007601219
 20
57.75500515899732
 30
0.0
  0
VERTEX
  5
1E5
330
1D6
100
AcDbEntity
  8
Layer 1
100
AcDbVertex
100
AcDb2dVertex
 10
73.39474112611276
 20
57.76871803339331
 30
0.0
  0
VERTEX
  5
1E6
330
1D6
100
AcDbEntity
  8
Layer 1
100
AcDbVertex
100
AcDb2dVertex
 10
73.44010575122844
 20
56.73733474720289
 30
0.0
  0
VERTEX
  5
1E7
330
1D6
100
AcDbEntity
  8
Layer 1
100
AcDbVertex
100
AcDb2dVertex
 10
73.43726418891669
 20
52.47622862249969
 30
0.0
  0
VERTEX
  5
1E8
330
1D6
100
AcDbEntity
  8
Layer 1
100
AcDbVertex
100
AcDb2dVertex
 10
73.29639745799366
 20
50.80889434597445
 30
0.0
  0
VERTEX
  5
1E9
330
1D6
100
AcDbEntity
  8
Layer 1
100
AcDbVertex
100
AcDb2dVertex
 10
73.20829691248306
 20
49.31125602482493
 30
0.0
  0
VERTEX
  5
1EA
330
1D6
100
AcDbEntity
  8
Layer 1
100
AcDbVertex
100
AcDb2dVertex
 10
73.118244307114
 20
48.16630369583899
 30
0.0
  0
VERTEX
  5
1EB
330
1D6
100
AcDbEntity
  8
Layer 1
100
AcDbVertex
100
AcDb2dVertex
 10
72.18244965420695
 20
47.36186986534194
 30
0.0
  0
VERTEX
  5
1EC
330
1D6
100
AcDbEntity
  8
Layer 1
100
AcDbVertex
100
AcDb2dVertex
 10
71.31484038293499
 20
48.11278299083584
 30
0.0
  0
VERTEX
  5
1ED
330
1D6
100
AcDbEntity
  8
Layer 1
100
AcDbVertex
100
AcDb2dVertex
 10
71.48840065538872
 20
51.76967986449894
 30
0.0
  0
VERTEX
  5
1EE
330
1D6
100
AcDbEntity
  8
Layer 1
100
AcDbVertex
100
AcDb2dVertex
 10
71.57609106066307
 20
56.34734676013703
 30
0.0
  0
VERTEX
  5
1EF
330
1D6
100
AcDbEntity
  8
Layer 1
100
AcDbVertex
100
AcDb2dVertex
 10
71.42787641647837
 20
58.26887453344801
 30
0.0
  0
VERTEX
  5
1F0
330
1D6
100
AcDbEntity
  8
Layer 1
100
AcDbVertex
100
AcDb2dVertex
 10
71.29004160831427
 20
60.21862929997876
 30
0.0
  0
VERTEX
  5
1F1
330
1D6
100
AcDbEntity
  8
Layer 1
100
AcDbVertex
100
AcDb2dVertex
 10
71.17436475620347
 20
61.74451018929371
 30
0.0
  0
VERTEX
  5
1F2
330
1D6
100
AcDbEntity
  8
Layer 1
100
AcDbVertex
100
AcDb2dVertex
 10
71.06097049890946
 20
62.81827117212836
 30
0.0
  0
VERTEX
  5
1F3
330
1D6
100
AcDbEntity
  8
Layer 1
100
AcDbVertex
100
AcDb2dVertex
 10
71.07582034434006
 20
64.27069715651996
 30
0.0
  0
VERTEX
  5
1F4
330
1D6
100
AcDbEntity
  8
Layer 1
100
AcDbVertex
100
AcDb2dVertex
 10
71.79827285242902
 20
65.09874260466705
 30
0.0
  0
VERTEX
  5
1F5
330
1D6
100
AcDbEntity
  8
Layer 1
100
AcDbVertex
100
AcDb2dVertex
 10
77.06277754703572
 20
65.08692468199538
 30
0.0
  0
VERTEX
  5
1F6
330
1D6
100
AcDbEntity
  8
Layer 1
100
AcDbVertex
100
AcDb2dVertex
 10
78.36258117761531
 20
64.9571715400894
 30
0.0
  0
VERTEX
  5
1F7
330
1D6
100
AcDbEntity
  8
Layer 1
100
AcDbVertex
100
AcDb2dVertex
 10
79.00132700542486
 20
64.06178521847292
 30
0.0
  0
SEQEND
  5
1F8
330
1D6
100
AcDbEntity
  8
Layer 1
  0
POLYLINE
  5
1F9
330
1F
100
AcDbEntity
  8
Layer 1
100
AcDb2dPolyline
 66
     1
 10
0.0
 20
0.0
 30
0.0
 70
     1
  0
VERTEX
  5
1FA
330
1F9
100
AcDbEntity
  8
Layer 1
100
AcDbVertex
100
AcDb2dVertex
 10
78.90992457143022
 20
6.740115094118789
 30
0.0
  0
VERTEX
  5
1FB
330
1F9
100
AcDbEntity
  8
Layer 1
100
AcDbVertex
100
AcDb2dVertex
 10
78.64285924731513
 20
6.429266867149257
 30
0.0
  0
VERTEX
  5
1FC
330
1F9
100
AcDbEntity
  8
Layer 1
100
AcDbVertex
100
AcDb2dVertex
 10
77.28024359135982
 20
6.376334548982882
 30
0.0
  0
VERTEX
  5
1FD
330
1F9
100
AcDbEntity
  8
Layer 1
100
AcDbVertex
100
AcDb2dVertex
 10
74.00228341552824
 20
6.362247875890578
 30
0.0
  0
VERTEX
  5
1FE
330
1F9
100
AcDbEntity
  8
Layer 1
100
AcDbVertex
100
AcDb2dVertex
 10
73.2004886730491
 20
6.275552536590187
 30
0.0
  0
VERTEX
  5
1FF
330
1F9
100
AcDbEntity
  8
Layer 1
100
AcDbVertex
100
AcDb2dVertex
 10
71.84185328098965
 20
5.959235773137642
 30
0.0
  0
VERTEX
  5
200
330
1F9
100
AcDbEntity
  8
Layer 1
100
AcDbVertex
100
AcDb2dVertex
 10
71.06919926187676
 20
5.871477876432007
 30
0.0
  0
VERTEX
  5
201
330
1F9
100
AcDbEntity
  8
Layer 1
100
AcDbVertex
100
AcDb2dVertex
 10
70.50131597580972
 20
6.362150965117456
 30
0.0
  0
VERTEX
  5
202
330
1F9
100
AcDbEntity
  8
Layer 1
100
AcDbVertex
100
AcDb2dVertex
 10
70.30531912882998
 20
9.623283277417148
 30
0.0
  0
VERTEX
  5
203
330
1F9
100
AcDbEntity
  8
Layer 1
100
AcDbVertex
100
AcDb2dVertex
 10
70.19371079864055
 20
12.12970044692764
 30
0.0
  0
VERTEX
  5
204
330
1F9
100
AcDbEntity
  8
Layer 1
100
AcDbVertex
100
AcDb2dVertex
 10
70.04015394808779
 20
12.84536747034893
 30
0.0
  0
VERTEX
  5
205
330
1F9
100
AcDbEntity
  8
Layer 1
100
AcDbVertex
100
AcDb2dVertex
 10
70.40338417847637
 20
13.42444741180999
 30
0.0
  0
VERTEX
  5
206
330
1F9
100
AcDbEntity
  8
Layer 1
100
AcDbVertex
100
AcDb2dVertex
 10
71.18215742069175
 20
13.62251226546605
 30
0.0
  0
VERTEX
  5
207
330
1F9
100
AcDbEntity
  8
Layer 1
100
AcDbVertex
100
AcDb2dVertex
 10
71.88475360358893
 20
13.70685924906788
 30
0.0
  0
VERTEX
  5
208
330
1F9
100
AcDbEntity
  8
Layer 1
100
AcDbVertex
100
AcDb2dVertex
 10
74.67217740414713
 20
13.8243514476251
 30
0.0
  0
VERTEX
  5
209
330
1F9
100
AcDbEntity
  8
Layer 1
100
AcDbVertex
100
AcDb2dVertex
 10
76.68035725302053
 20
13.73556906560367
 30
0.0
  0
VERTEX
  5
20A
330
1F9
100
AcDbEntity
  8
Layer 1
100
AcDbVertex
100
AcDb2dVertex
 10
76.74027233849988
 20
15.55826342528143
 30
0.0
  0
VERTEX
  5
20B
330
1F9
100
AcDbEntity
  8
Layer 1
100
AcDbVertex
100
AcDb2dVertex
 10
77.04248858446394
 20
22.56084206913991
 30
0.0
  0
VERTEX
  5
20C
330
1F9
100
AcDbEntity
  8
Layer 1
100
AcDbVertex
100
AcDb2dVertex
 10
77.86151960016167
 20
23.09810501200115
 30
0.0
  0
VERTEX
  5
20D
330
1F9
100
AcDbEntity
  8
Layer 1
100
AcDbVertex
100
AcDb2dVertex
 10
78.72206476829322
 20
22.60684180592941
 30
0.0
  0
VERTEX
  5
20E
330
1F9
100
AcDbEntity
  8
Layer 1
100
AcDbVertex
100
AcDb2dVertex
 10
78.78101593768994
 20
21.12119446240353
 30
0.0
  0
VERTEX
  5
20F
330
1F9
100
AcDbEntity
  8
Layer 1
100
AcDbVertex
100
AcDb2dVertex
 10
78.69260735436484
 20
19.50013508004148
 30
0.0
  0
VERTEX
  5
210
330
1F9
100
AcDbEntity
  8
Layer 1
100
AcDbVertex
100
AcDb2dVertex
 10
78.60660942652098
 20
15.12017135320981
 30
0.0
  0
VERTEX
  5
211
330
1F9
100
AcDbEntity
  8
Layer 1
100
AcDbVertex
100
AcDb2dVertex
 10
78.6354421120727
 20
9.977272373369239
 30
0.0
  0
VERTEX
  5
212
330
1F9
100
AcDbEntity
  8
Layer 1
100
AcDbVertex
100
AcDb2dVertex
 10
78.7231134813023
 20
8.3948457784903
 30
0.0
  0
VERTEX
  5
213
330
1F9
100
AcDbEntity
  8
Layer 1
100
AcDbVertex
100
AcDb2dVertex
 10
78.86409962014221
 20
7.716740332399304
 30
0.0
  0
SEQEND
  5
214
330
1F9
100
AcDbEntity
  8
Layer 1
  0
POLYLINE
  5
215
330
1F
100
AcDbEntity
  8
Layer 1
100
AcDb2dPolyline
 66
     1
 10
0.0
 20
0.0
 30
0.0
 70
     1
  0
VERTEX
  5
216
330
215
100
AcDbEntity
  8
Layer 1
100
AcDbVertex
100
AcDb2dVertex
 10
87.99192632679893
 20
63.66616429271966
 30
0.0
  0
VERTEX
  5
217
330
215
100
AcDbEntity
  8
Layer 1
100
AcDbVertex
100
AcDb2dVertex
 10
87.37419283126053
 20
63.15959610669356
 30
0.0
  0
VERTEX
  5
218
330
215
100
AcDbEntity
  8
Layer 1
100
AcDbVertex
100
AcDb2dVertex
 10
86.1316271260529
 20
63.06774372982373
 30
0.0
  0
VERTEX
  5
219
330
215
100
AcDbEntity
  8
Layer 1
100
AcDbVertex
100
AcDb2dVertex
 10
84.82473343409009
 20
63.01850786543196
 30
0.0
  0
VERTEX
  5
21A
330
215
100
AcDbEntity
  8
Layer 1
100
AcDbVertex
100
AcDb2dVertex
 10
82.72345694324206
 20
62.89264153774774
 30
0.0
  0
VERTEX
  5
21B
330
215
100
AcDbEntity
  8
Layer 1
100
AcDbVertex
100
AcDb2dVertex
 10
81.9834722379666
 20
62.91023084306842
 30
0.0
  0
VERTEX
  5
21C
330
215
100
AcDbEntity
  8
Layer 1
100
AcDbVertex
100
AcDb2dVertex
 10
81.9007156293736
 20
61.2790114044748
 30
0.0
  0
VERTEX
  5
21D
330
215
100
AcDbEntity
  8
Layer 1
100
AcDbVertex
100
AcDb2dVertex
 10
81.94826420798343
 20
59.6479857874274
 30
0.0
  0
VERTEX
  5
21E
330
215
100
AcDbEntity
  8
Layer 1
100
AcDbVertex
100
AcDb2dVertex
 10
83.15769681208229
 20
59.56198612903403
 30
0.0
  0
VERTEX
  5
21F
330
215
100
AcDbEntity
  8
Layer 1
100
AcDbVertex
100
AcDb2dVertex
 10
84.54591075653656
 20
59.41313291207648
 30
0.0
  0
VERTEX
  5
220
330
215
100
AcDbEntity
  8
Layer 1
100
AcDbVertex
100
AcDb2dVertex
 10
85.1371408861771
 20
58.73296811205672
 30
0.0
  0
VERTEX
  5
221
330
215
100
AcDbEntity
  8
Layer 1
100
AcDbVertex
100
AcDb2dVertex
 10
84.85396068493233
 20
57.93809383710784
 30
0.0
  0
VERTEX
  5
222
330
215
100
AcDbEntity
  8
Layer 1
100
AcDbVertex
100
AcDb2dVertex
 10
83.03894996512312
 20
57.68435893594484
 30
0.0
  0
VERTEX
  5
223
330
215
100
AcDbEntity
  8
Layer 1
100
AcDbVertex
100
AcDb2dVertex
 10
81.84628638587247
 20
57.72108119675794
 30
0.0
  0
VERTEX
  5
224
330
215
100
AcDbEntity
  8
Layer 1
100
AcDbVertex
100
AcDb2dVertex
 10
81.81176365349918
 20
57.44404271575945
 30
0.0
  0
VERTEX
  5
225
330
215
100
AcDbEntity
  8
Layer 1
100
AcDbVertex
100
AcDb2dVertex
 10
81.66016924610204
 20
54.00214412280502
 30
0.0
  0
VERTEX
  5
226
330
215
100
AcDbEntity
  8
Layer 1
100
AcDbVertex
100
AcDb2dVertex
 10
81.40040511041158
 20
48.62006243271462
 30
0.0
  0
VERTEX
  5
227
330
215
100
AcDbEntity
  8
Layer 1
100
AcDbVertex
100
AcDb2dVertex
 10
80.92978909066224
 20
47.65967840167875
 30
0.0
  0
VERTEX
  5
228
330
215
100
AcDbEntity
  8
Layer 1
100
AcDbVertex
100
AcDb2dVertex
 10
80.2252010452676
 20
47.56542056097622
 30
0.0
  0
VERTEX
  5
229
330
215
100
AcDbEntity
  8
Layer 1
100
AcDbVertex
100
AcDb2dVertex
 10
79.64391292261911
 20
48.03448600835571
 30
0.0
  0
VERTEX
  5
22A
330
215
100
AcDbEntity
  8
Layer 1
100
AcDbVertex
100
AcDb2dVertex
 10
79.68531112823509
 20
51.57194727635073
 30
0.0
  0
VERTEX
  5
22B
330
215
100
AcDbEntity
  8
Layer 1
100
AcDbVertex
100
AcDb2dVertex
 10
79.79703713579187
 20
54.39773735976598
 30
0.0
  0
VERTEX
  5
22C
330
215
100
AcDbEntity
  8
Layer 1
100
AcDbVertex
100
AcDb2dVertex
 10
79.9085156747673
 20
57.22337342427396
 30
0.0
  0
VERTEX
  5
22D
330
215
100
AcDbEntity
  8
Layer 1
100
AcDbVertex
100
AcDb2dVertex
 10
80.02252254659138
 20
61.05162065865383
 30
0.0
  0
VERTEX
  5
22E
330
215
100
AcDbEntity
  8
Layer 1
100
AcDbVertex
100
AcDb2dVertex
 10
80.13897987653567
 20
64.18815859716646
 30
0.0
  0
VERTEX
  5
22F
330
215
100
AcDbEntity
  8
Layer 1
100
AcDbVertex
100
AcDb2dVertex
 10
80.8632598449177
 20
64.77222944344302
 30
0.0
  0
VERTEX
  5
230
330
215
100
AcDbEntity
  8
Layer 1
100
AcDbVertex
100
AcDb2dVertex
 10
81.85780146237812
 20
64.85552944458529
 30
0.0
  0
VERTEX
  5
231
330
215
100
AcDbEntity
  8
Layer 1
100
AcDbVertex
100
AcDb2dVertex
 10
82.91480207311221
 20
64.76294677581808
 30
0.0
  0
VERTEX
  5
232
330
215
100
AcDbEntity
  8
Layer 1
100
AcDbVertex
100
AcDb2dVertex
 10
84.15814998670285
 20
64.82938084133902
 30
0.0
  0
VERTEX
  5
233
330
215
100
AcDbEntity
  8
Layer 1
100
AcDbVertex
100
AcDb2dVertex
 10
86.09640179057453
 20
64.95793125132866
 30
0.0
  0
VERTEX
  5
234
330
215
100
AcDbEntity
  8
Layer 1
100
AcDbVertex
100
AcDb2dVertex
 10
87.50915665777104
 20
64.81829840221333
 30
0.0
  0
VERTEX
  5
235
330
215
100
AcDbEntity
  8
Layer 1
100
AcDbVertex
100
AcDb2dVertex
 10
88.04246529497922
 20
64.03924134987668
 30
0.0
  0
SEQEND
  5
236
330
215
100
AcDbEntity
  8
Layer 1
  0
POLYLINE
  5
237
330
1F
100
AcDbEntity
  8
Layer 1
100
AcDb2dPolyline
 66
     1
 10
0.0
 20
0.0
 30
0.0
 70
     1
  0
VERTEX
  5
238
330
237
100
AcDbEntity
  8
Layer 1
100
AcDbVertex
100
AcDb2dVertex
 10
95.70923749733792
 20
39.24913505169495
 30
0.0
  0
VERTEX
  5
239
330
237
100
AcDbEntity
  8
Layer 1
100
AcDbVertex
100
AcDb2dVertex
 10
94.95325213120108
 20
38.67959389918781
 30
0.0
  0
VERTEX
  5
23A
330
237
100
AcDbEntity
  8
Layer 1
100
AcDbVertex
100
AcDb2dVertex
 10
94.11258578540507
 20
38.65073525539329
 30
0.0
  0
VERTEX
  5
23B
330
237
100
AcDbEntity
  8
Layer 1
100
AcDbVertex
100
AcDb2dVertex
 10
91.85941723264249
 20
38.65576769339729
 30
0.0
  0
VERTEX
  5
23C
330
237
100
AcDbEntity
  8
Layer 1
100
AcDbVertex
100
AcDb2dVertex
 10
91.77693405087362
 20
32.31229825354946
 30
0.0
  0
VERTEX
  5
23D
330
237
100
AcDbEntity
  8
Layer 1
100
AcDbVertex
100
AcDb2dVertex
 10
91.63418621262241
 20
25.78700170619115
 30
0.0
  0
VERTEX
  5
23E
330
237
100
AcDbEntity
  8
Layer 1
100
AcDbVertex
100
AcDb2dVertex
 10
90.84346525652134
 20
25.1883527107586
 30
0.0
  0
VERTEX
  5
23F
330
237
100
AcDbEntity
  8
Layer 1
100
AcDbVertex
100
AcDb2dVertex
 10
89.96340468145345
 20
25.63837692177022
 30
0.0
  0
VERTEX
  5
240
330
237
100
AcDbEntity
  8
Layer 1
100
AcDbVertex
100
AcDb2dVertex
 10
89.8664973694359
 20
29.05091155047033
 30
0.0
  0
VERTEX
  5
241
330
237
100
AcDbEntity
  8
Layer 1
100
AcDbVertex
100
AcDb2dVertex
 10
89.92310018313408
 20
34.75903569231533
 30
0.0
  0
VERTEX
  5
242
330
237
100
AcDbEntity
  8
Layer 1
100
AcDbVertex
100
AcDb2dVertex
 10
89.93956463126679
 20
38.68682932673067
 30
0.0
  0
VERTEX
  5
243
330
237
100
AcDbEntity
  8
Layer 1
100
AcDbVertex
100
AcDb2dVertex
 10
89.57208590180676
 20
38.70522852922667
 30
0.0
  0
VERTEX
  5
244
330
237
100
AcDbEntity
  8
Layer 1
100
AcDbVertex
100
AcDb2dVertex
 10
88.90736452570295
 20
38.65858329746622
 30
0.0
  0
VERTEX
  5
245
330
237
100
AcDbEntity
  8
Layer 1
100
AcDbVertex
100
AcDb2dVertex
 10
87.89014405678371
 20
39.02305087076157
 30
0.0
  0
VERTEX
  5
246
330
237
100
AcDbEntity
  8
Layer 1
100
AcDbVertex
100
AcDb2dVertex
 10
87.87320543808255
 20
40.09399798007684
 30
0.0
  0
VERTEX
  5
247
330
237
100
AcDbEntity
  8
Layer 1
100
AcDbVertex
100
AcDb2dVertex
 10
89.56260075988797
 20
40.60831556685319
 30
0.0
  0
VERTEX
  5
248
330
237
100
AcDbEntity
  8
Layer 1
100
AcDbVertex
100
AcDb2dVertex
 10
89.97806589698637
 20
40.56935224441175
 30
0.0
  0
VERTEX
  5
249
330
237
100
AcDbEntity
  8
Layer 1
100
AcDbVertex
100
AcDb2dVertex
 10
89.95872527555156
 20
42.84936508132769
 30
0.0
  0
VERTEX
  5
24A
330
237
100
AcDbEntity
  8
Layer 1
100
AcDbVertex
100
AcDb2dVertex
 10
89.93948156488982
 20
45.12938830154071
 30
0.0
  0
VERTEX
  5
24B
330
237
100
AcDbEntity
  8
Layer 1
100
AcDbVertex
100
AcDb2dVertex
 10
90.07220779087106
 20
45.34309213120844
 30
0.0
  0
VERTEX
  5
24C
330
237
100
AcDbEntity
  8
Layer 1
100
AcDbVertex
100
AcDb2dVertex
 10
90.85486265565969
 20
45.77679379914797
 30
0.0
  0
VERTEX
  5
24D
330
237
100
AcDbEntity
  8
Layer 1
100
AcDbVertex
100
AcDb2dVertex
 10
91.64756509096105
 20
45.37431470564719
 30
0.0
  0
VERTEX
  5
24E
330
237
100
AcDbEntity
  8
Layer 1
100
AcDbVertex
100
AcDb2dVertex
 10
91.80669431096801
 20
44.18220836334195
 30
0.0
  0
VERTEX
  5
24F
330
237
100
AcDbEntity
  8
Layer 1
100
AcDbVertex
100
AcDb2dVertex
 10
91.85697888836889
 20
41.99280536874053
 30
0.0
  0
VERTEX
  5
250
330
237
100
AcDbEntity
  8
Layer 1
100
AcDbVertex
100
AcDb2dVertex
 10
91.8906051960908
 20
40.71382370998483
 30
0.0
  0
VERTEX
  5
251
330
237
100
AcDbEntity
  8
Layer 1
100
AcDbVertex
100
AcDb2dVertex
 10
94.62998201977743
 20
40.5616201491567
 30
0.0
  0
VERTEX
  5
252
330
237
100
AcDbEntity
  8
Layer 1
100
AcDbVertex
100
AcDb2dVertex
 10
95.34666833686597
 20
40.42246320115934
 30
0.0
  0
SEQEND
  5
253
330
237
100
AcDbEntity
  8
Layer 1
  0
POLYLINE
  5
254
330
1F
100
AcDbEntity
  8
Layer 1
100
AcDb2dPolyline
 66
     1
 10
0.0
 20
0.0
 30
0.0
 70
     1
  0
VERTEX
  5
255
330
254
100
AcDbEntity
  8
Layer 1
100
AcDbVertex
100
AcDb2dVertex
 10
96.99913719301492
 20
55.18301054597825
 30
0.0
  0
VERTEX
  5
256
330
254
100
AcDbEntity
  8
Layer 1
100
AcDbVertex
100
AcDb2dVertex
 10
94.94088389378209
 20
55.13746248261346
 30
0.0
  0
VERTEX
  5
257
330
254
100
AcDbEntity
  8
Layer 1
100
AcDbVertex
100
AcDb2dVertex
 10
94.0481176241388
 20
55.01886792401203
 30
0.0
  0
VERTEX
  5
258
330
254
100
AcDbEntity
  8
Layer 1
100
AcDbVertex
100
AcDb2dVertex
 10
93.69231318174027
 20
54.97949619188391
 30
0.0
  0
VERTEX
  5
259
330
254
100
AcDbEntity
  8
Layer 1
100
AcDbVertex
100
AcDb2dVertex
 10
93.72768215282879
 20
54.34957616662606
 30
0.0
  0
VERTEX
  5
25A
330
254
100
AcDbEntity
  8
Layer 1
100
AcDbVertex
100
AcDb2dVertex
 10
93.7834906442973
 20
53.6529607628698
 30
0.0
  0
VERTEX
  5
25B
330
254
100
AcDbEntity
  8
Layer 1
100
AcDbVertex
100
AcDb2dVertex
 10
95.06467875369093
 20
53.57330529901652
 30
0.0
  0
VERTEX
  5
25C
330
254
100
AcDbEntity
  8
Layer 1
100
AcDbVertex
100
AcDb2dVertex
 10
96.63635690550154
 20
53.55517606224565
 30
0.0
  0
VERTEX
  5
25D
330
254
100
AcDbEntity
  8
Layer 1
100
AcDbVertex
100
AcDb2dVertex
 10
96.94722762961484
 20
53.55037724842684
 30
0.0
  0
VERTEX
  5
25E
330
254
100
AcDbEntity
  8
Layer 1
100
AcDbVertex
100
AcDb2dVertex
 10
97.00947722639654
 20
54.11538955284031
 30
0.0
  0
SEQEND
  5
25F
330
254
100
AcDbEntity
  8
Layer 1
  0
POLYLINE
  5
260
330
1F
100
AcDbEntity
  8
Layer 1
100
AcDb2dPolyline
 66
     1
 10
0.0
 20
0.0
 30
0.0
 70
     1
  0
VERTEX
  5
261
330
260
100
AcDbEntity
  8
Layer 1
100
AcDbVertex
100
AcDb2dVertex
 10
18.40174960086056
 20
26.69533080766725
 30
0.0
  0
VERTEX
  5
262
330
260
100
AcDbEntity
  8
Layer 1
100
AcDbVertex
100
AcDb2dVertex
 10
14.28547143493153
 20
26.92423232321911
 30
0.0
  0
VERTEX
  5
263
330
260
100
AcDbEntity
  8
Layer 1
100
AcDbVertex
100
AcDb2dVertex
 10
10.93276190313571
 20
27.5693379205144
 30
0.0
  0
VERTEX
  5
264
330
260
100
AcDbEntity
  8
Layer 1
100
AcDbVertex
100
AcDb2dVertex
 10
11.01752594917185
 20
27.84447106649145
 30
0.0
  0
VERTEX
  5
265
330
260
100
AcDbEntity
  8
Layer 1
100
AcDbVertex
100
AcDb2dVertex
 10
12.95743908058268
 20
27.77915493596037
 30
0.0
  0
VERTEX
  5
266
330
260
100
AcDbEntity
  8
Layer 1
100
AcDbVertex
100
AcDb2dVertex
 10
15.8114855765595
 20
27.49450030652464
 30
0.0
  0
VERTEX
  5
267
330
260
100
AcDbEntity
  8
Layer 1
100
AcDbVertex
100
AcDb2dVertex
 10
17.88761026068475
 20
27.29109497705005
 30
0.0
  0
VERTEX
  5
268
330
260
100
AcDbEntity
  8
Layer 1
100
AcDbVertex
100
AcDb2dVertex
 10
18.43595218157264
 20
27.05634247357126
 30
0.0
  0
SEQEND
  5
269
330
260
100
AcDbEntity
  8
Layer 1
  0
POLYLINE
  5
26A
330
1F
100
AcDbEntity
  8
Layer 1
100
AcDb2dPolyline
 66
     1
 10
0.0
 20
0.0
 30
0.0
 70
     1
  0
VERTEX
  5
26B
330
26A
100
AcDbEntity
  8
Layer 1
100
AcDbVertex
100
AcDb2dVertex
 10
19.23102200861729
 20
28.2091930305662
 30
0.0
  0
VERTEX
  5
26C
330
26A
100
AcDbEntity
  8
Layer 1
100
AcDbVertex
100
AcDb2dVertex
 10
15.50043833639517
 20
28.17051524879556
 30
0.0
  0
VERTEX
  5
26D
330
26A
100
AcDbEntity
  8
Layer 1
100
AcDbVertex
100
AcDb2dVertex
 10
11.45842843366385
 20
28.35297919852938
 30
0.0
  0
VERTEX
  5
26E
330
26A
100
AcDbEntity
  8
Layer 1
100
AcDbVertex
100
AcDb2dVertex
 10
10.88741285296571
 20
28.54738047885175
 30
0.0
  0
VERTEX
  5
26F
330
26A
100
AcDbEntity
  8
Layer 1
100
AcDbVertex
100
AcDb2dVertex
 10
11.23549212230722
 20
29.05936874597428
 30
0.0
  0
VERTEX
  5
270
330
26A
100
AcDbEntity
  8
Layer 1
100
AcDbVertex
100
AcDb2dVertex
 10
12.08149029117416
 20
29.27779524528195
 30
0.0
  0
VERTEX
  5
271
330
26A
100
AcDbEntity
  8
Layer 1
100
AcDbVertex
100
AcDb2dVertex
 10
16.54603635634236
 20
30.87486575019861
 30
0.0
  0
VERTEX
  5
272
330
26A
100
AcDbEntity
  8
Layer 1
100
AcDbVertex
100
AcDb2dVertex
 10
16.82852433777915
 20
31.01988579996952
 30
0.0
  0
VERTEX
  5
273
330
26A
100
AcDbEntity
  8
Layer 1
100
AcDbVertex
100
AcDb2dVertex
 10
16.23513102123867
 20
31.09389448073923
 30
0.0
  0
VERTEX
  5
274
330
26A
100
AcDbEntity
  8
Layer 1
100
AcDbVertex
100
AcDb2dVertex
 10
10.26083624938041
 20
32.15773076207705
 30
0.0
  0
VERTEX
  5
275
330
26A
100
AcDbEntity
  8
Layer 1
100
AcDbVertex
100
AcDb2dVertex
 10
10.09860069298515
 20
32.66507596483761
 30
0.0
  0
VERTEX
  5
276
330
26A
100
AcDbEntity
  8
Layer 1
100
AcDbVertex
100
AcDb2dVertex
 10
10.92285277658454
 20
32.71731779374552
 30
0.0
  0
VERTEX
  5
277
330
26A
100
AcDbEntity
  8
Layer 1
100
AcDbVertex
100
AcDb2dVertex
 10
17.98708224709084
 20
31.64963450082486
 30
0.0
  0
VERTEX
  5
278
330
26A
100
AcDbEntity
  8
Layer 1
100
AcDbVertex
100
AcDb2dVertex
 10
19.28706239372148
 20
31.21285591583888
 30
0.0
  0
VERTEX
  5
279
330
26A
100
AcDbEntity
  8
Layer 1
100
AcDbVertex
100
AcDb2dVertex
 10
18.66324255552144
 20
30.91651834659402
 30
0.0
  0
VERTEX
  5
27A
330
26A
100
AcDbEntity
  8
Layer 1
100
AcDbVertex
100
AcDb2dVertex
 10
17.86452819118779
 20
30.68194755081484
 30
0.0
  0
VERTEX
  5
27B
330
26A
100
AcDbEntity
  8
Layer 1
100
AcDbVertex
100
AcDb2dVertex
 10
14.79405225004931
 20
29.38781666156161
 30
0.0
  0
VERTEX
  5
27C
330
26A
100
AcDbEntity
  8
Layer 1
100
AcDbVertex
100
AcDb2dVertex
 10
13.91795117228303
 20
29.02051271760307
 30
0.0
  0
VERTEX
  5
27D
330
26A
100
AcDbEntity
  8
Layer 1
100
AcDbVertex
100
AcDb2dVertex
 10
18.21473603643883
 20
28.73720445569386
 30
0.0
  0
VERTEX
  5
27E
330
26A
100
AcDbEntity
  8
Layer 1
100
AcDbVertex
100
AcDb2dVertex
 10
19.274436304424
 20
28.64882356116104
 30
0.0
  0
SEQEND
  5
27F
330
26A
100
AcDbEntity
  8
Layer 1
  0
POLYLINE
  5
280
330
1F
100
AcDbEntity
  8
Layer 1
100
AcDb2dPolyline
 66
     1
 10
0.0
 20
0.0
 30
0.0
 70
     1
  0
VERTEX
  5
281
330
280
100
AcDbEntity
  8
Layer 1
100
AcDbVertex
100
AcDb2dVertex
 10
19.44401112133332
 20
34.02426340219391
 30
0.0
  0
VERTEX
  5
282
330
280
100
AcDbEntity
  8
Layer 1
100
AcDbVertex
100
AcDb2dVertex
 10
18.8668797786317
 20
34.16506610278472
 30
0.0
  0
VERTEX
  5
283
330
280
100
AcDbEntity
  8
Layer 1
100
AcDbVertex
100
AcDb2dVertex
 10
18.58464964907341
 20
34.33859522534709
 30
0.0
  0
VERTEX
  5
284
330
280
100
AcDbEntity
  8
Layer 1
100
AcDbVertex
100
AcDb2dVertex
 10
18.2546580833143
 20
34.24645730780649
 30
0.0
  0
VERTEX
  5
285
330
280
100
AcDbEntity
  8
Layer 1
100
AcDbVertex
100
AcDb2dVertex
 10
12.75011059534639
 20
34.59024654488806
 30
0.0
  0
VERTEX
  5
286
330
280
100
AcDbEntity
  8
Layer 1
100
AcDbVertex
100
AcDb2dVertex
 10
11.77522975098198
 20
34.56250237498442
 30
0.0
  0
VERTEX
  5
287
330
280
100
AcDbEntity
  8
Layer 1
100
AcDbVertex
100
AcDb2dVertex
 10
11.24281753842511
 20
34.61400352869779
 30
0.0
  0
VERTEX
  5
288
330
280
100
AcDbEntity
  8
Layer 1
100
AcDbVertex
100
AcDb2dVertex
 10
10.07515001644046
 20
36.63083439462137
 30
0.0
  0
VERTEX
  5
289
330
280
100
AcDbEntity
  8
Layer 1
100
AcDbVertex
100
AcDb2dVertex
 10
10.35578111824234
 20
36.98805269597766
 30
0.0
  0
VERTEX
  5
28A
330
280
100
AcDbEntity
  8
Layer 1
100
AcDbVertex
100
AcDb2dVertex
 10
10.83447361260125
 20
36.49030165975567
 30
0.0
  0
VERTEX
  5
28B
330
280
100
AcDbEntity
  8
Layer 1
100
AcDbVertex
100
AcDb2dVertex
 10
11.10787274795931
 20
36.38650849119827
 30
0.0
  0
VERTEX
  5
28C
330
280
100
AcDbEntity
  8
Layer 1
100
AcDbVertex
100
AcDb2dVertex
 10
12.44863329402732
 20
36.26728055147255
 30
0.0
  0
VERTEX
  5
28D
330
280
100
AcDbEntity
  8
Layer 1
100
AcDbVertex
100
AcDb2dVertex
 10
16.83502082067699
 20
35.93316508620744
 30
0.0
  0
VERTEX
  5
28E
330
280
100
AcDbEntity
  8
Layer 1
100
AcDbVertex
100
AcDb2dVertex
 10
17.76094441912231
 20
35.89654319726649
 30
0.0
  0
VERTEX
  5
28F
330
280
100
AcDbEntity
  8
Layer 1
100
AcDbVertex
100
AcDb2dVertex
 10
17.76114170176759
 20
36.04556081642846
 30
0.0
  0
VERTEX
  5
290
330
280
100
AcDbEntity
  8
Layer 1
100
AcDbVertex
100
AcDb2dVertex
 10
18.17992776339477
 20
36.34461361787008
 30
0.0
  0
VERTEX
  5
291
330
280
100
AcDbEntity
  8
Layer 1
100
AcDbVertex
100
AcDb2dVertex
 10
18.43745429855595
 20
36.11518428471464
 30
0.0
  0
VERTEX
  5
292
330
280
100
AcDbEntity
  8
Layer 1
100
AcDbVertex
100
AcDb2dVertex
 10
18.96141277670791
 20
35.83202658061364
 30
0.0
  0
VERTEX
  5
293
330
280
100
AcDbEntity
  8
Layer 1
100
AcDbVertex
100
AcDb2dVertex
 10
19.23257950318524
 20
35.68423592106132
 30
0.0
  0
VERTEX
  5
294
330
280
100
AcDbEntity
  8
Layer 1
100
AcDbVertex
100
AcDb2dVertex
 10
19.12724095390654
 20
35.40692920488724
 30
0.0
  0
VERTEX
  5
295
330
280
100
AcDbEntity
  8
Layer 1
100
AcDbVertex
100
AcDb2dVertex
 10
18.96201500794083
 20
35.24176209760522
 30
0.0
  0
VERTEX
  5
296
330
280
100
AcDbEntity
  8
Layer 1
100
AcDbVertex
100
AcDb2dVertex
 10
19.14553805398085
 20
34.97053999354325
 30
0.0
  0
VERTEX
  5
297
330
280
100
AcDbEntity
  8
Layer 1
100
AcDbVertex
100
AcDb2dVertex
 10
19.44937236374609
 20
34.59160329571171
 30
0.0
  0
SEQEND
  5
298
330
280
100
AcDbEntity
  8
Layer 1
  0
POLYLINE
  5
299
330
1F
100
AcDbEntity
  8
Layer 1
100
AcDb2dPolyline
 66
     1
 10
0.0
 20
0.0
 30
0.0
 70
     1
  0
VERTEX
  5
29A
330
299
100
AcDbEntity
  8
Layer 1
100
AcDbVertex
100
AcDb2dVertex
 10
19.88501224714796
 20
23.82405323012041
 30
0.0
  0
VERTEX
  5
29B
330
299
100
AcDbEntity
  8
Layer 1
100
AcDbVertex
100
AcDb2dVertex
 10
19.36217862618396
 20
23.73849659240413
 30
0.0
  0
VERTEX
  5
29C
330
299
100
AcDbEntity
  8
Layer 1
100
AcDbVertex
100
AcDb2dVertex
 10
17.29148267590277
 20
23.1105563157971
 30
0.0
  0
VERTEX
  5
29D
330
299
100
AcDbEntity
  8
Layer 1
100
AcDbVertex
100
AcDb2dVertex
 10
16.82796190918516
 20
22.81257645505784
 30
0.0
  0
VERTEX
  5
29E
330
299
100
AcDbEntity
  8
Layer 1
100
AcDbVertex
100
AcDb2dVertex
 10
16.96022434789506
 20
21.47716849865501
 30
0.0
  0
VERTEX
  5
29F
330
299
100
AcDbEntity
  8
Layer 1
100
AcDbVertex
100
AcDb2dVertex
 10
16.99828086238804
 20
20.68810367844455
 30
0.0
  0
VERTEX
  5
2A0
330
299
100
AcDbEntity
  8
Layer 1
100
AcDbVertex
100
AcDb2dVertex
 10
17.33726263290324
 20
20.56034759068457
 30
0.0
  0
VERTEX
  5
2A1
330
299
100
AcDbEntity
  8
Layer 1
100
AcDbVertex
100
AcDb2dVertex
 10
18.26092440312599
 20
20.25214364338149
 30
0.0
  0
VERTEX
  5
2A2
330
299
100
AcDbEntity
  8
Layer 1
100
AcDbVertex
100
AcDb2dVertex
 10
19.22064390314622
 20
19.70368750622527
 30
0.0
  0
VERTEX
  5
2A3
330
299
100
AcDbEntity
  8
Layer 1
100
AcDbVertex
100
AcDb2dVertex
 10
18.83924290279828
 20
19.41647166350002
 30
0.0
  0
VERTEX
  5
2A4
330
299
100
AcDbEntity
  8
Layer 1
100
AcDbVertex
100
AcDb2dVertex
 10
17.3655190454648
 20
19.79562641057109
 30
0.0
  0
VERTEX
  5
2A5
330
299
100
AcDbEntity
  8
Layer 1
100
AcDbVertex
100
AcDb2dVertex
 10
14.09446895386634
 20
20.99714002006671
 30
0.0
  0
VERTEX
  5
2A6
330
299
100
AcDbEntity
  8
Layer 1
100
AcDbVertex
100
AcDb2dVertex
 10
12.89858828305812
 20
21.46246228883457
 30
0.0
  0
VERTEX
  5
2A7
330
299
100
AcDbEntity
  8
Layer 1
100
AcDbVertex
100
AcDb2dVertex
 10
12.11743553525281
 20
21.25665149552725
 30
0.0
  0
VERTEX
  5
2A8
330
299
100
AcDbEntity
  8
Layer 1
100
AcDbVertex
100
AcDb2dVertex
 10
10.89782903052622
 20
21.17655820264543
 30
0.0
  0
VERTEX
  5
2A9
330
299
100
AcDbEntity
  8
Layer 1
100
AcDbVertex
100
AcDb2dVertex
 10
11.44563448106294
 20
21.81698093293977
 30
0.0
  0
VERTEX
  5
2AA
330
299
100
AcDbEntity
  8
Layer 1
100
AcDbVertex
100
AcDb2dVertex
 10
11.82711681723831
 20
21.94819638919011
 30
0.0
  0
VERTEX
  5
2AB
330
299
100
AcDbEntity
  8
Layer 1
100
AcDbVertex
100
AcDb2dVertex
 10
11.65751777263572
 20
22.14396826473227
 30
0.0
  0
VERTEX
  5
2AC
330
299
100
AcDbEntity
  8
Layer 1
100
AcDbVertex
100
AcDb2dVertex
 10
11.54642168510419
 20
22.63728217198513
 30
0.0
  0
VERTEX
  5
2AD
330
299
100
AcDbEntity
  8
Layer 1
100
AcDbVertex
100
AcDb2dVertex
 10
12.41338026975663
 20
22.48258488929874
 30
0.0
  0
VERTEX
  5
2AE
330
299
100
AcDbEntity
  8
Layer 1
100
AcDbVertex
100
AcDb2dVertex
 10
12.94476280534913
 20
22.21860167387867
 30
0.0
  0
VERTEX
  5
2AF
330
299
100
AcDbEntity
  8
Layer 1
100
AcDbVertex
100
AcDb2dVertex
 10
13.72818776467411
 20
22.48909348604323
 30
0.0
  0
VERTEX
  5
2B0
330
299
100
AcDbEntity
  8
Layer 1
100
AcDbVertex
100
AcDb2dVertex
 10
16.23522447091275
 20
23.45310128777385
 30
0.0
  0
VERTEX
  5
2B1
330
299
100
AcDbEntity
  8
Layer 1
100
AcDbVertex
100
AcDb2dVertex
 10
19.307503644651
 20
24.4418888280805
 30
0.0
  0
VERTEX
  5
2B2
330
299
100
AcDbEntity
  8
Layer 1
100
AcDbVertex
100
AcDb2dVertex
 10
19.84157026254892
 20
24.32664115225062
 30
0.0
  0
SEQEND
  5
2B3
330
299
100
AcDbEntity
  8
Layer 1
  0
POLYLINE
  5
2B4
330
1F
100
AcDbEntity
  8
Layer 1
100
AcDb2dPolyline
 66
     1
 10
0.0
 20
0.0
 30
0.0
 70
     1
  0
VERTEX
  5
2B5
330
2B4
100
AcDbEntity
  8
Layer 1
100
AcDbVertex
100
AcDb2dVertex
 10
20.17873668661769
 20
39.56269331921273
 30
0.0
  0
VERTEX
  5
2B6
330
2B4
100
AcDbEntity
  8
Layer 1
100
AcDbVertex
100
AcDb2dVertex
 10
19.98524913644187
 20
39.47476928975318
 30
0.0
  0
VERTEX
  5
2B7
330
2B4
100
AcDbEntity
  8
Layer 1
100
AcDbVertex
100
AcDb2dVertex
 10
19.35080026309036
 20
40.2022957690346
 30
0.0
  0
VERTEX
  5
2B8
330
2B4
100
AcDbEntity
  8
Layer 1
100
AcDbVertex
100
AcDb2dVertex
 10
19.11887201642812
 20
40.64818223614404
 30
0.0
  0
VERTEX
  5
2B9
330
2B4
100
AcDbEntity
  8
Layer 1
100
AcDbVertex
100
AcDb2dVertex
 10
18.87803317028771
 20
40.52773772010579
 30
0.0
  0
VERTEX
  5
2BA
330
2B4
100
AcDbEntity
  8
Layer 1
100
AcDbVertex
100
AcDb2dVertex
 10
17.00468389561182
 20
40.38855308331613
 30
0.0
  0
VERTEX
  5
2BB
330
2B4
100
AcDbEntity
  8
Layer 1
100
AcDbVertex
100
AcDb2dVertex
 10
10.84645420692779
 20
40.78035814737792
 30
0.0
  0
VERTEX
  5
2BC
330
2B4
100
AcDbEntity
  8
Layer 1
100
AcDbVertex
100
AcDb2dVertex
 10
10.60182545733872
 20
40.81145093060268
 30
0.0
  0
VERTEX
  5
2BD
330
2B4
100
AcDbEntity
  8
Layer 1
100
AcDbVertex
100
AcDb2dVertex
 10
10.84667744781586
 20
40.39586119393882
 30
0.0
  0
VERTEX
  5
2BE
330
2B4
100
AcDbEntity
  8
Layer 1
100
AcDbVertex
100
AcDb2dVertex
 10
10.6162565097855
 20
39.8137545213674
 30
0.0
  0
VERTEX
  5
2BF
330
2B4
100
AcDbEntity
  8
Layer 1
100
AcDbVertex
100
AcDb2dVertex
 10
9.788084731523437
 20
40.94787534090806
 30
0.0
  0
VERTEX
  5
2C0
330
2B4
100
AcDbEntity
  8
Layer 1
100
AcDbVertex
100
AcDb2dVertex
 10
9.333145759875213
 20
44.21854817271115
 30
0.0
  0
VERTEX
  5
2C1
330
2B4
100
AcDbEntity
  8
Layer 1
100
AcDbVertex
100
AcDb2dVertex
 10
9.395914521512923
 20
46.6662218387673
 30
0.0
  0
VERTEX
  5
2C2
330
2B4
100
AcDbEntity
  8
Layer 1
100
AcDbVertex
100
AcDb2dVertex
 10
9.899251771585293
 20
46.28070559166096
 30
0.0
  0
VERTEX
  5
2C3
330
2B4
100
AcDbEntity
  8
Layer 1
100
AcDbVertex
100
AcDb2dVertex
 10
10.01915462562379
 20
44.81124234724557
 30
0.0
  0
VERTEX
  5
2C4
330
2B4
100
AcDbEntity
  8
Layer 1
100
AcDbVertex
100
AcDb2dVertex
 10
10.15870786946121
 20
42.86558552197805
 30
0.0
  0
VERTEX
  5
2C5
330
2B4
100
AcDbEntity
  8
Layer 1
100
AcDbVertex
100
AcDb2dVertex
 10
10.44268066238608
 20
41.29255061934383
 30
0.0
  0
VERTEX
  5
2C6
330
2B4
100
AcDbEntity
  8
Layer 1
100
AcDbVertex
100
AcDb2dVertex
 10
10.55512311744413
 20
41.33939313374954
 30
0.0
  0
VERTEX
  5
2C7
330
2B4
100
AcDbEntity
  8
Layer 1
100
AcDbVertex
100
AcDb2dVertex
 10
13.0858493160612
 20
41.25176848935696
 30
0.0
  0
VERTEX
  5
2C8
330
2B4
100
AcDbEntity
  8
Layer 1
100
AcDbVertex
100
AcDb2dVertex
 10
14.22715364665911
 20
41.17769231715595
 30
0.0
  0
VERTEX
  5
2C9
330
2B4
100
AcDbEntity
  8
Layer 1
100
AcDbVertex
100
AcDb2dVertex
 10
14.05279559087669
 20
41.69572020210308
 30
0.0
  0
VERTEX
  5
2CA
330
2B4
100
AcDbEntity
  8
Layer 1
100
AcDbVertex
100
AcDb2dVertex
 10
13.46625178933614
 20
44.69001735337384
 30
0.0
  0
VERTEX
  5
2CB
330
2B4
100
AcDbEntity
  8
Layer 1
100
AcDbVertex
100
AcDb2dVertex
 10
13.76708186513475
 20
45.52173848870128
 30
0.0
  0
VERTEX
  5
2CC
330
2B4
100
AcDbEntity
  8
Layer 1
100
AcDbVertex
100
AcDb2dVertex
 10
14.19999267194367
 20
44.25011166540533
 30
0.0
  0
VERTEX
  5
2CD
330
2B4
100
AcDbEntity
  8
Layer 1
100
AcDbVertex
100
AcDb2dVertex
 10
14.93107543048857
 20
41.46113210082868
 30
0.0
  0
VERTEX
  5
2CE
330
2B4
100
AcDbEntity
  8
Layer 1
100
AcDbVertex
100
AcDb2dVertex
 10
15.10069870278444
 20
41.12497631767955
 30
0.0
  0
VERTEX
  5
2CF
330
2B4
100
AcDbEntity
  8
Layer 1
100
AcDbVertex
100
AcDb2dVertex
 10
15.76683393784604
 20
41.08308317490087
 30
0.0
  0
VERTEX
  5
2D0
330
2B4
100
AcDbEntity
  8
Layer 1
100
AcDbVertex
100
AcDb2dVertex
 10
17.47842874889322
 20
41.08604068403045
 30
0.0
  0
VERTEX
  5
2D1
330
2B4
100
AcDbEntity
  8
Layer 1
100
AcDbVertex
100
AcDb2dVertex
 10
18.70765537840115
 20
41.13207676235989
 30
0.0
  0
VERTEX
  5
2D2
330
2B4
100
AcDbEntity
  8
Layer 1
100
AcDbVertex
100
AcDb2dVertex
 10
18.89148127060717
 20
41.16130401320213
 30
0.0
  0
VERTEX
  5
2D3
330
2B4
100
AcDbEntity
  8
Layer 1
100
AcDbVertex
100
AcDb2dVertex
 10
18.64199140741659
 20
41.95681513037437
 30
0.0
  0
VERTEX
  5
2D4
330
2B4
100
AcDbEntity
  8
Layer 1
100
AcDbVertex
100
AcDb2dVertex
 10
18.00793709935563
 20
45.14416373334194
 30
0.0
  0
VERTEX
  5
2D5
330
2B4
100
AcDbEntity
  8
Layer 1
100
AcDbVertex
100
AcDb2dVertex
 10
18.5828619914193
 20
45.32845341281929
 30
0.0
  0
VERTEX
  5
2D6
330
2B4
100
AcDbEntity
  8
Layer 1
100
AcDbVertex
100
AcDb2dVertex
 10
18.75453250379727
 20
44.56438984152339
 30
0.0
  0
VERTEX
  5
2D7
330
2B4
100
AcDbEntity
  8
Layer 1
100
AcDbVertex
100
AcDb2dVertex
 10
19.9674781234216
 20
40.57091320007876
 30
0.0
  0
VERTEX
  5
2D8
330
2B4
100
AcDbEntity
  8
Layer 1
100
AcDbVertex
100
AcDb2dVertex
 10
20.30436419846816
 20
39.7687429283538
 30
0.0
  0
SEQEND
  5
2D9
330
2B4
100
AcDbEntity
  8
Layer 1
  0
POLYLINE
  5
2DA
330
1F
100
AcDbEntity
  8
Layer 1
100
AcDb2dPolyline
 66
     1
 10
0.0
 20
0.0
 30
0.0
 70
     1
  0
VERTEX
  5
2DB
330
2DA
100
AcDbEntity
  8
Layer 1
100
AcDbVertex
100
AcDb2dVertex
 10
31.84744964812304
 20
43.33748041782266
 30
0.0
  0
VERTEX
  5
2DC
330
2DA
100
AcDbEntity
  8
Layer 1
100
AcDbVertex
100
AcDb2dVertex
 10
27.34528835858942
 20
43.91642883752019
 30
0.0
  0
VERTEX
  5
2DD
330
2DA
100
AcDbEntity
  8
Layer 1
100
AcDbVertex
100
AcDb2dVertex
 10
26.70576205294643
 20
44.02998403591957
 30
0.0
  0
VERTEX
  5
2DE
330
2DA
100
AcDbEntity
  8
Layer 1
100
AcDbVertex
100
AcDb2dVertex
 10
29.74207521601179
 20
42.95972049366466
 30
0.0
  0
VERTEX
  5
2DF
330
2DA
100
AcDbEntity
  8
Layer 1
100
AcDbVertex
100
AcDb2dVertex
 10
31.59500227580288
 20
42.72495241524021
 30
0.0
  0
VERTEX
  5
2E0
330
2DA
100
AcDbEntity
  8
Layer 1
100
AcDbVertex
100
AcDb2dVertex
 10
32.60951270417389
 20
43.04771028400599
 30
0.0
  0
SEQEND
  5
2E1
330
2DA
100
AcDbEntity
  8
Layer 1
  0
POLYLINE
  5
2E2
330
1F
100
AcDbEntity
  8
Layer 1
100
AcDb2dPolyline
 66
     1
 10
0.0
 20
0.0
 30
0.0
 70
     1
  0
VERTEX
  5
2E3
330
2E2
100
AcDbEntity
  8
Layer 1
100
AcDbVertex
100
AcDb2dVertex
 10
33.47807031658276
 20
43.15986027619513
 30
0.0
  0
VERTEX
  5
2E4
330
2E2
100
AcDbEntity
  8
Layer 1
100
AcDbVertex
100
AcDb2dVertex
 10
32.66290015686401
 20
42.24891804494393
 30
0.0
  0
VERTEX
  5
2E5
330
2E2
100
AcDbEntity
  8
Layer 1
100
AcDbVertex
100
AcDb2dVertex
 10
31.69786440871854
 20
42.02978202033307
 30
0.0
  0
VERTEX
  5
2E6
330
2E2
100
AcDbEntity
  8
Layer 1
100
AcDbVertex
100
AcDb2dVertex
 10
28.66322295648944
 20
42.49900494771889
 30
0.0
  0
VERTEX
  5
2E7
330
2E2
100
AcDbEntity
  8
Layer 1
100
AcDbVertex
100
AcDb2dVertex
 10
25.72173871546819
 20
43.742091548332
 30
0.0
  0
VERTEX
  5
2E8
330
2E2
100
AcDbEntity
  8
Layer 1
100
AcDbVertex
100
AcDb2dVertex
 10
24.35243794671735
 20
45.11838546769292
 30
0.0
  0
VERTEX
  5
2E9
330
2E2
100
AcDbEntity
  8
Layer 1
100
AcDbVertex
100
AcDb2dVertex
 10
24.36555897317752
 20
45.99137328687283
 30
0.0
  0
VERTEX
  5
2EA
330
2E2
100
AcDbEntity
  8
Layer 1
100
AcDbVertex
100
AcDb2dVertex
 10
24.36868261506101
 20
46.32225608563469
 30
0.0
  0
VERTEX
  5
2EB
330
2E2
100
AcDbEntity
  8
Layer 1
100
AcDbVertex
100
AcDb2dVertex
 10
24.10678644236198
 20
47.56719956588273
 30
0.0
  0
VERTEX
  5
2EC
330
2E2
100
AcDbEntity
  8
Layer 1
100
AcDbVertex
100
AcDb2dVertex
 10
24.41685938314659
 20
48.35033898453692
 30
0.0
  0
VERTEX
  5
2ED
330
2E2
100
AcDbEntity
  8
Layer 1
100
AcDbVertex
100
AcDb2dVertex
 10
25.18087622960545
 20
48.71494154069482
 30
0.0
  0
VERTEX
  5
2EE
330
2E2
100
AcDbEntity
  8
Layer 1
100
AcDbVertex
100
AcDb2dVertex
 10
28.1531261799922
 20
48.20141654559855
 30
0.0
  0
VERTEX
  5
2EF
330
2E2
100
AcDbEntity
  8
Layer 1
100
AcDbVertex
100
AcDb2dVertex
 10
31.28833851757255
 20
46.78865648675348
 30
0.0
  0
VERTEX
  5
2F0
330
2E2
100
AcDbEntity
  8
Layer 1
100
AcDbVertex
100
AcDb2dVertex
 10
33.14221391850059
 20
45.15851344996127
 30
0.0
  0
SEQEND
  5
2F1
330
2E2
100
AcDbEntity
  8
Layer 1
  0
POLYLINE
  5
2F2
330
1F
100
AcDbEntity
  8
Layer 1
100
AcDb2dPolyline
 66
     1
 10
0.0
 20
0.0
 30
0.0
 70
     1
  0
VERTEX
  5
2F3
330
2F2
100
AcDbEntity
  8
Layer 1
100
AcDbVertex
100
AcDb2dVertex
 10
85.75747366709447
 20
11.7259753577725
 30
0.0
  0
VERTEX
  5
2F4
330
2F2
100
AcDbEntity
  8
Layer 1
100
AcDbVertex
100
AcDb2dVertex
 10
83.72901870004546
 20
11.71179869610516
 30
0.0
  0
VERTEX
  5
2F5
330
2F2
100
AcDbEntity
  8
Layer 1
100
AcDbVertex
100
AcDb2dVertex
 10
82.71782919620323
 20
11.70111428336905
 30
0.0
  0
VERTEX
  5
2F6
330
2F2
100
AcDbEntity
  8
Layer 1
100
AcDbVertex
100
AcDb2dVertex
 10
82.74803074642519
 20
11.21736512331287
 30
0.0
  0
VERTEX
  5
2F7
330
2F2
100
AcDbEntity
  8
Layer 1
100
AcDbVertex
100
AcDb2dVertex
 10
82.81352685410633
 20
10.69821930337586
 30
0.0
  0
VERTEX
  5
2F8
330
2F2
100
AcDbEntity
  8
Layer 1
100
AcDbVertex
100
AcDb2dVertex
 10
83.20104188590821
 20
10.62043629410316
 30
0.0
  0
VERTEX
  5
2F9
330
2F2
100
AcDbEntity
  8
Layer 1
100
AcDbVertex
100
AcDb2dVertex
 10
84.06187605580959
 20
10.69332530933348
 30
0.0
  0
VERTEX
  5
2FA
330
2F2
100
AcDbEntity
  8
Layer 1
100
AcDbVertex
100
AcDb2dVertex
 10
85.63147408709722
 20
10.82833932178009
 30
0.0
  0
VERTEX
  5
2FB
330
2F2
100
AcDbEntity
  8
Layer 1
100
AcDbVertex
100
AcDb2dVertex
 10
86.75007360799353
 20
10.88372036751717
 30
0.0
  0
VERTEX
  5
2FC
330
2F2
100
AcDbEntity
  8
Layer 1
100
AcDbVertex
100
AcDb2dVertex
 10
86.79109974546273
 20
11.32427328100616
 30
0.0
  0
VERTEX
  5
2FD
330
2F2
100
AcDbEntity
  8
Layer 1
100
AcDbVertex
100
AcDb2dVertex
 10
86.77444839798187
 20
11.72924609636517
 30
0.0
  0
VERTEX
  5
2FE
330
2F2
100
AcDbEntity
  8
Layer 1
100
AcDbVertex
100
AcDb2dVertex
 10
85.7571898569732
 20
11.7263145454784
 30
0.0
  0
SEQEND
  5
2FF
330
2F2
100
AcDbEntity
  8
Layer 1
  0
POLYLINE
  5
300
330
1F
100
AcDbEntity
  8
Layer 1
100
AcDb2dPolyline
 66
     1
 10
0.0
 20
0.0
 30
0.0
 70
     1
  0
VERTEX
  5
301
330
300
100
AcDbEntity
  8
Layer 1
100
AcDbVertex
100
AcDb2dVertex
 10
18.18348577320777
 20
39.44019983254287
 30
0.0
  0
VERTEX
  5
302
330
300
100
AcDbEntity
  8
Layer 1
100
AcDbVertex
100
AcDb2dVertex
 10
13.73513938209571
 20
39.3477002301526
 30
0.0
  0
VERTEX
  5
303
330
300
100
AcDbEntity
  8
Layer 1
100
AcDbVertex
100
AcDb2dVertex
 10
11.09306270516767
 20
39.50226252997645
 30
0.0
  0
VERTEX
  5
304
330
300
100
AcDbEntity
  8
Layer 1
100
AcDbVertex
100
AcDb2dVertex
 10
11.09945016344576
 20
39.96267003810769
 30
0.0
  0
VERTEX
  5
305
330
300
100
AcDbEntity
  8
Layer 1
100
AcDbVertex
100
AcDb2dVertex
 10
11.21968528299209
 20
40.0907064748899
 30
0.0
  0
VERTEX
  5
306
330
300
100
AcDbEntity
  8
Layer 1
100
AcDbVertex
100
AcDb2dVertex
 10
14.67414593491178
 20
40.05782430346153
 30
0.0
  0
VERTEX
  5
307
330
300
100
AcDbEntity
  8
Layer 1
100
AcDbVertex
100
AcDb2dVertex
 10
17.91760414496433
 20
39.99001964272081
 30
0.0
  0
VERTEX
  5
308
330
300
100
AcDbEntity
  8
Layer 1
100
AcDbVertex
100
AcDb2dVertex
 10
18.3263737859701
 20
39.69320444180845
 30
0.0
  0
SEQEND
  5
309
330
300
100
AcDbEntity
  8
Layer 1
  0
POLYLINE
  5
30A
330
1F
100
AcDbEntity
  8
Layer 1
100
AcDb2dPolyline
 66
     1
 10
0.0
 20
0.0
 30
0.0
 70
     1
  0
VERTEX
  5
30B
330
30A
100
AcDbEntity
  8
Layer 1
100
AcDbVertex
100
AcDb2dVertex
 10
87.86459422367133
 20
27.92054429283843
 30
0.0
  0
VERTEX
  5
30C
330
30A
100
AcDbEntity
  8
Layer 1
100
AcDbVertex
100
AcDb2dVertex
 10
87.76512742891381
 20
25.59471169628311
 30
0.0
  0
VERTEX
  5
30D
330
30A
100
AcDbEntity
  8
Layer 1
100
AcDbVertex
100
AcDb2dVertex
 10
87.1003991306119
 20
24.98644430661876
 30
0.0
  0
VERTEX
  5
30E
330
30A
100
AcDbEntity
  8
Layer 1
100
AcDbVertex
100
AcDb2dVertex
 10
86.03272968208742
 20
25.47524321017412
 30
0.0
  0
VERTEX
  5
30F
330
30A
100
AcDbEntity
  8
Layer 1
100
AcDbVertex
100
AcDb2dVertex
 10
85.95302403229806
 20
26.62094140600315
 30
0.0
  0
VERTEX
  5
310
330
30A
100
AcDbEntity
  8
Layer 1
100
AcDbVertex
100
AcDb2dVertex
 10
85.91457295251453
 20
32.05292349150099
 30
0.0
  0
VERTEX
  5
311
330
30A
100
AcDbEntity
  8
Layer 1
100
AcDbVertex
100
AcDb2dVertex
 10
82.90338217683012
 20
32.05384414384559
 30
0.0
  0
VERTEX
  5
312
330
30A
100
AcDbEntity
  8
Layer 1
100
AcDbVertex
100
AcDb2dVertex
 10
81.85127036848988
 20
32.02377757648615
 30
0.0
  0
VERTEX
  5
313
330
30A
100
AcDbEntity
  8
Layer 1
100
AcDbVertex
100
AcDb2dVertex
 10
81.39250515185306
 20
32.0604929151012
 30
0.0
  0
VERTEX
  5
314
330
30A
100
AcDbEntity
  8
Layer 1
100
AcDbVertex
100
AcDb2dVertex
 10
81.36465714897821
 20
31.87071220199708
 30
0.0
  0
VERTEX
  5
315
330
30A
100
AcDbEntity
  8
Layer 1
100
AcDbVertex
100
AcDb2dVertex
 10
81.40250772807832
 20
28.85314435133169
 30
0.0
  0
VERTEX
  5
316
330
30A
100
AcDbEntity
  8
Layer 1
100
AcDbVertex
100
AcDb2dVertex
 10
81.52061946336369
 20
26.84689233462351
 30
0.0
  0
VERTEX
  5
317
330
30A
100
AcDbEntity
  8
Layer 1
100
AcDbVertex
100
AcDb2dVertex
 10
81.58066780115604
 20
25.55394168014287
 30
0.0
  0
VERTEX
  5
318
330
30A
100
AcDbEntity
  8
Layer 1
100
AcDbVertex
100
AcDb2dVertex
 10
81.2441451415087
 20
24.91044030225256
 30
0.0
  0
VERTEX
  5
319
330
30A
100
AcDbEntity
  8
Layer 1
100
AcDbVertex
100
AcDb2dVertex
 10
80.5721087325841
 20
24.71356952776524
 30
0.0
  0
VERTEX
  5
31A
330
30A
100
AcDbEntity
  8
Layer 1
100
AcDbVertex
100
AcDb2dVertex
 10
79.96386730116255
 20
25.00970462271627
 30
0.0
  0
VERTEX
  5
31B
330
30A
100
AcDbEntity
  8
Layer 1
100
AcDbVertex
100
AcDb2dVertex
 10
79.71367310431737
 20
25.76034605193552
 30
0.0
  0
VERTEX
  5
31C
330
30A
100
AcDbEntity
  8
Layer 1
100
AcDbVertex
100
AcDb2dVertex
 10
79.62330900003471
 20
26.76207464155227
 30
0.0
  0
VERTEX
  5
31D
330
30A
100
AcDbEntity
  8
Layer 1
100
AcDbVertex
100
AcDb2dVertex
 10
79.4748953426552
 20
32.07443422203382
 30
0.0
  0
VERTEX
  5
31E
330
30A
100
AcDbEntity
  8
Layer 1
100
AcDbVertex
100
AcDb2dVertex
 10
79.72081508218618
 20
33.31760561957344
 30
0.0
  0
VERTEX
  5
31F
330
30A
100
AcDbEntity
  8
Layer 1
100
AcDbVertex
100
AcDb2dVertex
 10
80.34539636217497
 20
33.84945713408582
 30
0.0
  0
VERTEX
  5
320
330
30A
100
AcDbEntity
  8
Layer 1
100
AcDbVertex
100
AcDb2dVertex
 10
85.20646669994586
 20
33.99593084545346
 30
0.0
  0
VERTEX
  5
321
330
30A
100
AcDbEntity
  8
Layer 1
100
AcDbVertex
100
AcDb2dVertex
 10
87.26789901864683
 20
33.88990699856488
 30
0.0
  0
VERTEX
  5
322
330
30A
100
AcDbEntity
  8
Layer 1
100
AcDbVertex
100
AcDb2dVertex
 10
87.76048263400227
 20
33.01995456324295
 30
0.0
  0
SEQEND
  5
323
330
30A
100
AcDbEntity
  8
Layer 1
  0
POLYLINE
  5
324
330
1F
100
AcDbEntity
  8
Layer 1
100
AcDb2dPolyline
 66
     1
 10
0.0
 20
0.0
 30
0.0
 70
     1
  0
VERTEX
  5
325
330
324
100
AcDbEntity
  8
Layer 1
100
AcDbVertex
100
AcDb2dVertex
 10
76.79587662512503
 20
9.263600673544438
 30
0.0
  0
VERTEX
  5
326
330
324
100
AcDbEntity
  8
Layer 1
100
AcDbVertex
100
AcDb2dVertex
 10
76.6970518642394
 20
10.85355861993416
 30
0.0
  0
VERTEX
  5
327
330
324
100
AcDbEntity
  8
Layer 1
100
AcDbVertex
100
AcDb2dVertex
 10
76.65852117917795
 20
11.78145677538173
 30
0.0
  0
VERTEX
  5
328
330
324
100
AcDbEntity
  8
Layer 1
100
AcDbVertex
100
AcDb2dVertex
 10
76.46066745256331
 20
11.82623301366064
 30
0.0
  0
VERTEX
  5
329
330
324
100
AcDbEntity
  8
Layer 1
100
AcDbVertex
100
AcDb2dVertex
 10
74.76527231557226
 20
11.92723134474333
 30
0.0
  0
VERTEX
  5
32A
330
324
100
AcDbEntity
  8
Layer 1
100
AcDbVertex
100
AcDb2dVertex
 10
73.09817339378174
 20
12.01377439568595
 30
0.0
  0
VERTEX
  5
32B
330
324
100
AcDbEntity
  8
Layer 1
100
AcDbVertex
100
AcDb2dVertex
 10
72.56488206206876
 20
11.93902330917219
 30
0.0
  0
VERTEX
  5
32C
330
324
100
AcDbEntity
  8
Layer 1
100
AcDbVertex
100
AcDb2dVertex
 10
72.201158625067
 20
11.83399971990613
 30
0.0
  0
VERTEX
  5
32D
330
324
100
AcDbEntity
  8
Layer 1
100
AcDbVertex
100
AcDb2dVertex
 10
72.19725104425096
 20
9.973122515620432
 30
0.0
  0
VERTEX
  5
32E
330
324
100
AcDbEntity
  8
Layer 1
100
AcDbVertex
100
AcDb2dVertex
 10
72.19334346343496
 20
8.112252233532807
 30
0.0
  0
VERTEX
  5
32F
330
324
100
AcDbEntity
  8
Layer 1
100
AcDbVertex
100
AcDb2dVertex
 10
72.73058390915244
 20
8.130097660182429
 30
0.0
  0
VERTEX
  5
330
330
324
100
AcDbEntity
  8
Layer 1
100
AcDbVertex
100
AcDb2dVertex
 10
73.71461416882875
 20
8.22960598812844
 30
0.0
  0
VERTEX
  5
331
330
324
100
AcDbEntity
  8
Layer 1
100
AcDbVertex
100
AcDb2dVertex
 10
75.50886694714633
 20
8.34789770056387
 30
0.0
  0
VERTEX
  5
332
330
324
100
AcDbEntity
  8
Layer 1
100
AcDbVertex
100
AcDb2dVertex
 10
76.8562728033709
 20
8.493047541548773
 30
0.0
  0
SEQEND
  5
333
330
324
100
AcDbEntity
  8
Layer 1
  0
POLYLINE
  5
334
330
1F
100
AcDbEntity
  8
Layer 1
100
AcDb2dPolyline
 66
     1
 10
0.0
 20
0.0
 30
0.0
 70
     1
  0
VERTEX
  5
335
330
334
100
AcDbEntity
  8
Layer 1
100
AcDbVertex
100
AcDb2dVertex
 10
32.86468050033939
 20
34.72452853488774
 30
0.0
  0
VERTEX
  5
336
330
334
100
AcDbEntity
  8
Layer 1
100
AcDbVertex
100
AcDb2dVertex
 10
31.52246975377368
 20
34.63654739729404
 30
0.0
  0
VERTEX
  5
337
330
334
100
AcDbEntity
  8
Layer 1
100
AcDbVertex
100
AcDb2dVertex
 10
29.26178542444597
 20
34.7269893763051
 30
0.0
  0
VERTEX
  5
338
330
334
100
AcDbEntity
  8
Layer 1
100
AcDbVertex
100
AcDb2dVertex
 10
26.80328197949403
 20
34.840982403733
 30
0.0
  0
VERTEX
  5
339
330
334
100
AcDbEntity
  8
Layer 1
100
AcDbVertex
100
AcDb2dVertex
 10
23.9637461412419
 20
35.07482290761477
 30
0.0
  0
VERTEX
  5
33A
330
334
100
AcDbEntity
  8
Layer 1
100
AcDbVertex
100
AcDb2dVertex
 10
23.54910474571497
 20
35.54845527517738
 30
0.0
  0
VERTEX
  5
33B
330
334
100
AcDbEntity
  8
Layer 1
100
AcDbVertex
100
AcDb2dVertex
 10
24.21264588704618
 20
35.75274837655571
 30
0.0
  0
VERTEX
  5
33C
330
334
100
AcDbEntity
  8
Layer 1
100
AcDbVertex
100
AcDb2dVertex
 10
28.18801405831417
 20
35.48980695194666
 30
0.0
  0
VERTEX
  5
33D
330
334
100
AcDbEntity
  8
Layer 1
100
AcDbVertex
100
AcDb2dVertex
 10
32.70924773410702
 20
35.25601836455047
 30
0.0
  0
VERTEX
  5
33E
330
334
100
AcDbEntity
  8
Layer 1
100
AcDbVertex
100
AcDb2dVertex
 10
33.0200994221756
 20
34.94900330476761
 30
0.0
  0
SEQEND
  5
33F
330
334
100
AcDbEntity
  8
Layer 1
  0
POLYLINE
  5
340
330
1F
100
AcDbEntity
  8
Layer 1
100
AcDb2dPolyline
 66
     1
 10
0.0
 20
0.0
 30
0.0
 70
     1
  0
VERTEX
  5
341
330
340
100
AcDbEntity
  8
Layer 1
100
AcDbVertex
100
AcDb2dVertex
 10
16.16940301992187
 20
22.60476860760453
 30
0.0
  0
VERTEX
  5
342
330
340
100
AcDbEntity
  8
Layer 1
100
AcDbVertex
100
AcDb2dVertex
 10
15.35344372962202
 20
22.33296850000289
 30
0.0
  0
VERTEX
  5
343
330
340
100
AcDbEntity
  8
Layer 1
100
AcDbVertex
100
AcDb2dVertex
 10
14.29490119926568
 20
21.92982660603596
 30
0.0
  0
VERTEX
  5
344
330
340
100
AcDbEntity
  8
Layer 1
100
AcDbVertex
100
AcDb2dVertex
 10
14.06881701833228
 20
21.78622733742094
 30
0.0
  0
VERTEX
  5
345
330
340
100
AcDbEntity
  8
Layer 1
100
AcDbVertex
100
AcDb2dVertex
 10
15.04842399343564
 20
21.39076735277301
 30
0.0
  0
VERTEX
  5
346
330
340
100
AcDbEntity
  8
Layer 1
100
AcDbVertex
100
AcDb2dVertex
 10
16.11508972323858
 20
20.98675672294707
 30
0.0
  0
VERTEX
  5
347
330
340
100
AcDbEntity
  8
Layer 1
100
AcDbVertex
100
AcDb2dVertex
 10
16.24936132994113
 20
20.93528498857552
 30
0.0
  0
VERTEX
  5
348
330
340
100
AcDbEntity
  8
Layer 1
100
AcDbVertex
100
AcDb2dVertex
 10
16.22473387972288
 20
21.75470191681619
 30
0.0
  0
SEQEND
  5
349
330
340
100
AcDbEntity
  8
Layer 1
  0
POLYLINE
  5
34A
330
1F
100
AcDbEntity
  8
Layer 1
100
AcDb2dPolyline
 66
     1
 10
0.0
 20
0.0
 30
0.0
 70
     1
  0
VERTEX
  5
34B
330
34A
100
AcDbEntity
  8
Layer 1
100
AcDbVertex
100
AcDb2dVertex
 10
28.09615129814725
 20
22.65573848261528
 30
0.0
  0
VERTEX
  5
34C
330
34A
100
AcDbEntity
  8
Layer 1
100
AcDbVertex
100
AcDb2dVertex
 10
26.33380639187832
 20
22.01139951875733
 30
0.0
  0
VERTEX
  5
34D
330
34A
100
AcDbEntity
  8
Layer 1
100
AcDbVertex
100
AcDb2dVertex
 10
27.46410788862845
 20
21.57198530685248
 30
0.0
  0
VERTEX
  5
34E
330
34A
100
AcDbEntity
  8
Layer 1
100
AcDbVertex
100
AcDb2dVertex
 10
29.19411228546875
 20
20.97184630828327
 30
0.0
  0
VERTEX
  5
34F
330
34A
100
AcDbEntity
  8
Layer 1
100
AcDbVertex
100
AcDb2dVertex
 10
29.74823251120372
 20
20.77098315605346
 30
0.0
  0
VERTEX
  5
350
330
34A
100
AcDbEntity
  8
Layer 1
100
AcDbVertex
100
AcDb2dVertex
 10
29.73104296282217
 20
21.89724035857551
 30
0.0
  0
VERTEX
  5
351
330
34A
100
AcDbEntity
  8
Layer 1
100
AcDbVertex
100
AcDb2dVertex
 10
29.81434469451397
 20
23.12460145570093
 30
0.0
  0
VERTEX
  5
352
330
34A
100
AcDbEntity
  8
Layer 1
100
AcDbVertex
100
AcDb2dVertex
 10
29.86387475232414
 20
23.24283259890317
 30
0.0
  0
SEQEND
  5
353
330
34A
100
AcDbEntity
  8
Layer 1
  0
POLYLINE
  5
354
330
1F
100
AcDbEntity
  8
Layer 1
100
AcDb2dPolyline
 66
     1
 10
0.0
 20
0.0
 30
0.0
 70
     1
  0
VERTEX
  5
355
330
354
100
AcDbEntity
  8
Layer 1
100
AcDbVertex
100
AcDb2dVertex
 10
18.15324615089634
 20
35.12835572646458
 30
0.0
  0
VERTEX
  5
356
330
354
100
AcDbEntity
  8
Layer 1
100
AcDbVertex
100
AcDb2dVertex
 10
16.68721631672851
 20
35.23331874649743
 30
0.0
  0
VERTEX
  5
357
330
354
100
AcDbEntity
  8
Layer 1
100
AcDbVertex
100
AcDb2dVertex
 10
12.31813082417919
 20
35.55335446086833
 30
0.0
  0
VERTEX
  5
358
330
354
100
AcDbEntity
  8
Layer 1
100
AcDbVertex
100
AcDb2dVertex
 10
11.38900224802294
 20
35.60813500592199
 30
0.0
  0
VERTEX
  5
359
330
354
100
AcDbEntity
  8
Layer 1
100
AcDbVertex
100
AcDb2dVertex
 10
15.1613890744487
 20
35.0937118556249
 30
0.0
  0
VERTEX
  5
35A
330
354
100
AcDbEntity
  8
Layer 1
100
AcDbVertex
100
AcDb2dVertex
 10
18.25998990638523
 20
35.01098293582422
 30
0.0
  0
SEQEND
  5
35B
330
354
100
AcDbEntity
  8
Layer 1
  0
POLYLINE
  5
35C
330
1F
100
AcDbEntity
  8
Layer 1
100
AcDb2dPolyline
 66
     1
 10
0.0
 20
0.0
 30
0.0
 70
     1
  0
VERTEX
  5
35D
330
35C
100
AcDbEntity
  8
Layer 1
100
AcDbVertex
100
AcDb2dVertex
 10
33.67700563664735
 20
11.13222381748139
 30
0.0
  0
VERTEX
  5
35E
330
35C
100
AcDbEntity
  8
Layer 1
100
AcDbVertex
100
AcDb2dVertex
 10
32.56082196288088
 20
11.12802031269746
 30
0.0
  0
VERTEX
  5
35F
330
35C
100
AcDbEntity
  8
Layer 1
100
AcDbVertex
100
AcDb2dVertex
 10
30.61814860498576
 20
11.26931621990144
 30
0.0
  0
VERTEX
  5
360
330
35C
100
AcDbEntity
  8
Layer 1
100
AcDbVertex
100
AcDb2dVertex
 10
28.64007512611074
 20
11.38853377633004
 30
0.0
  0
VERTEX
  5
361
330
35C
100
AcDbEntity
  8
Layer 1
100
AcDbVertex
100
AcDb2dVertex
 10
24.48664552308765
 20
11.88649593959348
 30
0.0
  0
VERTEX
  5
362
330
35C
100
AcDbEntity
  8
Layer 1
100
AcDbVertex
100
AcDb2dVertex
 10
24.24075347234903
 20
12.39309700606044
 30
0.0
  0
VERTEX
  5
363
330
35C
100
AcDbEntity
  8
Layer 1
100
AcDbVertex
100
AcDb2dVertex
 10
25.64482963370305
 20
12.38823762300845
 30
0.0
  0
VERTEX
  5
364
330
35C
100
AcDbEntity
  8
Layer 1
100
AcDbVertex
100
AcDb2dVertex
 10
28.74707500292857
 20
12.09174949595537
 30
0.0
  0
VERTEX
  5
365
330
35C
100
AcDbEntity
  8
Layer 1
100
AcDbVertex
100
AcDb2dVertex
 10
29.27368641349459
 20
12.1580779979556
 30
0.0
  0
VERTEX
  5
366
330
35C
100
AcDbEntity
  8
Layer 1
100
AcDbVertex
100
AcDb2dVertex
 10
28.91913488894851
 20
13.89518110892669
 30
0.0
  0
VERTEX
  5
367
330
35C
100
AcDbEntity
  8
Layer 1
100
AcDbVertex
100
AcDb2dVertex
 10
28.7882170872156
 20
15.1796226514178
 30
0.0
  0
VERTEX
  5
368
330
35C
100
AcDbEntity
  8
Layer 1
100
AcDbVertex
100
AcDb2dVertex
 10
28.77801722834509
 20
15.47588061538473
 30
0.0
  0
VERTEX
  5
369
330
35C
100
AcDbEntity
  8
Layer 1
100
AcDbVertex
100
AcDb2dVertex
 10
25.53198742170591
 20
15.68768776277864
 30
0.0
  0
VERTEX
  5
36A
330
35C
100
AcDbEntity
  8
Layer 1
100
AcDbVertex
100
AcDb2dVertex
 10
24.32899419237074
 20
15.80438563910621
 30
0.0
  0
VERTEX
  5
36B
330
35C
100
AcDbEntity
  8
Layer 1
100
AcDbVertex
100
AcDb2dVertex
 10
24.03155945473023
 20
16.24221120655176
 30
0.0
  0
VERTEX
  5
36C
330
35C
100
AcDbEntity
  8
Layer 1
100
AcDbVertex
100
AcDb2dVertex
 10
26.31150133911582
 20
16.35954765565219
 30
0.0
  0
VERTEX
  5
36D
330
35C
100
AcDbEntity
  8
Layer 1
100
AcDbVertex
100
AcDb2dVertex
 10
32.71073600669418
 20
15.82753520003444
 30
0.0
  0
VERTEX
  5
36E
330
35C
100
AcDbEntity
  8
Layer 1
100
AcDbVertex
100
AcDb2dVertex
 10
32.70405781609672
 20
15.3062867624307
 30
0.0
  0
VERTEX
  5
36F
330
35C
100
AcDbEntity
  8
Layer 1
100
AcDbVertex
100
AcDb2dVertex
 10
31.22062384540686
 20
15.30731643939507
 30
0.0
  0
VERTEX
  5
370
330
35C
100
AcDbEntity
  8
Layer 1
100
AcDbVertex
100
AcDb2dVertex
 10
29.63474307368612
 20
15.43786390353071
 30
0.0
  0
VERTEX
  5
371
330
35C
100
AcDbEntity
  8
Layer 1
100
AcDbVertex
100
AcDb2dVertex
 10
29.38599388569008
 20
15.47153174444113
 30
0.0
  0
VERTEX
  5
372
330
35C
100
AcDbEntity
  8
Layer 1
100
AcDbVertex
100
AcDb2dVertex
 10
29.42507661604838
 20
15.28007585940169
 30
0.0
  0
VERTEX
  5
373
330
35C
100
AcDbEntity
  8
Layer 1
100
AcDbVertex
100
AcDb2dVertex
 10
29.60570964439011
 20
14.09970091229214
 30
0.0
  0
VERTEX
  5
374
330
35C
100
AcDbEntity
  8
Layer 1
100
AcDbVertex
100
AcDb2dVertex
 10
30.01178481979334
 20
12.34119263430891
 30
0.0
  0
VERTEX
  5
375
330
35C
100
AcDbEntity
  8
Layer 1
100
AcDbVertex
100
AcDb2dVertex
 10
30.16593870993047
 20
12.02374409147033
 30
0.0
  0
VERTEX
  5
376
330
35C
100
AcDbEntity
  8
Layer 1
100
AcDbVertex
100
AcDb2dVertex
 10
30.67453509999392
 20
11.98605964512414
 30
0.0
  0
VERTEX
  5
377
330
35C
100
AcDbEntity
  8
Layer 1
100
AcDbVertex
100
AcDb2dVertex
 10
33.76792005567737
 20
11.59048890530694
 30
0.0
  0
VERTEX
  5
378
330
35C
100
AcDbEntity
  8
Layer 1
100
AcDbVertex
100
AcDb2dVertex
 10
33.6769831395036
 20
11.13211306231211
 30
0.0
  0
SEQEND
  5
379
330
35C
100
AcDbEntity
  8
Layer 1
  0
POLYLINE
  5
37A
330
1F
100
AcDbEntity
  8
Layer 1
100
AcDb2dPolyline
 66
     1
 10
0.0
 20
0.0
 30
0.0
 70
     1
  0
VERTEX
  5
37B
330
37A
100
AcDbEntity
  8
Layer 1
100
AcDbVertex
100
AcDb2dVertex
 10
19.76413855482878
 20
47.62539275458971
 30
0.0
  0
VERTEX
  5
37C
330
37A
100
AcDbEntity
  8
Layer 1
100
AcDbVertex
100
AcDb2dVertex
 10
19.20468823657238
 20
47.61007739133825
 30
0.0
  0
VERTEX
  5
37D
330
37A
100
AcDbEntity
  8
Layer 1
100
AcDbVertex
100
AcDb2dVertex
 10
18.8614891168771
 20
48.35886021037308
 30
0.0
  0
VERTEX
  5
37E
330
37A
100
AcDbEntity
  8
Layer 1
100
AcDbVertex
100
AcDb2dVertex
 10
18.61803367986256
 20
48.99729107816999
 30
0.0
  0
VERTEX
  5
37F
330
37A
100
AcDbEntity
  8
Layer 1
100
AcDbVertex
100
AcDb2dVertex
 10
18.28852666796902
 20
49.01144351214406
 30
0.0
  0
VERTEX
  5
380
330
37A
100
AcDbEntity
  8
Layer 1
100
AcDbVertex
100
AcDb2dVertex
 10
12.87905384007703
 20
49.42415534495622
 30
0.0
  0
VERTEX
  5
381
330
37A
100
AcDbEntity
  8
Layer 1
100
AcDbVertex
100
AcDb2dVertex
 10
10.65893532204623
 20
49.5908453358158
 30
0.0
  0
VERTEX
  5
382
330
37A
100
AcDbEntity
  8
Layer 1
100
AcDbVertex
100
AcDb2dVertex
 10
10.01908886474204
 20
49.76386913791838
 30
0.0
  0
VERTEX
  5
383
330
37A
100
AcDbEntity
  8
Layer 1
100
AcDbVertex
100
AcDb2dVertex
 10
9.985384682291697
 20
50.1846141816021
 30
0.0
  0
VERTEX
  5
384
330
37A
100
AcDbEntity
  8
Layer 1
100
AcDbVertex
100
AcDb2dVertex
 10
10.43547119308601
 20
50.32536669625685
 30
0.0
  0
VERTEX
  5
385
330
37A
100
AcDbEntity
  8
Layer 1
100
AcDbVertex
100
AcDb2dVertex
 10
12.34159707566956
 20
50.18584979395935
 30
0.0
  0
VERTEX
  5
386
330
37A
100
AcDbEntity
  8
Layer 1
100
AcDbVertex
100
AcDb2dVertex
 10
15.78317724751234
 20
49.90445032817063
 30
0.0
  0
VERTEX
  5
387
330
37A
100
AcDbEntity
  8
Layer 1
100
AcDbVertex
100
AcDb2dVertex
 10
18.02285443621749
 20
49.73594672141414
 30
0.0
  0
VERTEX
  5
388
330
37A
100
AcDbEntity
  8
Layer 1
100
AcDbVertex
100
AcDb2dVertex
 10
18.39524792631415
 20
49.73527526820038
 30
0.0
  0
VERTEX
  5
389
330
37A
100
AcDbEntity
  8
Layer 1
100
AcDbVertex
100
AcDb2dVertex
 10
18.29237194900233
 20
50.38519525426018
 30
0.0
  0
VERTEX
  5
38A
330
37A
100
AcDbEntity
  8
Layer 1
100
AcDbVertex
100
AcDb2dVertex
 10
18.03415146348367
 20
52.92528545632963
 30
0.0
  0
VERTEX
  5
38B
330
37A
100
AcDbEntity
  8
Layer 1
100
AcDbVertex
100
AcDb2dVertex
 10
18.26954946193338
 20
54.73314035387391
 30
0.0
  0
VERTEX
  5
38C
330
37A
100
AcDbEntity
  8
Layer 1
100
AcDbVertex
100
AcDb2dVertex
 10
18.68702203647492
 20
55.01621326104843
 30
0.0
  0
VERTEX
  5
38D
330
37A
100
AcDbEntity
  8
Layer 1
100
AcDbVertex
100
AcDb2dVertex
 10
18.86109974323511
 20
54.29837439797963
 30
0.0
  0
VERTEX
  5
38E
330
37A
100
AcDbEntity
  8
Layer 1
100
AcDbVertex
100
AcDb2dVertex
 10
18.98020135284588
 20
50.57977132008403
 30
0.0
  0
VERTEX
  5
38F
330
37A
100
AcDbEntity
  8
Layer 1
100
AcDbVertex
100
AcDb2dVertex
 10
19.77682694390897
 20
48.03821188147214
 30
0.0
  0
SEQEND
  5
390
330
37A
100
AcDbEntity
  8
Layer 1
  0
POLYLINE
  5
391
330
1F
100
AcDbEntity
  8
Layer 1
100
AcDb2dPolyline
 66
     1
 10
0.0
 20
0.0
 30
0.0
 70
     1
  0
VERTEX
  5
392
330
391
100
AcDbEntity
  8
Layer 1
100
AcDbVertex
100
AcDb2dVertex
 10
69.31023238827075
 20
54.05855657605599
 30
0.0
  0
VERTEX
  5
393
330
391
100
AcDbEntity
  8
Layer 1
100
AcDbVertex
100
AcDb2dVertex
 10
69.14706233513473
 20
52.98480078486986
 30
0.0
  0
VERTEX
  5
394
330
391
100
AcDbEntity
  8
Layer 1
100
AcDbVertex
100
AcDb2dVertex
 10
68.96797468751433
 20
49.28319170326007
 30
0.0
  0
VERTEX
  5
395
330
391
100
AcDbEntity
  8
Layer 1
100
AcDbVertex
100
AcDb2dVertex
 10
68.87429311980196
 20
48.29413592777786
 30
0.0
  0
VERTEX
  5
396
330
391
100
AcDbEntity
  8
Layer 1
100
AcDbVertex
100
AcDb2dVertex
 10
68.06897670904972
 20
47.83621348875725
 30
0.0
  0
VERTEX
  5
397
330
391
100
AcDbEntity
  8
Layer 1
100
AcDbVertex
100
AcDb2dVertex
 10
67.26582867684601
 20
48.30542084119737
 30
0.0
  0
VERTEX
  5
398
330
391
100
AcDbEntity
  8
Layer 1
100
AcDbVertex
100
AcDb2dVertex
 10
67.07861090758092
 20
50.89989356193092
 30
0.0
  0
VERTEX
  5
399
330
391
100
AcDbEntity
  8
Layer 1
100
AcDbVertex
100
AcDb2dVertex
 10
67.3350091244551
 20
53.59857824420571
 30
0.0
  0
VERTEX
  5
39A
330
391
100
AcDbEntity
  8
Layer 1
100
AcDbVertex
100
AcDb2dVertex
 10
67.41849775549503
 20
54.23568697216936
 30
0.0
  0
VERTEX
  5
39B
330
391
100
AcDbEntity
  8
Layer 1
100
AcDbVertex
100
AcDb2dVertex
 10
67.418494294396
 20
54.42849614693337
 30
0.0
  0
VERTEX
  5
39C
330
391
100
AcDbEntity
  8
Layer 1
100
AcDbVertex
100
AcDb2dVertex
 10
65.88360416428026
 20
54.39687554610506
 30
0.0
  0
VERTEX
  5
39D
330
391
100
AcDbEntity
  8
Layer 1
100
AcDbVertex
100
AcDb2dVertex
 10
64.29443015682307
 20
54.33161825425766
 30
0.0
  0
VERTEX
  5
39E
330
391
100
AcDbEntity
  8
Layer 1
100
AcDbVertex
100
AcDb2dVertex
 10
63.39491647460153
 20
54.25409136631392
 30
0.0
  0
VERTEX
  5
39F
330
391
100
AcDbEntity
  8
Layer 1
100
AcDbVertex
100
AcDb2dVertex
 10
62.52555242611639
 20
54.18597174556054
 30
0.0
  0
VERTEX
  5
3A0
330
391
100
AcDbEntity
  8
Layer 1
100
AcDbVertex
100
AcDb2dVertex
 10
62.41792609037233
 20
53.23427334256525
 30
0.0
  0
VERTEX
  5
3A1
330
391
100
AcDbEntity
  8
Layer 1
100
AcDbVertex
100
AcDb2dVertex
 10
62.22133220380822
 20
51.20462429634748
 30
0.0
  0
VERTEX
  5
3A2
330
391
100
AcDbEntity
  8
Layer 1
100
AcDbVertex
100
AcDb2dVertex
 10
62.10711074384368
 20
49.33745827510633
 30
0.0
  0
VERTEX
  5
3A3
330
391
100
AcDbEntity
  8
Layer 1
100
AcDbVertex
100
AcDb2dVertex
 10
61.97893413255034
 20
48.32354142522067
 30
0.0
  0
VERTEX
  5
3A4
330
391
100
AcDbEntity
  8
Layer 1
100
AcDbVertex
100
AcDb2dVertex
 10
61.23773458151187
 20
47.82609496571416
 30
0.0
  0
VERTEX
  5
3A5
330
391
100
AcDbEntity
  8
Layer 1
100
AcDbVertex
100
AcDb2dVertex
 10
60.33712892254325
 20
48.26361941754325
 30
0.0
  0
VERTEX
  5
3A6
330
391
100
AcDbEntity
  8
Layer 1
100
AcDbVertex
100
AcDb2dVertex
 10
60.21908987033774
 20
49.34449468945439
 30
0.0
  0
VERTEX
  5
3A7
330
391
100
AcDbEntity
  8
Layer 1
100
AcDbVertex
100
AcDb2dVertex
 10
60.43944766290966
 20
52.33482369067593
 30
0.0
  0
VERTEX
  5
3A8
330
391
100
AcDbEntity
  8
Layer 1
100
AcDbVertex
100
AcDb2dVertex
 10
60.61194710850766
 20
56.43216099210925
 30
0.0
  0
VERTEX
  5
3A9
330
391
100
AcDbEntity
  8
Layer 1
100
AcDbVertex
100
AcDb2dVertex
 10
60.63506725009405
 20
62.20620868736678
 30
0.0
  0
VERTEX
  5
3AA
330
391
100
AcDbEntity
  8
Layer 1
100
AcDbVertex
100
AcDb2dVertex
 10
60.85807970562955
 20
64.34621314592155
 30
0.0
  0
VERTEX
  5
3AB
330
391
100
AcDbEntity
  8
Layer 1
100
AcDbVertex
100
AcDb2dVertex
 10
61.70081751920092
 20
64.93057126341843
 30
0.0
  0
VERTEX
  5
3AC
330
391
100
AcDbEntity
  8
Layer 1
100
AcDbVertex
100
AcDb2dVertex
 10
62.56148728689792
 20
64.39372019134291
 30
0.0
  0
VERTEX
  5
3AD
330
391
100
AcDbEntity
  8
Layer 1
100
AcDbVertex
100
AcDb2dVertex
 10
62.62379572236331
 20
63.6468928932656
 30
0.0
  0
VERTEX
  5
3AE
330
391
100
AcDbEntity
  8
Layer 1
100
AcDbVertex
100
AcDb2dVertex
 10
62.51751921524482
 20
62.16842906079701
 30
0.0
  0
VERTEX
  5
3AF
330
391
100
AcDbEntity
  8
Layer 1
100
AcDbVertex
100
AcDb2dVertex
 10
62.53074753577524
 20
56.41343644630352
 30
0.0
  0
VERTEX
  5
3B0
330
391
100
AcDbEntity
  8
Layer 1
100
AcDbVertex
100
AcDb2dVertex
 10
62.56755632406434
 20
56.11198856432627
 30
0.0
  0
VERTEX
  5
3B1
330
391
100
AcDbEntity
  8
Layer 1
100
AcDbVertex
100
AcDb2dVertex
 10
63.1987033089318
 20
56.14038342084943
 30
0.0
  0
VERTEX
  5
3B2
330
391
100
AcDbEntity
  8
Layer 1
100
AcDbVertex
100
AcDb2dVertex
 10
64.64928798863419
 20
56.23069906974553
 30
0.0
  0
VERTEX
  5
3B3
330
391
100
AcDbEntity
  8
Layer 1
100
AcDbVertex
100
AcDb2dVertex
 10
66.8501472210576
 20
56.2930490383994
 30
0.0
  0
VERTEX
  5
3B4
330
391
100
AcDbEntity
  8
Layer 1
100
AcDbVertex
100
AcDb2dVertex
 10
68.52920597058042
 20
56.14786458642412
 30
0.0
  0
VERTEX
  5
3B5
330
391
100
AcDbEntity
  8
Layer 1
100
AcDbVertex
100
AcDb2dVertex
 10
69.02721139758184
 20
55.67246359725215
 30
0.0
  0
VERTEX
  5
3B6
330
391
100
AcDbEntity
  8
Layer 1
100
AcDbVertex
100
AcDb2dVertex
 10
69.39002456553611
 20
54.7437970778177
 30
0.0
  0
SEQEND
  5
3B7
330
391
100
AcDbEntity
  8
Layer 1
  0
POLYLINE
  5
3B8
330
1F
100
AcDbEntity
  8
Layer 1
100
AcDb2dPolyline
 66
     1
 10
0.0
 20
0.0
 30
0.0
 70
     1
  0
VERTEX
  5
3B9
330
3B8
100
AcDbEntity
  8
Layer 1
100
AcDbVertex
100
AcDb2dVertex
 10
33.59855290471043
 20
27.27008956697701
 30
0.0
  0
VERTEX
  5
3BA
330
3B8
100
AcDbEntity
  8
Layer 1
100
AcDbVertex
100
AcDb2dVertex
 10
32.45481888258654
 20
27.20726542775466
 30
0.0
  0
VERTEX
  5
3BB
330
3B8
100
AcDbEntity
  8
Layer 1
100
AcDbVertex
100
AcDb2dVertex
 10
28.5708289176199
 20
28.23806897985591
 30
0.0
  0
VERTEX
  5
3BC
330
3B8
100
AcDbEntity
  8
Layer 1
100
AcDbVertex
100
AcDb2dVertex
 10
25.22364849154027
 20
29.15047006435243
 30
0.0
  0
VERTEX
  5
3BD
330
3B8
100
AcDbEntity
  8
Layer 1
100
AcDbVertex
100
AcDb2dVertex
 10
24.84700304127314
 20
28.99040980870375
 30
0.0
  0
VERTEX
  5
3BE
330
3B8
100
AcDbEntity
  8
Layer 1
100
AcDbVertex
100
AcDb2dVertex
 10
24.30345820365451
 20
28.66744773509464
 30
0.0
  0
VERTEX
  5
3BF
330
3B8
100
AcDbEntity
  8
Layer 1
100
AcDbVertex
100
AcDb2dVertex
 10
23.73703377083276
 20
28.68795301635639
 30
0.0
  0
VERTEX
  5
3C0
330
3B8
100
AcDbEntity
  8
Layer 1
100
AcDbVertex
100
AcDb2dVertex
 10
23.91081036197648
 20
29.28678371948852
 30
0.0
  0
VERTEX
  5
3C1
330
3B8
100
AcDbEntity
  8
Layer 1
100
AcDbVertex
100
AcDb2dVertex
 10
24.04512696296656
 20
29.61143480942909
 30
0.0
  0
VERTEX
  5
3C2
330
3B8
100
AcDbEntity
  8
Layer 1
100
AcDbVertex
100
AcDb2dVertex
 10
24.24032429606809
 20
30.07227495494031
 30
0.0
  0
VERTEX
  5
3C3
330
3B8
100
AcDbEntity
  8
Layer 1
100
AcDbVertex
100
AcDb2dVertex
 10
24.79336812000166
 20
30.01261599078991
 30
0.0
  0
VERTEX
  5
3C4
330
3B8
100
AcDbEntity
  8
Layer 1
100
AcDbVertex
100
AcDb2dVertex
 10
25.19275472151031
 20
29.91421348398714
 30
0.0
  0
VERTEX
  5
3C5
330
3B8
100
AcDbEntity
  8
Layer 1
100
AcDbVertex
100
AcDb2dVertex
 10
26.14814265608213
 20
30.28869747790389
 30
0.0
  0
VERTEX
  5
3C6
330
3B8
100
AcDbEntity
  8
Layer 1
100
AcDbVertex
100
AcDb2dVertex
 10
30.08120062213713
 20
32.02001882292887
 30
0.0
  0
VERTEX
  5
3C7
330
3B8
100
AcDbEntity
  8
Layer 1
100
AcDbVertex
100
AcDb2dVertex
 10
32.02440006708633
 20
32.84232403831832
 30
0.0
  0
VERTEX
  5
3C8
330
3B8
100
AcDbEntity
  8
Layer 1
100
AcDbVertex
100
AcDb2dVertex
 10
32.65528920007532
 20
32.8443280146624
 30
0.0
  0
VERTEX
  5
3C9
330
3B8
100
AcDbEntity
  8
Layer 1
100
AcDbVertex
100
AcDb2dVertex
 10
32.87849374660754
 20
32.63701856547083
 30
0.0
  0
VERTEX
  5
3CA
330
3B8
100
AcDbEntity
  8
Layer 1
100
AcDbVertex
100
AcDb2dVertex
 10
32.60955942901093
 20
32.21971212368318
 30
0.0
  0
VERTEX
  5
3CB
330
3B8
100
AcDbEntity
  8
Layer 1
100
AcDbVertex
100
AcDb2dVertex
 10
32.14407794968723
 20
32.13491865830521
 30
0.0
  0
VERTEX
  5
3CC
330
3B8
100
AcDbEntity
  8
Layer 1
100
AcDbVertex
100
AcDb2dVertex
 10
31.12684536692136
 20
31.74206315068481
 30
0.0
  0
VERTEX
  5
3CD
330
3B8
100
AcDbEntity
  8
Layer 1
100
AcDbVertex
100
AcDb2dVertex
 10
30.44869319599331
 20
31.41089654180166
 30
0.0
  0
VERTEX
  5
3CE
330
3B8
100
AcDbEntity
  8
Layer 1
100
AcDbVertex
100
AcDb2dVertex
 10
30.44510403628896
 20
31.02060916966884
 30
0.0
  0
VERTEX
  5
3CF
330
3B8
100
AcDbEntity
  8
Layer 1
100
AcDbVertex
100
AcDb2dVertex
 10
30.28163459808599
 20
29.66054953535447
 30
0.0
  0
VERTEX
  5
3D0
330
3B8
100
AcDbEntity
  8
Layer 1
100
AcDbVertex
100
AcDb2dVertex
 10
30.15295958853092
 20
28.60917494110972
 30
0.0
  0
VERTEX
  5
3D1
330
3B8
100
AcDbEntity
  8
Layer 1
100
AcDbVertex
100
AcDb2dVertex
 10
32.28000569228037
 20
27.99180313042098
 30
0.0
  0
VERTEX
  5
3D2
330
3B8
100
AcDbEntity
  8
Layer 1
100
AcDbVertex
100
AcDb2dVertex
 10
33.62266465117175
 20
27.51599719266133
 30
0.0
  0
SEQEND
  5
3D3
330
3B8
100
AcDbEntity
  8
Layer 1
  0
POLYLINE
  5
3D4
330
1F
100
AcDbEntity
  8
Layer 1
100
AcDb2dPolyline
 66
     1
 10
0.0
 20
0.0
 30
0.0
 70
     1
  0
VERTEX
  5
3D5
330
3D4
100
AcDbEntity
  8
Layer 1
100
AcDbVertex
100
AcDb2dVertex
 10
33.30575777033291
 20
35.97388664696112
 30
0.0
  0
VERTEX
  5
3D6
330
3D4
100
AcDbEntity
  8
Layer 1
100
AcDbVertex
100
AcDb2dVertex
 10
29.96810574991007
 20
35.99883078774155
 30
0.0
  0
VERTEX
  5
3D7
330
3D4
100
AcDbEntity
  8
Layer 1
100
AcDbVertex
100
AcDb2dVertex
 10
26.83159030854119
 20
36.25220227350533
 30
0.0
  0
VERTEX
  5
3D8
330
3D4
100
AcDbEntity
  8
Layer 1
100
AcDbVertex
100
AcDb2dVertex
 10
24.33234972788989
 20
36.48844304957123
 30
0.0
  0
VERTEX
  5
3D9
330
3D4
100
AcDbEntity
  8
Layer 1
100
AcDbVertex
100
AcDb2dVertex
 10
23.92117635360092
 20
36.84677063316984
 30
0.0
  0
VERTEX
  5
3DA
330
3D4
100
AcDbEntity
  8
Layer 1
100
AcDbVertex
100
AcDb2dVertex
 10
24.57678984758129
 20
37.16208021680178
 30
0.0
  0
VERTEX
  5
3DB
330
3D4
100
AcDbEntity
  8
Layer 1
100
AcDbVertex
100
AcDb2dVertex
 10
26.20998384317715
 20
37.01435185703219
 30
0.0
  0
VERTEX
  5
3DC
330
3D4
100
AcDbEntity
  8
Layer 1
100
AcDbVertex
100
AcDb2dVertex
 10
28.31883667982349
 20
36.85262681274532
 30
0.0
  0
VERTEX
  5
3DD
330
3D4
100
AcDbEntity
  8
Layer 1
100
AcDbVertex
100
AcDb2dVertex
 10
29.20801898141098
 20
36.82290981638891
 30
0.0
  0
VERTEX
  5
3DE
330
3D4
100
AcDbEntity
  8
Layer 1
100
AcDbVertex
100
AcDb2dVertex
 10
28.71011046518268
 20
39.45198487477366
 30
0.0
  0
VERTEX
  5
3DF
330
3D4
100
AcDbEntity
  8
Layer 1
100
AcDbVertex
100
AcDb2dVertex
 10
25.41875410551725
 20
39.62026004899349
 30
0.0
  0
VERTEX
  5
3E0
330
3D4
100
AcDbEntity
  8
Layer 1
100
AcDbVertex
100
AcDb2dVertex
 10
23.93683782675637
 20
39.70593436407711
 30
0.0
  0
VERTEX
  5
3E1
330
3D4
100
AcDbEntity
  8
Layer 1
100
AcDbVertex
100
AcDb2dVertex
 10
23.91079478703081
 20
40.31690660264114
 30
0.0
  0
VERTEX
  5
3E2
330
3D4
100
AcDbEntity
  8
Layer 1
100
AcDbVertex
100
AcDb2dVertex
 10
28.27279367929598
 20
40.20970252097995
 30
0.0
  0
VERTEX
  5
3E3
330
3D4
100
AcDbEntity
  8
Layer 1
100
AcDbVertex
100
AcDb2dVertex
 10
31.96002362494459
 20
39.89257066870351
 30
0.0
  0
VERTEX
  5
3E4
330
3D4
100
AcDbEntity
  8
Layer 1
100
AcDbVertex
100
AcDb2dVertex
 10
32.1157021292088
 20
39.36164672873379
 30
0.0
  0
VERTEX
  5
3E5
330
3D4
100
AcDbEntity
  8
Layer 1
100
AcDbVertex
100
AcDb2dVertex
 10
30.36372667566334
 20
39.33043626814169
 30
0.0
  0
VERTEX
  5
3E6
330
3D4
100
AcDbEntity
  8
Layer 1
100
AcDbVertex
100
AcDb2dVertex
 10
29.50700602197086
 20
39.37058847810333
 30
0.0
  0
VERTEX
  5
3E7
330
3D4
100
AcDbEntity
  8
Layer 1
100
AcDbVertex
100
AcDb2dVertex
 10
30.01409164230341
 20
36.75198497486374
 30
0.0
  0
VERTEX
  5
3E8
330
3D4
100
AcDbEntity
  8
Layer 1
100
AcDbVertex
100
AcDb2dVertex
 10
32.40539957994564
 20
36.53571474025792
 30
0.0
  0
VERTEX
  5
3E9
330
3D4
100
AcDbEntity
  8
Layer 1
100
AcDbVertex
100
AcDb2dVertex
 10
33.35853953069105
 20
36.31108595147077
 30
0.0
  0
SEQEND
  5
3EA
330
3D4
100
AcDbEntity
  8
Layer 1
  0
ARC
  5
3EC
330
1F
100
AcDbEntity
  8
Default
100
AcDbCircle
 10
-108.818055593413
 20
5.096009091276635
 30
0.0
 40
3.0
210
0.0
220
0.0
230
-1.0
100
AcDbArc
 50
180.0000000000008
 51
269.9999999999989
  0
LINE
  5
3ED
330
1F
100
AcDbEntity
  8
Default
100
AcDbLine
 10
108.8180555934131
 20
2.096009091276635
 30
0.0
 11
4.818055593412922
 21
2.096009091276585
 31
0.0
  0
ARC
  5
3EE
330
1F
100
AcDbEntity
  8
Default
100
AcDbCircle
 10
-4.818055593413032
 20
5.096009091276585
 30
0.0
 40
3.0
210
0.0
220
0.0
230
-1.0
100
AcDbArc
 50
270.0000000000021
 51
0.0000000000001357
  0
LINE
  5
3EF
330
1F
100
AcDbEntity
  8
Default
100
AcDbLine
 10
1.818055593413032
 20
5.096009091276592
 30
0.0
 11
1.818055593413032
 21
65.86253830227552
 31
0.0
  0
ARC
  5
3F0
330
1F
100
AcDbEntity
  8
Default
100
AcDbCircle
 10
-4.818055593413032
 20
65.86253830227555
 30
0.0
 40
3.0
210
0.0
220
0.0
230
-1.0
100
AcDbArc
 50
359.9999999999998
 51
89.99999999999986
  0
LINE
  5
3F1
330
1F
100
AcDbEntity
  8
Default
100
AcDbLine
 10
4.818055593413025
 20
68.86253830227555
 30
0.0
 11
108.818055593413
 21
68.86253830227558
 31
0.0
  0
ARC
  5
3F2
330
1F
100
AcDbEntity
  8
Default
100
AcDbCircle
 10
-108.818055593413
 20
65.86253830227558
 30
0.0
 40
3.0
210
0.0
220
0.0
230
-1.0
100
AcDbArc
 50
90.0
 51
180.0
  0
LINE
  5
3F3
330
1F
100
AcDbEntity
  8
Default
100
AcDbLine
 10
111.818055593413
 20
65.86253830227558
 30
0.0
 11
111.818055593413
 21
36.33512103692144
 31
0.0
  0
ARC
  5
3F4
330
1F
100
AcDbEntity
  8
Default
100
AcDbCircle
 10
-108.818055593413
 20
36.33512103692117
 30
0.0
 40
3.0
210
0.0
220
0.0
230
-1.0
100
AcDbArc
 50
179.9999999999949
 51
258.8461401820417
  0
ARC
  5
3F5
330
1F
100
AcDbEntity
  8
Default
100
AcDbCircle
 10
111.6941543231668
 20
21.74811879975312
 30
0.0
 40
11.86783703739171
100
AcDbArc
 50
101.1538598179586
 51
258.8461401820414
  0
ARC
  5
3F6
330
1F
100
AcDbEntity
  8
Default
100
AcDbCircle
 10
-108.818055593413
 20
7.161116562585082
 30
0.0
 40
3.0
210
0.0
220
0.0
230
-1.0
100
AcDbArc
 50
101.1538598179589
 51
179.999999999998
  0
LINE
  5
3F7
330
1F
100
AcDbEntity
  8
Default
100
AcDbLine
 10
111.818055593413
 20
7.161116562584937
 30
0.0
 11
111.818055593413
 21
5.096009091276592
 31
0.0
  0
POLYLINE
  5
3F8
330
1F
100
AcDbEntity
  8
Layer 1
100
AcDb2dPolyline
 66
     1
 10
0.0
 20
0.0
 30
0.0
 70
     1
  0
VERTEX
  5
3F9
330
3F8
100
AcDbEntity
  8
Layer 1
100
AcDbVertex
100
AcDb2dVertex
 10
64.55757924737453
 20
8.637835697683986
 30
0.0
  0
VERTEX
  5
3FA
330
3F8
100
AcDbEntity
  8
Layer 1
100
AcDbVertex
100
AcDb2dVertex
 10
64.19787241580855
 20
8.01343958649381
 30
0.0
  0
VERTEX
  5
3FB
330
3F8
100
AcDbEntity
  8
Layer 1
100
AcDbVertex
100
AcDb2dVertex
 10
64.66556034577016
 20
7.668639708492584
 30
0.0
  0
VERTEX
  5
3FC
330
3F8
100
AcDbEntity
  8
Layer 1
100
AcDbVertex
100
AcDb2dVertex
 10
64.87962239918855
 20
7.704060596066697
 30
0.0
  0
VERTEX
  5
3FD
330
3F8
100
AcDbEntity
  8
Layer 1
100
AcDbVertex
100
AcDb2dVertex
 10
64.86330677831458
 20
8.162559308077448
 30
0.0
  0
VERTEX
  5
3FE
330
3F8
100
AcDbEntity
  8
Layer 1
100
AcDbVertex
100
AcDb2dVertex
 10
64.84699461853961
 20
8.621058020088185
 30
0.0
  0
SEQEND
  5
3FF
330
3F8
100
AcDbEntity
  8
Layer 1
  0
ENDSEC
  0
SECTION
  2
OBJECTS
  0
DICTIONARY
  5
C
330
0
100
AcDbDictionary
281
     1
  3
ACAD_DETAILVIEWSTYLE
350
43B
  3
ACAD_GROUP
350
D
  3
ACAD_LAYOUT
350
1A
  3
ACAD_MATERIAL
350
43
  3
ACAD_MLEADERSTYLE
350
5B
  3
ACAD_MLINESTYLE
350
17
  3
ACAD_PLOTSETTINGS
350
19
  3
ACAD_PLOTSTYLENAME
350
E
  3
ACAD_SCALELIST
350
47
  3
ACAD_SECTIONVIEWSTYLE
350
43C
  3
ACAD_TABLESTYLE
350
59
  3
ACAD_VISUALSTYLE
350
2A
  3
AcDbVariableDictionary
350
400
  3
ACDB_RECOMPOSE_DATA
350
438
  0
SUN
  5
5D
330
29
100
AcDbSun
 90
        1
290
     0
 63
     7
421
 16777215
 40
1.0
291
     1
 91
  2455826
 92
 54000000
292
     0
 70
     2
 71
   256
280
     1
  0
DICTIONARY
  5
43B
102
{ACAD_REACTORS
330
C
102
}
330
C
100
AcDbDictionary
281
     1
  0
DICTIONARY
  5
D
102
{ACAD_REACTORS
330
C
102
}
330
C
100
AcDbDictionary
281
     1
  0
DICTIONARY
  5
1A
102
{ACAD_REACTORS
330
C
102
}
330
C
100
AcDbDictionary
281
     1
  3
Layout1
350
1E
  3
Layout2
350
26
  3
Model
350
22
  0
DICTIONARY
  5
43
102
{ACAD_REACTORS
330
C
102
}
330
C
100
AcDbDictionary
281
     1
  3
ByBlock
350
45
  3
ByLayer
350
44
  3
Global
350
46
  0
DICTIONARY
  5
5B
102
{ACAD_REACTORS
330
C
102
}
330
C
100
AcDbDictionary
281
     1
  3
Standard
350
5C
  0
DICTIONARY
  5
17
102
{ACAD_REACTORS
330
C
102
}
330
C
100
AcDbDictionary
281
     1
  3
Standard
350
18
  0
DICTIONARY
  5
19
102
{ACAD_REACTORS
330
C
102
}
330
C
100
AcDbDictionary
281
     1
  0
ACDBDICTIONARYWDFLT
  5
E
102
{ACAD_REACTORS
330
C
102
}
330
C
100
AcDbDictionary
281
     1
  3
Normal
350
F
100
AcDbDictionaryWithDefault
340
F
  0
DICTIONARY
  5
47
102
{ACAD_REACTORS
330
C
102
}
330
C
100
AcDbDictionary
281
     1
  3
A0
350
48
  3
A1
350
49
  3
A2
350
4A
  3
A3
350
4B
  3
A4
350
4C
  3
A5
350
4D
  3
A6
350
4E
  3
A7
350
4F
  3
A8
350
50
  3
A9
350
51
  3
B1
350
52
  3
B2
350
53
  3
B3
350
54
  3
B4
350
55
  3
B5
350
56
  3
B6
350
57
  3
B7
350
58
  0
DICTIONARY
  5
43C
102
{ACAD_REACTORS
330
C
102
}
330
C
100
AcDbDictionary
281
     1
  0
DICTIONARY
  5
59
102
{ACAD_REACTORS
330
C
102
}
330
C
100
AcDbDictionary
281
     1
  3
Standard
350
5A
  0
DICTIONARY
  5
2A
102
{ACAD_REACTORS
330
C
102
}
330
C
100
AcDbDictionary
281
     1
  3
2dWireframe
350
2F
  3
Basic
350
32
  3
Brighten
350
36
  3
ColorChange
350
3A
  3
Conceptual
350
34
  3
Dim
350
35
  3
EdgeColorOff
350
3D
  3
Facepattern
350
39
  3
Flat
350
2B
  3
FlatWithEdges
350
2C
  3
Gouraud
350
2D
  3
GouraudWithEdges
350
2E
  3
Hidden
350
31
  3
JitterOff
350
3B
  3
Linepattern
350
38
  3
OverhangOff
350
3C
  3
Realistic
350
33
  3
Shaded
350
42
  3
Shaded with edges
350
41
  3
Shades of Gray
350
3E
  3
Sketchy
350
3F
  3
Thicken
350
37
  3
Wireframe
350
30
  3
X-Ray
350
40
  0
DICTIONARY
  5
400
102
{ACAD_REACTORS
330
C
102
}
330
C
100
AcDbDictionary
281
     1
  3
CANNOSCALE
350
401
  3
CMLEADERSTYLE
350
43A
  3
CTABLESTYLE
350
439
  3
XCLIPFRAME
350
402
  0
XRECORD
  5
438
102
{ACAD_REACTORS
330
C
102
}
330
C
100
AcDbXrecord
280
     1
 90
        1
330
5A
  0
LAYOUT
  5
1E
102
{ACAD_REACTORS
330
1A
102
}
330
1A
100
AcDbPlotSettings
  1

  2
none_device
  4

  6

 40
0.0
 41
0.0
 42
0.0
 43
0.0
 44
0.0
 45
0.0
 46
0.0
 47
0.0
 48
0.0
 49
0.0
140
0.0
141
0.0
142
1.0
143
1.0
 70
   688
 72
     0
 73
     0
 74
     5
  7

 75
    16
 76
     0
 77
     2
 78
   300
147
1.0
148
0.0
149
0.0
100
AcDbLayout
  1
Layout1
 70
     1
 71
     1
 10
0.0
 20
0.0
 11
12.0
 21
9.0
 12
0.0
 22
0.0
 32
0.0
 14
1.000000000000000E+20
 24
1.000000000000000E+20
 34
1.000000000000000E+20
 15
-1.000000000000000E+20
 25
-1.000000000000000E+20
 35
-1.000000000000000E+20
146
0.0
 13
0.0
 23
0.0
 33
0.0
 16
1.0
 26
0.0
 36
0.0
 17
0.0
 27
1.0
 37
0.0
 76
     0
330
1B
  0
LAYOUT
  5
26
102
{ACAD_REACTORS
330
1A
102
}
330
1A
100
AcDbPlotSettings
  1

  2
none_device
  4

  6

 40
0.0
 41
0.0
 42
0.0
 43
0.0
 44
0.0
 45
0.0
 46
0.0
 47
0.0
 48
0.0
 49
0.0
140
0.0
141
0.0
142
1.0
143
1.0
 70
   688
 72
     0
 73
     0
 74
     5
  7

 75
    16
 76
     0
 77
     2
 78
   300
147
1.0
148
0.0
149
0.0
100
AcDbLayout
  1
Layout2
 70
     1
 71
     2
 10
0.0
 20
0.0
 11
0.0
 21
0.0
 12
0.0
 22
0.0
 32
0.0
 14
0.0
 24
0.0
 34
0.0
 15
0.0
 25
0.0
 35
0.0
146
0.0
 13
0.0
 23
0.0
 33
0.0
 16
1.0
 26
0.0
 36
0.0
 17
0.0
 27
1.0
 37
0.0
 76
     0
330
23
  0
LAYOUT
  5
22
102
{ACAD_REACTORS
330
1A
102
}
330
1A
100
AcDbPlotSettings
  1

  2
none_device
  4
Letter_(8.50_x_11.00_Inches)
  6

 40
6.35
 41
6.35
 42
6.35000508
 43
6.35000508
 44
215.9
 45
279.4
 46
0.0
 47
0.0
 48
0.0
 49
0.0
140
0.0
141
0.0
142
1.0
143
1.0
 70
  1712
 72
     0
 73
     0
 74
     0
  7

 75
     0
 76
     0
 77
     2
 78
   300
147
1.0
148
0.0
149
0.0
100
AcDbLayout
  1
Model
 70
     1
 71
     0
 10
0.0
 20
0.0
 11
12.0
 21
9.0
 12
0.0
 22
0.0
 32
0.0
 14
1.818055593413032
 24
2.096009091276585
 34
0.0
 15
111.818055593413
 25
68.86253830227558
 35
0.0
146
0.0
 13
0.0
 23
0.0
 33
0.0
 16
1.0
 26
0.0
 36
0.0
 17
0.0
 27
1.0
 37
0.0
 76
     0
330
1F
331
29
  0
MATERIAL
  5
45
102
{ACAD_REACTORS
330
43
102
}
330
43
100
AcDbMaterial
  1
ByBlock
 72
     1
 94
      127
  0
MATERIAL
  5
44
102
{ACAD_REACTORS
330
43
102
}
330
43
100
AcDbMaterial
  1
ByLayer
 72
     1
 94
      127
  0
MATERIAL
  5
46
102
{ACAD_REACTORS
330
43
102
}
330
43
100
AcDbMaterial
  1
Global
 72
     1
 94
      127
  0
MLEADERSTYLE
  5
5C
102
{ACAD_REACTORS
330
5B
102
}
102
{ACAD_XDICTIONARY
360
436
102
}
330
5B
100
AcDbMLeaderStyle
170
     2
171
     1
172
     0
 90
        2
 40
0.0
 41
0.0
173
     1
 91
-1056964608
340
14
 92
       -2
290
     1
 42
0.09
291
     1
 43
0.36
  3
Standard
341
0
 44
0.18
300

342
11
174
     1
178
     6
175
     1
176
     0
 93
-1056964608
 45
0.18
292
     0
297
     0
 46
0.18
343
0
 94
-1056964608
 47
1.0
 49
1.0
140
1.0
293
     1
141
0.0
294
     1
177
     0
142
1.0
295
     0
296
     0
143
0.125
1001
ACAD_MLEADERVER
1070
     2
  0
MLINESTYLE
  5
18
102
{ACAD_REACTORS
330
17
102
}
330
17
100
AcDbMlineStyle
  2
Standard
 70
     0
  3

 62
   256
 51
90.0
 52
90.0
 71
     2
 49
0.5
 62
   256
  6
BYLAYER
 49
-0.5
 62
   256
  6
BYLAYER
  0
ACDBPLACEHOLDER
  5
F
102
{ACAD_REACTORS
330
E
102
}
330
E
  0
SCALE
  5
48
102
{ACAD_REACTORS
330
47
102
}
330
47
100
AcDbScale
 70
     0
300
1:1
140
1.0
141
1.0
290
     1
  0
SCALE
  5
49
102
{ACAD_REACTORS
330
47
102
}
330
47
100
AcDbScale
 70
     0
300
1/128" = 1'-0"
140
0.0078125
141
12.0
290
     0
  0
SCALE
  5
4A
102
{ACAD_REACTORS
330
47
102
}
330
47
100
AcDbScale
 70
     0
300
1/64" = 1'-0"
140
0.015625
141
12.0
290
     0
  0
SCALE
  5
4B
102
{ACAD_REACTORS
330
47
102
}
330
47
100
AcDbScale
 70
     0
300
1/32" = 1'-0"
140
0.03125
141
12.0
290
     0
  0
SCALE
  5
4C
102
{ACAD_REACTORS
330
47
102
}
330
47
100
AcDbScale
 70
     0
300
1/16" = 1'-0"
140
0.0625
141
12.0
290
     0
  0
SCALE
  5
4D
102
{ACAD_REACTORS
330
47
102
}
330
47
100
AcDbScale
 70
     0
300
3/32" = 1'-0"
140
0.09375
141
12.0
290
     0
  0
SCALE
  5
4E
102
{ACAD_REACTORS
330
47
102
}
330
47
100
AcDbScale
 70
     0
300
1/8" = 1'-0"
140
0.125
141
12.0
290
     0
  0
SCALE
  5
4F
102
{ACAD_REACTORS
330
47
102
}
330
47
100
AcDbScale
 70
     0
300
3/16" = 1'-0"
140
0.1875
141
12.0
290
     0
  0
SCALE
  5
50
102
{ACAD_REACTORS
330
47
102
}
330
47
100
AcDbScale
 70
     0
300
1/4" = 1'-0"
140
0.25
141
12.0
290
     0
  0
SCALE
  5
51
102
{ACAD_REACTORS
330
47
102
}
330
47
100
AcDbScale
 70
     0
300
3/8" = 1'-0"
140
0.375
141
12.0
290
     0
  0
SCALE
  5
52
102
{ACAD_REACTORS
330
47
102
}
330
47
100
AcDbScale
 70
     0
300
1/2" = 1'-0"
140
0.5
141
12.0
290
     0
  0
SCALE
  5
53
102
{ACAD_REACTORS
330
47
102
}
330
47
100
AcDbScale
 70
     0
300
3/4" = 1'-0"
140
0.75
141
12.0
290
     0
  0
SCALE
  5
54
102
{ACAD_REACTORS
330
47
102
}
330
47
100
AcDbScale
 70
     0
300
1" = 1'-0"
140
1.0
141
12.0
290
     0
  0
SCALE
  5
55
102
{ACAD_REACTORS
330
47
102
}
330
47
100
AcDbScale
 70
     0
300
1-1/2" = 1'-0"
140
1.5
141
12.0
290
     0
  0
SCALE
  5
56
102
{ACAD_REACTORS
330
47
102
}
330
47
100
AcDbScale
 70
     0
300
3" = 1'-0"
140
3.0
141
12.0
290
     0
  0
SCALE
  5
57
102
{ACAD_REACTORS
330
47
102
}
330
47
100
AcDbScale
 70
     0
300
6" = 1'-0"
140
6.0
141
12.0
290
     0
  0
SCALE
  5
58
102
{ACAD_REACTORS
330
47
102
}
330
47
100
AcDbScale
 70
     0
300
1'-0" = 1'-0"
140
12.0
141
12.0
290
     0
  0
TABLESTYLE
  5
5A
102
{ACAD_REACTORS
330
59
102
}
102
{ACAD_XDICTIONARY
360
433
102
}
330
59
100
AcDbTableStyle
  3
Standard
 70
     0
 71
     0
 40
0.06
 41
0.06
280
     0
281
     0
  7
Standard
140
0.18
170
     2
 62
     0
 63
   257
283
     0
 90
        4
 91
        0
  1

274
    -2
284
     1
 64
     0
275
    -2
285
     1
 65
     0
276
    -2
286
     1
 66
     0
277
    -2
287
     1
 67
     0
278
    -2
288
     1
 68
     0
279
    -2
289
     1
 69
     0
  7
Standard
140
0.25
170
     5
 62
     0
 63
   257
283
     0
 90
        4
 91
        0
  1

274
    -2
284
     1
 64
     0
275
    -2
285
     1
 65
     0
276
    -2
286
     1
 66
     0
277
    -2
287
     1
 67
     0
278
    -2
288
     1
 68
     0
279
    -2
289
     1
 69
     0
  7
Standard
140
0.18
170
     5
 62
     0
 63
   257
283
     0
 90
        4
 91
        0
  1

274
    -2
284
     1
 64
     0
275
    -2
285
     1
 65
     0
276
    -2
286
     1
 66
     0
277
    -2
287
     1
 67
     0
278
    -2
288
     1
 68
     0
279
    -2
289
     1
 69
     0
  0
VISUALSTYLE
  5
2F
102
{ACAD_REACTORS
330
2A
102
}
102
{ACAD_XDICTIONARY
360
40B
102
}
330
2A
100
AcDbVisualStyle
  2
2dWireframe
 70
     4
 71
     0
 72
     2
 73
     0
 90
        0
 40
0.6
 41
30.0
 62
     5
 63
     7
421
 16777215
 74
     1
 91
        4
 64
     7
 65
   257
 75
     1
175
     1
 42
1.0
 92
        0
 66
   257
 43
1.0
 76
     1
 77
     6
 78
     2
 67
     7
 79
     5
170
     0
171
     0
290
     0
174
     0
 93
        1
 44
0.0
173
     0
291
     0
 45
0.0
  0
VISUALSTYLE
  5
32
102
{ACAD_REACTORS
330
2A
102
}
102
{ACAD_XDICTIONARY
360
411
102
}
330
2A
100
AcDbVisualStyle
  2
Basic
 70
     7
 71
     1
 72
     0
 73
     1
 90
        0
 40
0.6
 41
30.0
 62
     5
 63
     7
421
 16777215
 74
     0
 91
        4
 64
     7
 65
   257
 75
     1
175
     1
 42
1.0
 92
        8
 66
     7
 43
1.0
 76
     1
 77
     6
 78
     2
 67
     7
 79
     5
170
     0
171
     0
290
     0
174
     0
 93
        1
 44
0.0
173
     0
291
     1
 45
0.0
  0
VISUALSTYLE
  5
36
102
{ACAD_REACTORS
330
2A
102
}
102
{ACAD_XDICTIONARY
360
419
102
}
330
2A
100
AcDbVisualStyle
  2
Brighten
 70
    12
 71
     2
 72
     2
 73
     0
 90
        0
 40
0.6
 41
30.0
 62
     5
 63
     7
421
 16777215
 74
     1
 91
        4
 64
     7
 65
   257
 75
     1
175
     1
 42
1.0
 92
        8
 66
     7
 43
1.0
 76
     1
 77
     6
 78
     2
 67
     7
 79
     5
170
     0
171
     0
290
     0
174
     0
 93
        1
 44
50.0
173
     0
291
     1
 45
0.0
  0
VISUALSTYLE
  5
3A
102
{ACAD_REACTORS
330
2A
102
}
102
{ACAD_XDICTIONARY
360
421
102
}
330
2A
100
AcDbVisualStyle
  2
ColorChange
 70
    16
 71
     2
 72
     2
 73
     3
 90
        0
 40
0.6
 41
30.0
 62
     5
 63
     8
421
  8421504
 74
     1
 91
        4
 64
     7
 65
   257
 75
     1
175
     1
 42
1.0
 92
        8
 66
     8
424
  8421504
 43
1.0
 76
     1
 77
     6
 78
     2
 67
     7
 79
     5
170
     0
171
     0
290
     0
174
     0
 93
        1
 44
0.0
173
     0
291
     1
 45
0.0
  0
VISUALSTYLE
  5
34
102
{ACAD_REACTORS
330
2A
102
}
102
{ACAD_XDICTIONARY
360
415
102
}
330
2A
100
AcDbVisualStyle
  2
Conceptual
 70
     9
 71
     3
 72
     2
 73
     0
 90
        0
 40
0.6
 41
30.0
 62
     5
 63
     7
421
 16777215
 74
     2
 91
        2
 64
     7
 65
   257
 75
     1
175
     1
 42
179.0
 92
        8
 66
     7
 43
1.0
 76
     1
 77
     6
 78
     2
 67
     7
 79
     3
170
     0
171
     0
290
     0
174
     0
 93
        1
 44
0.0
173
     0
291
     0
 45
0.0
  0
VISUALSTYLE
  5
35
102
{ACAD_REACTORS
330
2A
102
}
102
{ACAD_XDICTIONARY
360
417
102
}
330
2A
100
AcDbVisualStyle
  2
Dim
 70
    11
 71
     2
 72
     2
 73
     0
 90
        0
 40
0.6
 41
30.0
 62
     5
 63
     7
421
 16777215
 74
     1
 91
        4
 64
     7
 65
   257
 75
     1
175
     1
 42
1.0
 92
        8
 66
     7
 43
1.0
 76
     1
 77
     6
 78
     2
 67
     7
 79
     5
170
     0
171
     0
290
     0
174
     0
 93
        1
 44
-50.0
173
     0
291
     1
 45
0.0
  0
VISUALSTYLE
  5
3D
102
{ACAD_REACTORS
330
2A
102
}
102
{ACAD_XDICTIONARY
360
427
102
}
330
2A
100
AcDbVisualStyle
  2
EdgeColorOff
 70
    22
 71
     2
 72
     2
 73
     0
 90
        0
 40
0.6
 41
30.0
 62
     5
 63
     7
421
 16777215
 74
     1
 91
        4
 64
     7
 65
   257
 75
     1
175
     1
 42
1.0
 92
        8
 66
     7
 43
1.0
 76
     1
 77
     6
 78
     2
 67
     7
 79
     5
170
     0
171
     0
290
     0
174
     0
 93
        1
 44
0.0
173
     0
291
     1
 45
0.0
  0
VISUALSTYLE
  5
39
102
{ACAD_REACTORS
330
2A
102
}
102
{ACAD_XDICTIONARY
360
41F
102
}
330
2A
100
AcDbVisualStyle
  2
Facepattern
 70
    15
 71
     2
 72
     2
 73
     0
 90
        0
 40
0.6
 41
30.0
 62
     5
 63
     7
421
 16777215
 74
     1
 91
        4
 64
     7
 65
   257
 75
     1
175
     1
 42
1.0
 92
        8
 66
     7
 43
1.0
 76
     1
 77
     6
 78
     2
 67
     7
 79
     5
170
     0
171
     0
290
     0
174
     0
 93
        1
 44
0.0
173
     0
291
     1
 45
0.0
  0
VISUALSTYLE
  5
2B
102
{ACAD_REACTORS
330
2A
102
}
102
{ACAD_XDICTIONARY
360
403
102
}
330
2A
100
AcDbVisualStyle
  2
Flat
 70
     0
 71
     2
 72
     1
 73
     1
 90
        2
 40
0.6
 41
30.0
 62
     5
 63
     7
421
 16777215
 74
     0
 91
        0
 64
     7
 65
   257
 75
     1
175
     1
 42
1.0
 92
        8
 66
     7
 43
1.0
 76
     1
 77
     6
 78
     2
 67
     7
 79
     5
170
     0
171
     0
290
     0
174
     0
 93
       13
 44
0.0
173
     0
291
     1
 45
0.0
  0
VISUALSTYLE
  5
2C
102
{ACAD_REACTORS
330
2A
102
}
102
{ACAD_XDICTIONARY
360
405
102
}
330
2A
100
AcDbVisualStyle
  2
FlatWithEdges
 70
     1
 71
     2
 72
     1
 73
     1
 90
        2
 40
0.6
 41
30.0
 62
     5
 63
     7
421
 16777215
 74
     1
 91
        0
 64
     7
 65
   257
 75
     1
175
     1
 42
1.0
 92
        0
 66
   257
 43
1.0
 76
     1
 77
     6
 78
     2
 67
     7
 79
     5
170
     0
171
     0
290
     0
174
     0
 93
       13
 44
0.0
173
     0
291
     1
 45
0.0
  0
VISUALSTYLE
  5
2D
102
{ACAD_REACTORS
330
2A
102
}
102
{ACAD_XDICTIONARY
360
407
102
}
330
2A
100
AcDbVisualStyle
  2
Gouraud
 70
     2
 71
     2
 72
     2
 73
     1
 90
        2
 40
0.6
 41
30.0
 62
     5
 63
     7
421
 16777215
 74
     0
 91
        0
 64
     7
 65
   257
 75
     1
175
     1
 42
1.0
 92
        0
 66
     7
 43
1.0
 76
     1
 77
     6
 78
     2
 67
     7
 79
     5
170
     0
171
     0
290
     0
174
     0
 93
       13
 44
0.0
173
     0
291
     1
 45
0.0
  0
VISUALSTYLE
  5
2E
102
{ACAD_REACTORS
330
2A
102
}
102
{ACAD_XDICTIONARY
360
409
102
}
330
2A
100
AcDbVisualStyle
  2
GouraudWithEdges
 70
     3
 71
     2
 72
     2
 73
     1
 90
        2
 40
0.6
 41
30.0
 62
     5
 63
     7
421
 16777215
 74
     1
 91
        0
 64
     7
 65
   257
 75
     1
175
     1
 42
1.0
 92
        0
 66
   257
 43
1.0
 76
     1
 77
     6
 78
     2
 67
     7
 79
     5
170
     0
171
     0
290
     0
174
     0
 93
       13
 44
0.0
173
     0
291
     1
 45
0.0
  0
VISUALSTYLE
  5
31
102
{ACAD_REACTORS
330
2A
102
}
102
{ACAD_XDICTIONARY
360
40F
102
}
330
2A
100
AcDbVisualStyle
  2
Hidden
 70
     6
 71
     1
 72
     2
 73
     2
 90
        0
 40
0.6
 41
30.0
 62
     5
 63
     7
421
 16777215
 74
     2
 91
        2
 64
     7
 65
   257
 75
     2
175
     1
 42
40.0
 92
        0
 66
   257
 43
1.0
 76
     1
 77
     6
 78
     2
 67
     7
 79
     3
170
     0
171
     0
290
     0
174
     0
 93
        1
 44
0.0
173
     0
291
     0
 45
0.0
  0
VISUALSTYLE
  5
3B
102
{ACAD_REACTORS
330
2A
102
}
102
{ACAD_XDICTIONARY
360
423
102
}
330
2A
100
AcDbVisualStyle
  2
JitterOff
 70
    20
 71
     2
 72
     2
 73
     0
 90
        0
 40
0.6
 41
30.0
 62
     5
 63
     7
421
 16777215
 74
     1
 91
        4
 64
     7
 65
   257
 75
     1
175
     1
 42
1.0
 92
       10
 66
     7
 43
1.0
 76
     1
 77
     6
 78
     2
 67
     7
 79
     5
170
     0
171
     0
290
     0
174
     0
 93
        1
 44
0.0
173
     0
291
     1
 45
0.0
  0
VISUALSTYLE
  5
38
102
{ACAD_REACTORS
330
2A
102
}
102
{ACAD_XDICTIONARY
360
41D
102
}
330
2A
100
AcDbVisualStyle
  2
Linepattern
 70
    14
 71
     2
 72
     2
 73
     0
 90
        0
 40
0.6
 41
30.0
 62
     5
 63
     7
421
 16777215
 74
     1
 91
        4
 64
     7
 65
   257
 75
     7
175
     7
 42
1.0
 92
        8
 66
     7
 43
1.0
 76
     1
 77
     6
 78
     2
 67
     7
 79
     5
170
     0
171
     0
290
     0
174
     0
 93
        1
 44
0.0
173
     0
291
     1
 45
0.0
  0
VISUALSTYLE
  5
3C
102
{ACAD_REACTORS
330
2A
102
}
102
{ACAD_XDICTIONARY
360
425
102
}
330
2A
100
AcDbVisualStyle
  2
OverhangOff
 70
    21
 71
     2
 72
     2
 73
     0
 90
        0
 40
0.6
 41
30.0
 62
     5
 63
     7
421
 16777215
 74
     1
 91
        4
 64
     7
 65
   257
 75
     1
175
     1
 42
1.0
 92
        9
 66
     7
 43
1.0
 76
     1
 77
     6
 78
     2
 67
     7
 79
     5
170
     0
171
     0
290
     0
174
     0
 93
        1
 44
0.0
173
     0
291
     1
 45
0.0
  0
VISUALSTYLE
  5
33
102
{ACAD_REACTORS
330
2A
102
}
102
{ACAD_XDICTIONARY
360
413
102
}
330
2A
100
AcDbVisualStyle
  2
Realistic
 70
     8
 71
     2
 72
     3
 73
     0
 90
        2
 40
0.6
 41
30.0
 62
     5
 63
     7
421
 16777215
 74
     0
 91
        0
 64
     7
 65
   257
 75
     1
175
     1
 42
1.0
 92
        8
 66
   257
 43
1.0
 76
     1
 77
     6
 78
     2
 67
     7
 79
     3
170
     0
171
     0
290
     0
174
     0
 93
       13
 44
0.0
173
     0
291
     0
 45
0.0
  0
VISUALSTYLE
  5
42
102
{ACAD_REACTORS
330
2A
102
}
102
{ACAD_XDICTIONARY
360
431
102
}
330
2A
100
AcDbVisualStyle
  2
Shaded
 70
    27
 71
     2
 72
     2
 73
     1
 90
        2
 40
0.6
 41
30.0
 62
     5
 63
     7
421
 16777215
 74
     0
 91
        4
 64
     7
 65
   257
 75
     1
175
     1
 42
1.0
 92
        8
 66
   257
 43
1.0
 76
     1
 77
     6
 78
     2
 67
     8
425
  7895160
 79
     3
170
     0
171
     0
290
     0
174
     0
 93
        5
 44
0.0
173
     0
291
     0
 45
0.0
  0
VISUALSTYLE
  5
41
102
{ACAD_REACTORS
330
2A
102
}
102
{ACAD_XDICTIONARY
360
42F
102
}
330
2A
100
AcDbVisualStyle
  2
Shaded with edges
 70
    26
 71
     2
 72
     2
 73
     1
 90
        2
 40
0.6
 41
30.0
 62
     5
 63
     7
421
 16777215
 74
     1
 91
       10
 64
     7
 65
   257
 75
     2
175
     1
 42
1.0
 92
        8
 66
   257
 43
1.0
 76
     1
 77
     6
 78
     2
 67
     7
 79
     3
170
     0
171
     0
290
     0
174
     0
 93
        5
 44
0.0
173
     0
291
     0
 45
0.0
  0
VISUALSTYLE
  5
3E
102
{ACAD_REACTORS
330
2A
102
}
102
{ACAD_XDICTIONARY
360
429
102
}
330
2A
100
AcDbVisualStyle
  2
Shades of Gray
 70
    23
 71
     2
 72
     2
 73
     3
 90
        0
 40
0.6
 41
30.0
 62
     5
 63
     7
421
 16777215
 74
     2
 91
        2
 64
     7
 65
     7
 75
     1
175
     1
 42
40.0
 92
        8
 66
     7
 43
1.0
 76
     1
 77
     6
 78
     2
 67
     7
 79
     3
170
     0
171
     0
290
     0
174
     0
 93
        1
 44
0.0
173
     0
291
     0
 45
0.0
  0
VISUALSTYLE
  5
3F
102
{ACAD_REACTORS
330
2A
102
}
102
{ACAD_XDICTIONARY
360
42B
102
}
330
2A
100
AcDbVisualStyle
  2
Sketchy
 70
    24
 71
     1
 72
     2
 73
     2
 90
        0
 40
0.6
 41
30.0
 62
     5
 63
     7
421
 16777215
 74
     2
 91
        2
 64
     7
 65
     7
 75
     1
175
     1
 42
40.0
 92
       11
 66
     7
 43
1.0
 76
     1
 77
     6
 78
     2
 67
     7
 79
     6
170
     0
171
     0
290
     0
174
     0
 93
        1
 44
0.0
173
     0
291
     0
 45
0.0
  0
VISUALSTYLE
  5
37
102
{ACAD_REACTORS
330
2A
102
}
102
{ACAD_XDICTIONARY
360
41B
102
}
330
2A
100
AcDbVisualStyle
  2
Thicken
 70
    13
 71
     2
 72
     2
 73
     0
 90
        0
 40
0.6
 41
30.0
 62
     5
 63
     7
421
 16777215
 74
     1
 91
        4
 64
     7
 65
   257
 75
     1
175
     1
 42
1.0
 92
       12
 66
     7
 43
1.0
 76
     1
 77
     6
 78
     2
 67
     7
 79
     5
170
     0
171
     0
290
     0
174
     0
 93
        1
 44
0.0
173
     0
291
     1
 45
0.0
  0
VISUALSTYLE
  5
30
102
{ACAD_REACTORS
330
2A
102
}
102
{ACAD_XDICTIONARY
360
40D
102
}
330
2A
100
AcDbVisualStyle
  2
Wireframe
 70
     5
 71
     0
 72
     2
 73
     0
 90
        0
 40
0.6
 41
30.0
 62
     5
 63
     7
421
 16777215
 74
     1
 91
        4
 64
     7
 65
   257
 75
     1
175
     1
 42
1.0
 92
        0
 66
   257
 43
1.0
 76
     1
 77
     6
 78
     2
 67
     7
 79
     3
170
     0
171
     0
290
     0
174
     0
 93
        1
 44
0.0
173
     0
291
     0
 45
0.0
  0
VISUALSTYLE
  5
40
102
{ACAD_REACTORS
330
2A
102
}
102
{ACAD_XDICTIONARY
360
42D
102
}
330
2A
100
AcDbVisualStyle
  2
X-Ray
 70
    25
 71
     2
 72
     2
 73
     1
 90
        1
 40
0.5
 41
30.0
 62
     5
 63
     7
421
 16777215
 74
     1
 91
        0
 64
     7
 65
   257
 75
     1
175
     1
 42
1.0
 92
        8
 66
     7
 43
1.0
 76
     1
 77
     6
 78
     2
 67
     7
 79
     3
170
     0
171
     0
290
     0
174
     0
 93
       13
 44
0.0
173
     0
291
     0
 45
0.0
  0
DICTIONARYVAR
  5
401
102
{ACAD_REACTORS
330
400
102
}
330
400
100
DictionaryVariables
280
     0
  1
1:1
  0
DICTIONARYVAR
  5
43A
102
{ACAD_REACTORS
330
400
102
}
330
400
100
DictionaryVariables
280
     0
  1
Standard
  0
DICTIONARYVAR
  5
439
102
{ACAD_REACTORS
330
400
102
}
330
400
100
DictionaryVariables
280
     0
  1
Standard
  0
DICTIONARYVAR
  5
402
102
{ACAD_REACTORS
330
400
102
}
330
400
100
DictionaryVariables
280
     0
  1
2
  0
DICTIONARY
  5
436
330
5C
100
AcDbDictionary
280
     1
281
     1
  3
ACAD_XREC_ROUNDTRIP
360
437
  0
DICTIONARY
  5
433
330
5A
100
AcDbDictionary
280
     1
281
     1
  3
ACAD_ROUNDTRIP_2008_TABLESTYLE_CELLSTYLEMAP
360
434
  0
DICTIONARY
  5
40B
330
2F
100
AcDbDictionary
280
     1
281
     1
  3
ACAD_XREC_ROUNDTRIP
360
40C
  0
DICTIONARY
  5
411
330
32
100
AcDbDictionary
280
     1
281
     1
  3
ACAD_XREC_ROUNDTRIP
360
412
  0
DICTIONARY
  5
419
330
36
100
AcDbDictionary
280
     1
281
     1
  3
ACAD_XREC_ROUNDTRIP
360
41A
  0
DICTIONARY
  5
421
330
3A
100
AcDbDictionary
280
     1
281
     1
  3
ACAD_XREC_ROUNDTRIP
360
422
  0
DICTIONARY
  5
415
330
34
100
AcDbDictionary
280
     1
281
     1
  3
ACAD_XREC_ROUNDTRIP
360
416
  0
DICTIONARY
  5
417
330
35
100
AcDbDictionary
280
     1
281
     1
  3
ACAD_XREC_ROUNDTRIP
360
418
  0
DICTIONARY
  5
427
330
3D
100
AcDbDictionary
280
     1
281
     1
  3
ACAD_XREC_ROUNDTRIP
360
428
  0
DICTIONARY
  5
41F
330
39
100
AcDbDictionary
280
     1
281
     1
  3
ACAD_XREC_ROUNDTRIP
360
420
  0
DICTIONARY
  5
403
330
2B
100
AcDbDictionary
280
     1
281
     1
  3
ACAD_XREC_ROUNDTRIP
360
404
  0
DICTIONARY
  5
405
330
2C
100
AcDbDictionary
280
     1
281
     1
  3
ACAD_XREC_ROUNDTRIP
360
406
  0
DICTIONARY
  5
407
330
2D
100
AcDbDictionary
280
     1
281
     1
  3
ACAD_XREC_ROUNDTRIP
360
408
  0
DICTIONARY
  5
409
330
2E
100
AcDbDictionary
280
     1
281
     1
  3
ACAD_XREC_ROUNDTRIP
360
40A
  0
DICTIONARY
  5
40F
330
31
100
AcDbDictionary
280
     1
281
     1
  3
ACAD_XREC_ROUNDTRIP
360
410
  0
DICTIONARY
  5
423
330
3B
100
AcDbDictionary
280
     1
281
     1
  3
ACAD_XREC_ROUNDTRIP
360
424
  0
DICTIONARY
  5
41D
330
38
100
AcDbDictionary
280
     1
281
     1
  3
ACAD_XREC_ROUNDTRIP
360
41E
  0
DICTIONARY
  5
425
330
3C
100
AcDbDictionary
280
     1
281
     1
  3
ACAD_XREC_ROUNDTRIP
360
426
  0
DICTIONARY
  5
413
330
33
100
AcDbDictionary
280
     1
281
     1
  3
ACAD_XREC_ROUNDTRIP
360
414
  0
DICTIONARY
  5
431
330
42
100
AcDbDictionary
280
     1
281
     1
  3
ACAD_XREC_ROUNDTRIP
360
432
  0
DICTIONARY
  5
42F
330
41
100
AcDbDictionary
280
     1
281
     1
  3
ACAD_XREC_ROUNDTRIP
360
430
  0
DICTIONARY
  5
429
330
3E
100
AcDbDictionary
280
     1
281
     1
  3
ACAD_XREC_ROUNDTRIP
360
42A
  0
DICTIONARY
  5
42B
330
3F
100
AcDbDictionary
280
     1
281
     1
  3
ACAD_XREC_ROUNDTRIP
360
42C
  0
DICTIONARY
  5
41B
330
37
100
AcDbDictionary
280
     1
281
     1
  3
ACAD_XREC_ROUNDTRIP
360
41C
  0
DICTIONARY
  5
40D
330
30
100
AcDbDictionary
280
     1
281
     1
  3
ACAD_XREC_ROUNDTRIP
360
40E
  0
DICTIONARY
  5
42D
330
40
100
AcDbDictionary
280
     1
281
     1
  3
ACAD_XREC_ROUNDTRIP
360
42E
  0
XRECORD
  5
437
102
{ACAD_REACTORS
330
436
102
}
330
436
100
AcDbXrecord
280
     1
102
ACAD_ROUNDTRIP_2010_MLEADER_STYLE
  0
CELLSTYLEMAP
  5
434
102
{ACAD_REACTORS
330
433
102
}
330
433
100
AcDbCellStyleMap
 90
        3
300
CELLSTYLE
  1
TABLEFORMAT_BEGIN
 90
        5
170
     1
 91
        0
 92
    32768
 62
   257
 93
        1
300
CONTENTFORMAT
  1
CONTENTFORMAT_BEGIN
 90
        0
 91
        0
 92
        4
 93
        0
300

 40
0.0
140
1.0
 94
        5
 62
     0
340
11
144
0.25
309
CONTENTFORMAT_END
171
     1
301
MARGIN
  1
CELLMARGIN_BEGIN
 40
0.06
 40
0.06
 40
0.06
 40
0.06
 40
0.06
 40
0.06
309
CELLMARGIN_END
 94
        6
 95
        1
302
GRIDFORMAT
  1
GRIDFORMAT_BEGIN
 90
        0
 91
        1
 62
     0
 92
       -2
340
14
 93
        0
 40
0.045
309
GRIDFORMAT_END
 95
        2
302
GRIDFORMAT
  1
GRIDFORMAT_BEGIN
 90
        0
 91
        1
 62
     0
 92
       -2
340
14
 93
        0
 40
0.045
309
GRIDFORMAT_END
 95
        4
302
GRIDFORMAT
  1
GRIDFORMAT_BEGIN
 90
        0
 91
        1
 62
     0
 92
       -2
340
14
 93
        0
 40
0.045
309
GRIDFORMAT_END
 95
        8
302
GRIDFORMAT
  1
GRIDFORMAT_BEGIN
 90
        0
 91
        1
 62
     0
 92
       -2
340
14
 93
        0
 40
0.045
309
GRIDFORMAT_END
 95
       16
302
GRIDFORMAT
  1
GRIDFORMAT_BEGIN
 90
        0
 91
        1
 62
     0
 92
       -2
340
14
 93
        0
 40
0.045
309
GRIDFORMAT_END
 95
       32
302
GRIDFORMAT
  1
GRIDFORMAT_BEGIN
 90
        0
 91
        1
 62
     0
 92
       -2
340
14
 93
        0
 40
0.045
309
GRIDFORMAT_END
309
TABLEFORMAT_END
  1
CELLSTYLE_BEGIN
 90
        1
 91
        1
300
_TITLE
309
CELLSTYLE_END
300
CELLSTYLE
  1
TABLEFORMAT_BEGIN
 90
        5
170
     1
 91
        0
 92
        0
 62
   257
 93
        1
300
CONTENTFORMAT
  1
CONTENTFORMAT_BEGIN
 90
        0
 91
        0
 92
        4
 93
        0
300

 40
0.0
140
1.0
 94
        5
 62
     0
340
11
144
0.18
309
CONTENTFORMAT_END
171
     1
301
MARGIN
  1
CELLMARGIN_BEGIN
 40
0.06
 40
0.06
 40
0.06
 40
0.06
 40
0.06
 40
0.06
309
CELLMARGIN_END
 94
        6
 95
        1
302
GRIDFORMAT
  1
GRIDFORMAT_BEGIN
 90
        0
 91
        1
 62
     0
 92
       -2
340
14
 93
        0
 40
0.045
309
GRIDFORMAT_END
 95
        2
302
GRIDFORMAT
  1
GRIDFORMAT_BEGIN
 90
        0
 91
        1
 62
     0
 92
       -2
340
14
 93
        0
 40
0.045
309
GRIDFORMAT_END
 95
        4
302
GRIDFORMAT
  1
GRIDFORMAT_BEGIN
 90
        0
 91
        1
 62
     0
 92
       -2
340
14
 93
        0
 40
0.045
309
GRIDFORMAT_END
 95
        8
302
GRIDFORMAT
  1
GRIDFORMAT_BEGIN
 90
        0
 91
        1
 62
     0
 92
       -2
340
14
 93
        0
 40
0.045
309
GRIDFORMAT_END
 95
       16
302
GRIDFORMAT
  1
GRIDFORMAT_BEGIN
 90
        0
 91
        1
 62
     0
 92
       -2
340
14
 93
        0
 40
0.045
309
GRIDFORMAT_END
 95
       32
302
GRIDFORMAT
  1
GRIDFORMAT_BEGIN
 90
        0
 91
        1
 62
     0
 92
       -2
340
14
 93
        0
 40
0.045
309
GRIDFORMAT_END
309
TABLEFORMAT_END
  1
CELLSTYLE_BEGIN
 90
        2
 91
        1
300
_HEADER
309
CELLSTYLE_END
300
CELLSTYLE
  1
TABLEFORMAT_BEGIN
 90
        5
170
     1
 91
        0
 92
        0
 62
   257
 93
        1
300
CONTENTFORMAT
  1
CONTENTFORMAT_BEGIN
 90
        0
 91
        0
 92
        4
 93
        0
300

 40
0.0
140
1.0
 94
        2
 62
     0
340
11
144
0.18
309
CONTENTFORMAT_END
171
     1
301
MARGIN
  1
CELLMARGIN_BEGIN
 40
0.06
 40
0.06
 40
0.06
 40
0.06
 40
0.06
 40
0.06
309
CELLMARGIN_END
 94
        6
 95
        1
302
GRIDFORMAT
  1
GRIDFORMAT_BEGIN
 90
        0
 91
        1
 62
     0
 92
       -2
340
14
 93
        0
 40
0.045
309
GRIDFORMAT_END
 95
        2
302
GRIDFORMAT
  1
GRIDFORMAT_BEGIN
 90
        0
 91
        1
 62
     0
 92
       -2
340
14
 93
        0
 40
0.045
309
GRIDFORMAT_END
 95
        4
302
GRIDFORMAT
  1
GRIDFORMAT_BEGIN
 90
        0
 91
        1
 62
     0
 92
       -2
340
14
 93
        0
 40
0.045
309
GRIDFORMAT_END
 95
        8
302
GRIDFORMAT
  1
GRIDFORMAT_BEGIN
 90
        0
 91
        1
 62
     0
 92
       -2
340
14
 93
        0
 40
0.045
309
GRIDFORMAT_END
 95
       16
302
GRIDFORMAT
  1
GRIDFORMAT_BEGIN
 90
        0
 91
        1
 62
     0
 92
       -2
340
14
 93
        0
 40
0.045
309
GRIDFORMAT_END
 95
       32
302
GRIDFORMAT
  1
GRIDFORMAT_BEGIN
 90
        0
 91
        1
 62
     0
 92
       -2
340
14
 93
        0
 40
0.045
309
GRIDFORMAT_END
309
TABLEFORMAT_END
  1
CELLSTYLE_BEGIN
 90
        3
 91
        2
300
_DATA
309
CELLSTYLE_END
  0
XRECORD
  5
40C
102
{ACAD_REACTORS
330
40B
102
}
330
40B
100
AcDbXrecord
280
     1
102
RTVSPropertyOp0
 70
     1
102
RTVSPropertyOp1
 70
     1
102
RTVSPropertyOp2
 70
     1
102
RTVSPropertyOp3
 70
     1
102
RTVSPropertyOp4
 70
     1
102
RTVSPropertyOp5
 70
     1
102
RTVSPropertyOp6
 70
     1
102
RTVSPropertyOp7
 70
     1
102
RTVSPropertyOp8
 70
     1
102
RTVSPropertyOp9
 70
     1
102
RTVSPropertyOp10
 70
     1
102
RTVSPropertyOp11
 70
     1
102
RTVSPropertyOp12
 70
     1
102
RTVSPropertyOp13
 70
     1
102
RTVSPropertyOp14
 70
     1
102
RTVSPropertyOp15
 70
     1
102
RTVSPropertyOp16
 70
     1
102
RTVSPropertyOp17
 70
     1
102
RTVSPropertyOp18
 70
     1
102
RTVSPropertyOp19
 70
     1
102
RTVSPropertyOp20
 70
     1
102
RTVSPropertyOp21
 70
     1
102
RTVSPropertyOp22
 70
     1
102
RTVSPropertyOp23
 70
     1
102
RTVSPropertyOp24
 70
     1
102
RTVSPropertyOp25
 70
     1
102
RTVSPropertyOp26
 70
     1
102
RTVSPropertyOp27
 70
     1
102
RTVSPropertyOp28
 70
     1
102
RTVSPropertyOp29
 70
     1
102
RTVSPropertyOp30
 70
     1
102
RTVSPropertyOp31
 70
     1
102
RTVSPropertyOp32
 70
     1
102
RTVSPropertyOp33
 70
     1
102
RTVSPropertyOp34
 70
     1
102
RTVSPropertyOp35
 70
     1
102
RTVSPropertyOp36
 70
     1
102
RTVSPropertyOp37
 70
     1
102
RTVSPropertyOp38
 70
     1
102
RTVSPropertyOp39
 70
     1
102
RTVSPropertyOp40
 70
     1
102
RTVSPropertyOp41
 70
     1
102
RTVSPropertyOp42
 70
     1
102
RTVSPropertyOp43
 70
     1
102
RTVSPropertyOp44
 70
     1
102
RTVSPropertyOp45
 70
     1
102
RTVSPropertyOp46
 70
     1
102
RTVSPropertyOp47
 70
     1
102
RTVSPropertyOp48
 70
     1
102
RTVSPropertyOp49
 70
     1
102
RTVSPropertyOp50
 70
     1
102
RTVSPropertyOp51
 70
     0
102
RTVSPropertyOp52
 70
     0
102
RTVSPropertyOp53
 70
     1
102
RTVSPropertyOp54
 70
     1
102
RTVSPropertyOp55
 70
     1
102
RTVSPropertyOp56
 70
     1
102
RTVSPropertyOp57
 70
     1
102
RTVSPost2010Prop28
280
     1
102
RTVSPost2010PropOp28
 70
     1
102
RTVSPost2010Prop29
280
     1
102
RTVSPost2010PropOp29
 70
     1
102
RTVSPost2010Prop30
280
     0
102
RTVSPost2010PropOp30
 70
     1
102
RTVSPost2010Prop31
280
     0
102
RTVSPost2010PropOp31
 70
     1
102
RTVSPost2010Prop32
280
     0
102
RTVSPost2010PropOp32
 70
     1
102
RTVSPost2010Prop33
280
     0
102
RTVSPost2010PropOp33
 70
     1
102
RTVSPost2010Prop34
280
     0
102
RTVSPost2010PropOp34
 70
     1
102
RTVSPost2010Prop35
280
     0
102
RTVSPost2010PropOp35
 70
     1
102
RTVSPost2010Prop36
280
     0
102
RTVSPost2010PropOp36
 70
     1
102
RTVSPost2010Prop37
 90
       50
102
RTVSPost2010PropOp37
 70
     1
102
RTVSPost2010Prop38
140
0.0
102
RTVSPost2010PropOp38
 70
     1
102
RTVSPost2010Prop39
140
1.0
102
RTVSPost2010PropOp39
 70
     1
102
RTVSPost2010Prop40
 90
        0
102
RTVSPost2010PropOp40
 70
     1
102
RTVSPost2010Prop41ColorIndex
 90
       18
102
RTVSPost2010Prop41ColorRGB
 90
        0
102
RTVSPost2010PropOp41
 70
     1
102
RTVSPost2010Prop42
 90
       50
102
RTVSPost2010PropOp42
 70
     1
102
RTVSPost2010Prop43
 90
        3
102
RTVSPost2010PropOp43
 70
     1
102
RTVSPost2010Prop44ColorIndex
 90
        5
102
RTVSPost2010Prop44ColorRGB
 90
      255
102
RTVSPost2010PropOp44
 70
     1
102
RTVSPost2010Prop45
280
     0
102
RTVSPost2010PropOp45
 70
     1
102
RTVSPost2010Prop46
 90
       50
102
RTVSPost2010PropOp46
 70
     1
102
RTVSPost2010Prop47
 90
       50
102
RTVSPost2010PropOp47
 70
     1
102
RTVSPost2010Prop48
 90
       50
102
RTVSPost2010PropOp48
 70
     1
102
RTVSPost2010Prop49
280
     0
102
RTVSPost2010PropOp49
 70
     1
102
RTVSPost2010Prop50
 90
       50
102
RTVSPost2010PropOp50
 70
     1
102
RTVSPost2010Prop51ColorIndex
 90
      256
102
RTVSPost2010Prop51ColorRGB
 90
-16777216
102
RTVSPost2010PropOp51
 70
     0
102
RTVSPost2010Prop52
140
1.0
102
RTVSPost2010PropOp52
 70
     0
102
RTVSPost2010Prop53
 90
        2
102
RTVSPost2010PropOp53
 70
     1
102
RTVSPost2010Prop54
  1
strokes_ogs.tif
102
RTVSPost2010PropOp54
 70
     1
102
RTVSPost2010Prop55
280
     0
102
RTVSPost2010PropOp55
 70
     1
102
RTVSPost2010Prop56
140
1.0
102
RTVSPost2010PropOp56
 70
     1
102
RTVSPost2010Prop57
140
1.0
102
RTVSPost2010PropOp57
 70
     1
  0
XRECORD
  5
412
102
{ACAD_REACTORS
330
411
102
}
330
411
100
AcDbXrecord
280
     1
102
RTVSPropertyOp0
 70
     1
102
RTVSPropertyOp1
 70
     1
102
RTVSPropertyOp2
 70
     1
102
RTVSPropertyOp3
 70
     1
102
RTVSPropertyOp4
 70
     1
102
RTVSPropertyOp5
 70
     1
102
RTVSPropertyOp6
 70
     1
102
RTVSPropertyOp7
 70
     1
102
RTVSPropertyOp8
 70
     1
102
RTVSPropertyOp9
 70
     1
102
RTVSPropertyOp10
 70
     1
102
RTVSPropertyOp11
 70
     1
102
RTVSPropertyOp12
 70
     1
102
RTVSPropertyOp13
 70
     1
102
RTVSPropertyOp14
 70
     1
102
RTVSPropertyOp15
 70
     1
102
RTVSPropertyOp16
 70
     1
102
RTVSPropertyOp17
 70
     1
102
RTVSPropertyOp18
 70
     1
102
RTVSPropertyOp19
 70
     1
102
RTVSPropertyOp20
 70
     1
102
RTVSPropertyOp21
 70
     1
102
RTVSPropertyOp22
 70
     1
102
RTVSPropertyOp23
 70
     1
102
RTVSPropertyOp24
 70
     1
102
RTVSPropertyOp25
 70
     1
102
RTVSPropertyOp26
 70
     1
102
RTVSPropertyOp27
 70
     1
102
RTVSPropertyOp28
 70
     1
102
RTVSPropertyOp29
 70
     1
102
RTVSPropertyOp30
 70
     1
102
RTVSPropertyOp31
 70
     1
102
RTVSPropertyOp32
 70
     1
102
RTVSPropertyOp33
 70
     1
102
RTVSPropertyOp34
 70
     1
102
RTVSPropertyOp35
 70
     1
102
RTVSPropertyOp36
 70
     1
102
RTVSPropertyOp37
 70
     1
102
RTVSPropertyOp38
 70
     1
102
RTVSPropertyOp39
 70
     1
102
RTVSPropertyOp40
 70
     1
102
RTVSPropertyOp41
 70
     1
102
RTVSPropertyOp42
 70
     1
102
RTVSPropertyOp43
 70
     1
102
RTVSPropertyOp44
 70
     1
102
RTVSPropertyOp45
 70
     1
102
RTVSPropertyOp46
 70
     1
102
RTVSPropertyOp47
 70
     1
102
RTVSPropertyOp48
 70
     1
102
RTVSPropertyOp49
 70
     1
102
RTVSPropertyOp50
 70
     1
102
RTVSPropertyOp51
 70
     0
102
RTVSPropertyOp52
 70
     0
102
RTVSPropertyOp53
 70
     1
102
RTVSPropertyOp54
 70
     1
102
RTVSPropertyOp55
 70
     1
102
RTVSPropertyOp56
 70
     1
102
RTVSPropertyOp57
 70
     1
102
RTVSPost2010Prop28
280
     0
102
RTVSPost2010PropOp28
 70
     1
102
RTVSPost2010Prop29
280
     1
102
RTVSPost2010PropOp29
 70
     1
102
RTVSPost2010Prop30
280
     1
102
RTVSPost2010PropOp30
 70
     1
102
RTVSPost2010Prop31
280
     0
102
RTVSPost2010PropOp31
 70
     1
102
RTVSPost2010Prop32
280
     0
102
RTVSPost2010PropOp32
 70
     1
102
RTVSPost2010Prop33
280
     0
102
RTVSPost2010PropOp33
 70
     1
102
RTVSPost2010Prop34
280
     0
102
RTVSPost2010PropOp34
 70
     1
102
RTVSPost2010Prop35
280
     0
102
RTVSPost2010PropOp35
 70
     1
102
RTVSPost2010Prop36
280
     0
102
RTVSPost2010PropOp36
 70
     1
102
RTVSPost2010Prop37
 90
       50
102
RTVSPost2010PropOp37
 70
     1
102
RTVSPost2010Prop38
140
0.0
102
RTVSPost2010PropOp38
 70
     1
102
RTVSPost2010Prop39
140
1.0
102
RTVSPost2010PropOp39
 70
     1
102
RTVSPost2010Prop40
 90
        0
102
RTVSPost2010PropOp40
 70
     1
102
RTVSPost2010Prop41ColorIndex
 90
       18
102
RTVSPost2010Prop41ColorRGB
 90
        0
102
RTVSPost2010PropOp41
 70
     1
102
RTVSPost2010Prop42
 90
       50
102
RTVSPost2010PropOp42
 70
     1
102
RTVSPost2010Prop43
 90
        3
102
RTVSPost2010PropOp43
 70
     1
102
RTVSPost2010Prop44ColorIndex
 90
        5
102
RTVSPost2010Prop44ColorRGB
 90
      255
102
RTVSPost2010PropOp44
 70
     1
102
RTVSPost2010Prop45
280
     0
102
RTVSPost2010PropOp45
 70
     1
102
RTVSPost2010Prop46
 90
       50
102
RTVSPost2010PropOp46
 70
     1
102
RTVSPost2010Prop47
 90
       50
102
RTVSPost2010PropOp47
 70
     1
102
RTVSPost2010Prop48
 90
       50
102
RTVSPost2010PropOp48
 70
     1
102
RTVSPost2010Prop49
280
     0
102
RTVSPost2010PropOp49
 70
     1
102
RTVSPost2010Prop50
 90
       50
102
RTVSPost2010PropOp50
 70
     1
102
RTVSPost2010Prop51ColorIndex
 90
      256
102
RTVSPost2010Prop51ColorRGB
 90
-16777216
102
RTVSPost2010PropOp51
 70
     0
102
RTVSPost2010Prop52
140
1.0
102
RTVSPost2010PropOp52
 70
     0
102
RTVSPost2010Prop53
 90
        2
102
RTVSPost2010PropOp53
 70
     1
102
RTVSPost2010Prop54
  1
strokes_ogs.tif
102
RTVSPost2010PropOp54
 70
     1
102
RTVSPost2010Prop55
280
     0
102
RTVSPost2010PropOp55
 70
     1
102
RTVSPost2010Prop56
140
1.0
102
RTVSPost2010PropOp56
 70
     1
102
RTVSPost2010Prop57
140
1.0
102
RTVSPost2010PropOp57
 70
     1
  0
XRECORD
  5
41A
102
{ACAD_REACTORS
330
419
102
}
330
419
100
AcDbXrecord
280
     1
102
RTVSPropertyOp0
 70
     1
102
RTVSPropertyOp1
 70
     1
102
RTVSPropertyOp2
 70
     1
102
RTVSPropertyOp3
 70
     1
102
RTVSPropertyOp4
 70
     1
102
RTVSPropertyOp5
 70
     1
102
RTVSPropertyOp6
 70
     1
102
RTVSPropertyOp7
 70
     1
102
RTVSPropertyOp8
 70
     1
102
RTVSPropertyOp9
 70
     1
102
RTVSPropertyOp10
 70
     1
102
RTVSPropertyOp11
 70
     1
102
RTVSPropertyOp12
 70
     1
102
RTVSPropertyOp13
 70
     1
102
RTVSPropertyOp14
 70
     1
102
RTVSPropertyOp15
 70
     1
102
RTVSPropertyOp16
 70
     1
102
RTVSPropertyOp17
 70
     1
102
RTVSPropertyOp18
 70
     1
102
RTVSPropertyOp19
 70
     1
102
RTVSPropertyOp20
 70
     1
102
RTVSPropertyOp21
 70
     1
102
RTVSPropertyOp22
 70
     1
102
RTVSPropertyOp23
 70
     1
102
RTVSPropertyOp24
 70
     1
102
RTVSPropertyOp25
 70
     1
102
RTVSPropertyOp26
 70
     1
102
RTVSPropertyOp27
 70
     1
102
RTVSPropertyOp28
 70
     1
102
RTVSPropertyOp29
 70
     1
102
RTVSPropertyOp30
 70
     1
102
RTVSPropertyOp31
 70
     1
102
RTVSPropertyOp32
 70
     1
102
RTVSPropertyOp33
 70
     1
102
RTVSPropertyOp34
 70
     1
102
RTVSPropertyOp35
 70
     1
102
RTVSPropertyOp36
 70
     1
102
RTVSPropertyOp37
 70
     1
102
RTVSPropertyOp38
 70
     1
102
RTVSPropertyOp39
 70
     1
102
RTVSPropertyOp40
 70
     1
102
RTVSPropertyOp41
 70
     1
102
RTVSPropertyOp42
 70
     1
102
RTVSPropertyOp43
 70
     1
102
RTVSPropertyOp44
 70
     1
102
RTVSPropertyOp45
 70
     1
102
RTVSPropertyOp46
 70
     1
102
RTVSPropertyOp47
 70
     1
102
RTVSPropertyOp48
 70
     1
102
RTVSPropertyOp49
 70
     1
102
RTVSPropertyOp50
 70
     1
102
RTVSPropertyOp51
 70
     0
102
RTVSPropertyOp52
 70
     0
102
RTVSPropertyOp53
 70
     1
102
RTVSPropertyOp54
 70
     1
102
RTVSPropertyOp55
 70
     1
102
RTVSPropertyOp56
 70
     1
102
RTVSPropertyOp57
 70
     1
102
RTVSPost2010Prop28
280
     0
102
RTVSPost2010PropOp28
 70
     1
102
RTVSPost2010Prop29
280
     1
102
RTVSPost2010PropOp29
 70
     1
102
RTVSPost2010Prop30
280
     1
102
RTVSPost2010PropOp30
 70
     1
102
RTVSPost2010Prop31
280
     0
102
RTVSPost2010PropOp31
 70
     1
102
RTVSPost2010Prop32
280
     0
102
RTVSPost2010PropOp32
 70
     1
102
RTVSPost2010Prop33
280
     0
102
RTVSPost2010PropOp33
 70
     1
102
RTVSPost2010Prop34
280
     0
102
RTVSPost2010PropOp34
 70
     1
102
RTVSPost2010Prop35
280
     0
102
RTVSPost2010PropOp35
 70
     1
102
RTVSPost2010Prop36
280
     0
102
RTVSPost2010PropOp36
 70
     1
102
RTVSPost2010Prop37
 90
       50
102
RTVSPost2010PropOp37
 70
     1
102
RTVSPost2010Prop38
140
0.0
102
RTVSPost2010PropOp38
 70
     1
102
RTVSPost2010Prop39
140
1.0
102
RTVSPost2010PropOp39
 70
     1
102
RTVSPost2010Prop40
 90
        0
102
RTVSPost2010PropOp40
 70
     1
102
RTVSPost2010Prop41ColorIndex
 90
       18
102
RTVSPost2010Prop41ColorRGB
 90
        0
102
RTVSPost2010PropOp41
 70
     1
102
RTVSPost2010Prop42
 90
       50
102
RTVSPost2010PropOp42
 70
     1
102
RTVSPost2010Prop43
 90
        3
102
RTVSPost2010PropOp43
 70
     1
102
RTVSPost2010Prop44ColorIndex
 90
        5
102
RTVSPost2010Prop44ColorRGB
 90
      255
102
RTVSPost2010PropOp44
 70
     1
102
RTVSPost2010Prop45
280
     0
102
RTVSPost2010PropOp45
 70
     1
102
RTVSPost2010Prop46
 90
       50
102
RTVSPost2010PropOp46
 70
     1
102
RTVSPost2010Prop47
 90
       50
102
RTVSPost2010PropOp47
 70
     1
102
RTVSPost2010Prop48
 90
       50
102
RTVSPost2010PropOp48
 70
     1
102
RTVSPost2010Prop49
280
     0
102
RTVSPost2010PropOp49
 70
     1
102
RTVSPost2010Prop50
 90
       50
102
RTVSPost2010PropOp50
 70
     1
102
RTVSPost2010Prop51ColorIndex
 90
      256
102
RTVSPost2010Prop51ColorRGB
 90
-16777216
102
RTVSPost2010PropOp51
 70
     0
102
RTVSPost2010Prop52
140
1.0
102
RTVSPost2010PropOp52
 70
     0
102
RTVSPost2010Prop53
 90
        2
102
RTVSPost2010PropOp53
 70
     1
102
RTVSPost2010Prop54
  1
strokes_ogs.tif
102
RTVSPost2010PropOp54
 70
     1
102
RTVSPost2010Prop55
280
     0
102
RTVSPost2010PropOp55
 70
     1
102
RTVSPost2010Prop56
140
1.0
102
RTVSPost2010PropOp56
 70
     1
102
RTVSPost2010Prop57
140
1.0
102
RTVSPost2010PropOp57
 70
     1
  0
XRECORD
  5
422
102
{ACAD_REACTORS
330
421
102
}
330
421
100
AcDbXrecord
280
     1
102
RTVSPropertyOp0
 70
     1
102
RTVSPropertyOp1
 70
     1
102
RTVSPropertyOp2
 70
     1
102
RTVSPropertyOp3
 70
     1
102
RTVSPropertyOp4
 70
     1
102
RTVSPropertyOp5
 70
     1
102
RTVSPropertyOp6
 70
     1
102
RTVSPropertyOp7
 70
     1
102
RTVSPropertyOp8
 70
     1
102
RTVSPropertyOp9
 70
     1
102
RTVSPropertyOp10
 70
     1
102
RTVSPropertyOp11
 70
     1
102
RTVSPropertyOp12
 70
     1
102
RTVSPropertyOp13
 70
     1
102
RTVSPropertyOp14
 70
     1
102
RTVSPropertyOp15
 70
     1
102
RTVSPropertyOp16
 70
     1
102
RTVSPropertyOp17
 70
     1
102
RTVSPropertyOp18
 70
     1
102
RTVSPropertyOp19
 70
     1
102
RTVSPropertyOp20
 70
     1
102
RTVSPropertyOp21
 70
     1
102
RTVSPropertyOp22
 70
     1
102
RTVSPropertyOp23
 70
     1
102
RTVSPropertyOp24
 70
     1
102
RTVSPropertyOp25
 70
     1
102
RTVSPropertyOp26
 70
     1
102
RTVSPropertyOp27
 70
     1
102
RTVSPropertyOp28
 70
     1
102
RTVSPropertyOp29
 70
     1
102
RTVSPropertyOp30
 70
     1
102
RTVSPropertyOp31
 70
     1
102
RTVSPropertyOp32
 70
     1
102
RTVSPropertyOp33
 70
     1
102
RTVSPropertyOp34
 70
     1
102
RTVSPropertyOp35
 70
     1
102
RTVSPropertyOp36
 70
     1
102
RTVSPropertyOp37
 70
     1
102
RTVSPropertyOp38
 70
     1
102
RTVSPropertyOp39
 70
     1
102
RTVSPropertyOp40
 70
     1
102
RTVSPropertyOp41
 70
     1
102
RTVSPropertyOp42
 70
     1
102
RTVSPropertyOp43
 70
     1
102
RTVSPropertyOp44
 70
     1
102
RTVSPropertyOp45
 70
     1
102
RTVSPropertyOp46
 70
     1
102
RTVSPropertyOp47
 70
     1
102
RTVSPropertyOp48
 70
     1
102
RTVSPropertyOp49
 70
     1
102
RTVSPropertyOp50
 70
     1
102
RTVSPropertyOp51
 70
     0
102
RTVSPropertyOp52
 70
     0
102
RTVSPropertyOp53
 70
     1
102
RTVSPropertyOp54
 70
     1
102
RTVSPropertyOp55
 70
     1
102
RTVSPropertyOp56
 70
     1
102
RTVSPropertyOp57
 70
     1
102
RTVSPost2010Prop28
280
     0
102
RTVSPost2010PropOp28
 70
     1
102
RTVSPost2010Prop29
280
     1
102
RTVSPost2010PropOp29
 70
     1
102
RTVSPost2010Prop30
280
     1
102
RTVSPost2010PropOp30
 70
     1
102
RTVSPost2010Prop31
280
     0
102
RTVSPost2010PropOp31
 70
     1
102
RTVSPost2010Prop32
280
     0
102
RTVSPost2010PropOp32
 70
     1
102
RTVSPost2010Prop33
280
     0
102
RTVSPost2010PropOp33
 70
     1
102
RTVSPost2010Prop34
280
     0
102
RTVSPost2010PropOp34
 70
     1
102
RTVSPost2010Prop35
280
     0
102
RTVSPost2010PropOp35
 70
     1
102
RTVSPost2010Prop36
280
     0
102
RTVSPost2010PropOp36
 70
     1
102
RTVSPost2010Prop37
 90
       50
102
RTVSPost2010PropOp37
 70
     1
102
RTVSPost2010Prop38
140
0.0
102
RTVSPost2010PropOp38
 70
     1
102
RTVSPost2010Prop39
140
1.0
102
RTVSPost2010PropOp39
 70
     1
102
RTVSPost2010Prop40
 90
        0
102
RTVSPost2010PropOp40
 70
     1
102
RTVSPost2010Prop41ColorIndex
 90
       18
102
RTVSPost2010Prop41ColorRGB
 90
        0
102
RTVSPost2010PropOp41
 70
     1
102
RTVSPost2010Prop42
 90
       50
102
RTVSPost2010PropOp42
 70
     1
102
RTVSPost2010Prop43
 90
        3
102
RTVSPost2010PropOp43
 70
     1
102
RTVSPost2010Prop44ColorIndex
 90
        5
102
RTVSPost2010Prop44ColorRGB
 90
      255
102
RTVSPost2010PropOp44
 70
     1
102
RTVSPost2010Prop45
280
     0
102
RTVSPost2010PropOp45
 70
     1
102
RTVSPost2010Prop46
 90
       50
102
RTVSPost2010PropOp46
 70
     1
102
RTVSPost2010Prop47
 90
       50
102
RTVSPost2010PropOp47
 70
     1
102
RTVSPost2010Prop48
 90
       50
102
RTVSPost2010PropOp48
 70
     1
102
RTVSPost2010Prop49
280
     0
102
RTVSPost2010PropOp49
 70
     1
102
RTVSPost2010Prop50
 90
       50
102
RTVSPost2010PropOp50
 70
     1
102
RTVSPost2010Prop51ColorIndex
 90
      256
102
RTVSPost2010Prop51ColorRGB
 90
-16777216
102
RTVSPost2010PropOp51
 70
     0
102
RTVSPost2010Prop52
140
1.0
102
RTVSPost2010PropOp52
 70
     0
102
RTVSPost2010Prop53
 90
        2
102
RTVSPost2010PropOp53
 70
     1
102
RTVSPost2010Prop54
  1
strokes_ogs.tif
102
RTVSPost2010PropOp54
 70
     1
102
RTVSPost2010Prop55
280
     0
102
RTVSPost2010PropOp55
 70
     1
102
RTVSPost2010Prop56
140
1.0
102
RTVSPost2010PropOp56
 70
     1
102
RTVSPost2010Prop57
140
1.0
102
RTVSPost2010PropOp57
 70
     1
  0
XRECORD
  5
416
102
{ACAD_REACTORS
330
415
102
}
330
415
100
AcDbXrecord
280
     1
102
RTVSPropertyOp0
 70
     1
102
RTVSPropertyOp1
 70
     1
102
RTVSPropertyOp2
 70
     1
102
RTVSPropertyOp3
 70
     1
102
RTVSPropertyOp4
 70
     1
102
RTVSPropertyOp5
 70
     1
102
RTVSPropertyOp6
 70
     1
102
RTVSPropertyOp7
 70
     1
102
RTVSPropertyOp8
 70
     1
102
RTVSPropertyOp9
 70
     1
102
RTVSPropertyOp10
 70
     1
102
RTVSPropertyOp11
 70
     1
102
RTVSPropertyOp12
 70
     1
102
RTVSPropertyOp13
 70
     1
102
RTVSPropertyOp14
 70
     1
102
RTVSPropertyOp15
 70
     1
102
RTVSPropertyOp16
 70
     1
102
RTVSPropertyOp17
 70
     1
102
RTVSPropertyOp18
 70
     1
102
RTVSPropertyOp19
 70
     1
102
RTVSPropertyOp20
 70
     1
102
RTVSPropertyOp21
 70
     1
102
RTVSPropertyOp22
 70
     1
102
RTVSPropertyOp23
 70
     1
102
RTVSPropertyOp24
 70
     1
102
RTVSPropertyOp25
 70
     1
102
RTVSPropertyOp26
 70
     1
102
RTVSPropertyOp27
 70
     1
102
RTVSPropertyOp28
 70
     1
102
RTVSPropertyOp29
 70
     1
102
RTVSPropertyOp30
 70
     1
102
RTVSPropertyOp31
 70
     1
102
RTVSPropertyOp32
 70
     1
102
RTVSPropertyOp33
 70
     1
102
RTVSPropertyOp34
 70
     1
102
RTVSPropertyOp35
 70
     1
102
RTVSPropertyOp36
 70
     1
102
RTVSPropertyOp37
 70
     1
102
RTVSPropertyOp38
 70
     1
102
RTVSPropertyOp39
 70
     1
102
RTVSPropertyOp40
 70
     1
102
RTVSPropertyOp41
 70
     1
102
RTVSPropertyOp42
 70
     1
102
RTVSPropertyOp43
 70
     1
102
RTVSPropertyOp44
 70
     1
102
RTVSPropertyOp45
 70
     1
102
RTVSPropertyOp46
 70
     1
102
RTVSPropertyOp47
 70
     1
102
RTVSPropertyOp48
 70
     1
102
RTVSPropertyOp49
 70
     1
102
RTVSPropertyOp50
 70
     1
102
RTVSPropertyOp51
 70
     0
102
RTVSPropertyOp52
 70
     0
102
RTVSPropertyOp53
 70
     1
102
RTVSPropertyOp54
 70
     1
102
RTVSPropertyOp55
 70
     1
102
RTVSPropertyOp56
 70
     1
102
RTVSPropertyOp57
 70
     1
102
RTVSPost2010Prop28
280
     0
102
RTVSPost2010PropOp28
 70
     1
102
RTVSPost2010Prop29
280
     1
102
RTVSPost2010PropOp29
 70
     1
102
RTVSPost2010Prop30
280
     1
102
RTVSPost2010PropOp30
 70
     1
102
RTVSPost2010Prop31
280
     0
102
RTVSPost2010PropOp31
 70
     1
102
RTVSPost2010Prop32
280
     0
102
RTVSPost2010PropOp32
 70
     1
102
RTVSPost2010Prop33
280
     0
102
RTVSPost2010PropOp33
 70
     1
102
RTVSPost2010Prop34
280
     0
102
RTVSPost2010PropOp34
 70
     1
102
RTVSPost2010Prop35
280
     0
102
RTVSPost2010PropOp35
 70
     1
102
RTVSPost2010Prop36
280
     0
102
RTVSPost2010PropOp36
 70
     1
102
RTVSPost2010Prop37
 90
       50
102
RTVSPost2010PropOp37
 70
     1
102
RTVSPost2010Prop38
140
0.0
102
RTVSPost2010PropOp38
 70
     1
102
RTVSPost2010Prop39
140
1.0
102
RTVSPost2010PropOp39
 70
     1
102
RTVSPost2010Prop40
 90
        0
102
RTVSPost2010PropOp40
 70
     1
102
RTVSPost2010Prop41ColorIndex
 90
       18
102
RTVSPost2010Prop41ColorRGB
 90
        0
102
RTVSPost2010PropOp41
 70
     1
102
RTVSPost2010Prop42
 90
       50
102
RTVSPost2010PropOp42
 70
     1
102
RTVSPost2010Prop43
 90
        3
102
RTVSPost2010PropOp43
 70
     1
102
RTVSPost2010Prop44ColorIndex
 90
        5
102
RTVSPost2010Prop44ColorRGB
 90
      255
102
RTVSPost2010PropOp44
 70
     1
102
RTVSPost2010Prop45
280
     0
102
RTVSPost2010PropOp45
 70
     1
102
RTVSPost2010Prop46
 90
       50
102
RTVSPost2010PropOp46
 70
     1
102
RTVSPost2010Prop47
 90
       50
102
RTVSPost2010PropOp47
 70
     1
102
RTVSPost2010Prop48
 90
       50
102
RTVSPost2010PropOp48
 70
     1
102
RTVSPost2010Prop49
280
     0
102
RTVSPost2010PropOp49
 70
     1
102
RTVSPost2010Prop50
 90
       50
102
RTVSPost2010PropOp50
 70
     1
102
RTVSPost2010Prop51ColorIndex
 90
      256
102
RTVSPost2010Prop51ColorRGB
 90
-16777216
102
RTVSPost2010PropOp51
 70
     0
102
RTVSPost2010Prop52
140
1.0
102
RTVSPost2010PropOp52
 70
     0
102
RTVSPost2010Prop53
 90
        2
102
RTVSPost2010PropOp53
 70
     1
102
RTVSPost2010Prop54
  1
strokes_ogs.tif
102
RTVSPost2010PropOp54
 70
     1
102
RTVSPost2010Prop55
280
     0
102
RTVSPost2010PropOp55
 70
     1
102
RTVSPost2010Prop56
140
1.0
102
RTVSPost2010PropOp56
 70
     1
102
RTVSPost2010Prop57
140
1.0
102
RTVSPost2010PropOp57
 70
     1
  0
XRECORD
  5
418
102
{ACAD_REACTORS
330
417
102
}
330
417
100
AcDbXrecord
280
     1
102
RTVSPropertyOp0
 70
     1
102
RTVSPropertyOp1
 70
     1
102
RTVSPropertyOp2
 70
     1
102
RTVSPropertyOp3
 70
     1
102
RTVSPropertyOp4
 70
     1
102
RTVSPropertyOp5
 70
     1
102
RTVSPropertyOp6
 70
     1
102
RTVSPropertyOp7
 70
     1
102
RTVSPropertyOp8
 70
     1
102
RTVSPropertyOp9
 70
     1
102
RTVSPropertyOp10
 70
     1
102
RTVSPropertyOp11
 70
     1
102
RTVSPropertyOp12
 70
     1
102
RTVSPropertyOp13
 70
     1
102
RTVSPropertyOp14
 70
     1
102
RTVSPropertyOp15
 70
     1
102
RTVSPropertyOp16
 70
     1
102
RTVSPropertyOp17
 70
     1
102
RTVSPropertyOp18
 70
     1
102
RTVSPropertyOp19
 70
     1
102
RTVSPropertyOp20
 70
     1
102
RTVSPropertyOp21
 70
     1
102
RTVSPropertyOp22
 70
     1
102
RTVSPropertyOp23
 70
     1
102
RTVSPropertyOp24
 70
     1
102
RTVSPropertyOp25
 70
     1
102
RTVSPropertyOp26
 70
     1
102
RTVSPropertyOp27
 70
     1
102
RTVSPropertyOp28
 70
     1
102
RTVSPropertyOp29
 70
     1
102
RTVSPropertyOp30
 70
     1
102
RTVSPropertyOp31
 70
     1
102
RTVSPropertyOp32
 70
     1
102
RTVSPropertyOp33
 70
     1
102
RTVSPropertyOp34
 70
     1
102
RTVSPropertyOp35
 70
     1
102
RTVSPropertyOp36
 70
     1
102
RTVSPropertyOp37
 70
     1
102
RTVSPropertyOp38
 70
     1
102
RTVSPropertyOp39
 70
     1
102
RTVSPropertyOp40
 70
     1
102
RTVSPropertyOp41
 70
     1
102
RTVSPropertyOp42
 70
     1
102
RTVSPropertyOp43
 70
     1
102
RTVSPropertyOp44
 70
     1
102
RTVSPropertyOp45
 70
     1
102
RTVSPropertyOp46
 70
     1
102
RTVSPropertyOp47
 70
     1
102
RTVSPropertyOp48
 70
     1
102
RTVSPropertyOp49
 70
     1
102
RTVSPropertyOp50
 70
     1
102
RTVSPropertyOp51
 70
     0
102
RTVSPropertyOp52
 70
     0
102
RTVSPropertyOp53
 70
     1
102
RTVSPropertyOp54
 70
     1
102
RTVSPropertyOp55
 70
     1
102
RTVSPropertyOp56
 70
     1
102
RTVSPropertyOp57
 70
     1
102
RTVSPost2010Prop28
280
     0
102
RTVSPost2010PropOp28
 70
     1
102
RTVSPost2010Prop29
280
     1
102
RTVSPost2010PropOp29
 70
     1
102
RTVSPost2010Prop30
280
     1
102
RTVSPost2010PropOp30
 70
     1
102
RTVSPost2010Prop31
280
     0
102
RTVSPost2010PropOp31
 70
     1
102
RTVSPost2010Prop32
280
     0
102
RTVSPost2010PropOp32
 70
     1
102
RTVSPost2010Prop33
280
     0
102
RTVSPost2010PropOp33
 70
     1
102
RTVSPost2010Prop34
280
     0
102
RTVSPost2010PropOp34
 70
     1
102
RTVSPost2010Prop35
280
     0
102
RTVSPost2010PropOp35
 70
     1
102
RTVSPost2010Prop36
280
     0
102
RTVSPost2010PropOp36
 70
     1
102
RTVSPost2010Prop37
 90
       50
102
RTVSPost2010PropOp37
 70
     1
102
RTVSPost2010Prop38
140
0.0
102
RTVSPost2010PropOp38
 70
     1
102
RTVSPost2010Prop39
140
1.0
102
RTVSPost2010PropOp39
 70
     1
102
RTVSPost2010Prop40
 90
        0
102
RTVSPost2010PropOp40
 70
     1
102
RTVSPost2010Prop41ColorIndex
 90
       18
102
RTVSPost2010Prop41ColorRGB
 90
        0
102
RTVSPost2010PropOp41
 70
     1
102
RTVSPost2010Prop42
 90
       50
102
RTVSPost2010PropOp42
 70
     1
102
RTVSPost2010Prop43
 90
        3
102
RTVSPost2010PropOp43
 70
     1
102
RTVSPost2010Prop44ColorIndex
 90
        5
102
RTVSPost2010Prop44ColorRGB
 90
      255
102
RTVSPost2010PropOp44
 70
     1
102
RTVSPost2010Prop45
280
     0
102
RTVSPost2010PropOp45
 70
     1
102
RTVSPost2010Prop46
 90
       50
102
RTVSPost2010PropOp46
 70
     1
102
RTVSPost2010Prop47
 90
       50
102
RTVSPost2010PropOp47
 70
     1
102
RTVSPost2010Prop48
 90
       50
102
RTVSPost2010PropOp48
 70
     1
102
RTVSPost2010Prop49
280
     0
102
RTVSPost2010PropOp49
 70
     1
102
RTVSPost2010Prop50
 90
       50
102
RTVSPost2010PropOp50
 70
     1
102
RTVSPost2010Prop51ColorIndex
 90
      256
102
RTVSPost2010Prop51ColorRGB
 90
-16777216
102
RTVSPost2010PropOp51
 70
     0
102
RTVSPost2010Prop52
140
1.0
102
RTVSPost2010PropOp52
 70
     0
102
RTVSPost2010Prop53
 90
        2
102
RTVSPost2010PropOp53
 70
     1
102
RTVSPost2010Prop54
  1
strokes_ogs.tif
102
RTVSPost2010PropOp54
 70
     1
102
RTVSPost2010Prop55
280
     0
102
RTVSPost2010PropOp55
 70
     1
102
RTVSPost2010Prop56
140
1.0
102
RTVSPost2010PropOp56
 70
     1
102
RTVSPost2010Prop57
140
1.0
102
RTVSPost2010PropOp57
 70
     1
  0
XRECORD
  5
428
102
{ACAD_REACTORS
330
427
102
}
330
427
100
AcDbXrecord
280
     1
102
RTVSPropertyOp0
 70
     0
102
RTVSPropertyOp1
 70
     0
102
RTVSPropertyOp2
 70
     0
102
RTVSPropertyOp3
 70
     0
102
RTVSPropertyOp4
 70
     0
102
RTVSPropertyOp5
 70
     0
102
RTVSPropertyOp6
 70
     0
102
RTVSPropertyOp7
 70
     0
102
RTVSPropertyOp8
 70
     0
102
RTVSPropertyOp9
 70
     0
102
RTVSPropertyOp10
 70
     0
102
RTVSPropertyOp11
 70
     0
102
RTVSPropertyOp12
 70
     0
102
RTVSPropertyOp13
 70
     0
102
RTVSPropertyOp14
 70
     2
102
RTVSPropertyOp15
 70
     0
102
RTVSPropertyOp16
 70
     0
102
RTVSPropertyOp17
 70
     0
102
RTVSPropertyOp18
 70
     0
102
RTVSPropertyOp19
 70
     0
102
RTVSPropertyOp20
 70
     0
102
RTVSPropertyOp21
 70
     0
102
RTVSPropertyOp22
 70
     0
102
RTVSPropertyOp23
 70
     0
102
RTVSPropertyOp24
 70
     0
102
RTVSPropertyOp25
 70
     0
102
RTVSPropertyOp26
 70
     0
102
RTVSPropertyOp27
 70
     0
102
RTVSPropertyOp28
 70
     0
102
RTVSPropertyOp29
 70
     0
102
RTVSPropertyOp30
 70
     0
102
RTVSPropertyOp31
 70
     0
102
RTVSPropertyOp32
 70
     0
102
RTVSPropertyOp33
 70
     0
102
RTVSPropertyOp34
 70
     0
102
RTVSPropertyOp35
 70
     0
102
RTVSPropertyOp36
 70
     0
102
RTVSPropertyOp37
 70
     0
102
RTVSPropertyOp38
 70
     0
102
RTVSPropertyOp39
 70
     0
102
RTVSPropertyOp40
 70
     0
102
RTVSPropertyOp41
 70
     0
102
RTVSPropertyOp42
 70
     0
102
RTVSPropertyOp43
 70
     0
102
RTVSPropertyOp44
 70
     0
102
RTVSPropertyOp45
 70
     0
102
RTVSPropertyOp46
 70
     0
102
RTVSPropertyOp47
 70
     0
102
RTVSPropertyOp48
 70
     0
102
RTVSPropertyOp49
 70
     0
102
RTVSPropertyOp50
 70
     0
102
RTVSPropertyOp51
 70
     0
102
RTVSPropertyOp52
 70
     0
102
RTVSPropertyOp53
 70
     0
102
RTVSPropertyOp54
 70
     0
102
RTVSPropertyOp55
 70
     0
102
RTVSPropertyOp56
 70
     0
102
RTVSPropertyOp57
 70
     0
102
RTVSPost2010Prop28
280
     0
102
RTVSPost2010PropOp28
 70
     0
102
RTVSPost2010Prop29
280
     1
102
RTVSPost2010PropOp29
 70
     0
102
RTVSPost2010Prop30
280
     1
102
RTVSPost2010PropOp30
 70
     0
102
RTVSPost2010Prop31
280
     0
102
RTVSPost2010PropOp31
 70
     0
102
RTVSPost2010Prop32
280
     0
102
RTVSPost2010PropOp32
 70
     0
102
RTVSPost2010Prop33
280
     0
102
RTVSPost2010PropOp33
 70
     0
102
RTVSPost2010Prop34
280
     0
102
RTVSPost2010PropOp34
 70
     0
102
RTVSPost2010Prop35
280
     0
102
RTVSPost2010PropOp35
 70
     0
102
RTVSPost2010Prop36
280
     0
102
RTVSPost2010PropOp36
 70
     0
102
RTVSPost2010Prop37
 90
       50
102
RTVSPost2010PropOp37
 70
     0
102
RTVSPost2010Prop38
140
0.0
102
RTVSPost2010PropOp38
 70
     0
102
RTVSPost2010Prop39
140
1.0
102
RTVSPost2010PropOp39
 70
     0
102
RTVSPost2010Prop40
 90
        0
102
RTVSPost2010PropOp40
 70
     0
102
RTVSPost2010Prop41ColorIndex
 90
       18
102
RTVSPost2010Prop41ColorRGB
 90
        0
102
RTVSPost2010PropOp41
 70
     0
102
RTVSPost2010Prop42
 90
       50
102
RTVSPost2010PropOp42
 70
     0
102
RTVSPost2010Prop43
 90
        3
102
RTVSPost2010PropOp43
 70
     0
102
RTVSPost2010Prop44ColorIndex
 90
        5
102
RTVSPost2010Prop44ColorRGB
 90
      255
102
RTVSPost2010PropOp44
 70
     0
102
RTVSPost2010Prop45
280
     0
102
RTVSPost2010PropOp45
 70
     0
102
RTVSPost2010Prop46
 90
       50
102
RTVSPost2010PropOp46
 70
     0
102
RTVSPost2010Prop47
 90
       50
102
RTVSPost2010PropOp47
 70
     0
102
RTVSPost2010Prop48
 90
       50
102
RTVSPost2010PropOp48
 70
     0
102
RTVSPost2010Prop49
280
     0
102
RTVSPost2010PropOp49
 70
     0
102
RTVSPost2010Prop50
 90
       50
102
RTVSPost2010PropOp50
 70
     0
102
RTVSPost2010Prop51ColorIndex
 90
      256
102
RTVSPost2010Prop51ColorRGB
 90
-16777216
102
RTVSPost2010PropOp51
 70
     0
102
RTVSPost2010Prop52
140
1.0
102
RTVSPost2010PropOp52
 70
     0
102
RTVSPost2010Prop53
 90
        2
102
RTVSPost2010PropOp53
 70
     0
102
RTVSPost2010Prop54
  1
strokes_ogs.tif
102
RTVSPost2010PropOp54
 70
     0
102
RTVSPost2010Prop55
280
     0
102
RTVSPost2010PropOp55
 70
     0
102
RTVSPost2010Prop56
140
1.0
102
RTVSPost2010PropOp56
 70
     0
102
RTVSPost2010Prop57
140
1.0
102
RTVSPost2010PropOp57
 70
     0
  0
XRECORD
  5
420
102
{ACAD_REACTORS
330
41F
102
}
330
41F
100
AcDbXrecord
280
     1
102
RTVSPropertyOp0
 70
     1
102
RTVSPropertyOp1
 70
     1
102
RTVSPropertyOp2
 70
     1
102
RTVSPropertyOp3
 70
     1
102
RTVSPropertyOp4
 70
     1
102
RTVSPropertyOp5
 70
     1
102
RTVSPropertyOp6
 70
     1
102
RTVSPropertyOp7
 70
     1
102
RTVSPropertyOp8
 70
     1
102
RTVSPropertyOp9
 70
     1
102
RTVSPropertyOp10
 70
     1
102
RTVSPropertyOp11
 70
     1
102
RTVSPropertyOp12
 70
     1
102
RTVSPropertyOp13
 70
     1
102
RTVSPropertyOp14
 70
     1
102
RTVSPropertyOp15
 70
     1
102
RTVSPropertyOp16
 70
     1
102
RTVSPropertyOp17
 70
     1
102
RTVSPropertyOp18
 70
     1
102
RTVSPropertyOp19
 70
     1
102
RTVSPropertyOp20
 70
     1
102
RTVSPropertyOp21
 70
     1
102
RTVSPropertyOp22
 70
     1
102
RTVSPropertyOp23
 70
     1
102
RTVSPropertyOp24
 70
     1
102
RTVSPropertyOp25
 70
     1
102
RTVSPropertyOp26
 70
     1
102
RTVSPropertyOp27
 70
     1
102
RTVSPropertyOp28
 70
     1
102
RTVSPropertyOp29
 70
     1
102
RTVSPropertyOp30
 70
     1
102
RTVSPropertyOp31
 70
     1
102
RTVSPropertyOp32
 70
     1
102
RTVSPropertyOp33
 70
     1
102
RTVSPropertyOp34
 70
     1
102
RTVSPropertyOp35
 70
     1
102
RTVSPropertyOp36
 70
     1
102
RTVSPropertyOp37
 70
     1
102
RTVSPropertyOp38
 70
     1
102
RTVSPropertyOp39
 70
     1
102
RTVSPropertyOp40
 70
     1
102
RTVSPropertyOp41
 70
     1
102
RTVSPropertyOp42
 70
     1
102
RTVSPropertyOp43
 70
     1
102
RTVSPropertyOp44
 70
     1
102
RTVSPropertyOp45
 70
     1
102
RTVSPropertyOp46
 70
     1
102
RTVSPropertyOp47
 70
     1
102
RTVSPropertyOp48
 70
     1
102
RTVSPropertyOp49
 70
     1
102
RTVSPropertyOp50
 70
     1
102
RTVSPropertyOp51
 70
     0
102
RTVSPropertyOp52
 70
     0
102
RTVSPropertyOp53
 70
     1
102
RTVSPropertyOp54
 70
     1
102
RTVSPropertyOp55
 70
     1
102
RTVSPropertyOp56
 70
     1
102
RTVSPropertyOp57
 70
     1
102
RTVSPost2010Prop28
280
     0
102
RTVSPost2010PropOp28
 70
     1
102
RTVSPost2010Prop29
280
     1
102
RTVSPost2010PropOp29
 70
     1
102
RTVSPost2010Prop30
280
     1
102
RTVSPost2010PropOp30
 70
     1
102
RTVSPost2010Prop31
280
     0
102
RTVSPost2010PropOp31
 70
     1
102
RTVSPost2010Prop32
280
     0
102
RTVSPost2010PropOp32
 70
     1
102
RTVSPost2010Prop33
280
     0
102
RTVSPost2010PropOp33
 70
     1
102
RTVSPost2010Prop34
280
     0
102
RTVSPost2010PropOp34
 70
     1
102
RTVSPost2010Prop35
280
     0
102
RTVSPost2010PropOp35
 70
     1
102
RTVSPost2010Prop36
280
     0
102
RTVSPost2010PropOp36
 70
     1
102
RTVSPost2010Prop37
 90
       50
102
RTVSPost2010PropOp37
 70
     1
102
RTVSPost2010Prop38
140
0.0
102
RTVSPost2010PropOp38
 70
     1
102
RTVSPost2010Prop39
140
1.0
102
RTVSPost2010PropOp39
 70
     1
102
RTVSPost2010Prop40
 90
        0
102
RTVSPost2010PropOp40
 70
     1
102
RTVSPost2010Prop41ColorIndex
 90
       18
102
RTVSPost2010Prop41ColorRGB
 90
        0
102
RTVSPost2010PropOp41
 70
     1
102
RTVSPost2010Prop42
 90
       50
102
RTVSPost2010PropOp42
 70
     1
102
RTVSPost2010Prop43
 90
        3
102
RTVSPost2010PropOp43
 70
     1
102
RTVSPost2010Prop44ColorIndex
 90
        5
102
RTVSPost2010Prop44ColorRGB
 90
      255
102
RTVSPost2010PropOp44
 70
     1
102
RTVSPost2010Prop45
280
     0
102
RTVSPost2010PropOp45
 70
     1
102
RTVSPost2010Prop46
 90
       50
102
RTVSPost2010PropOp46
 70
     1
102
RTVSPost2010Prop47
 90
       50
102
RTVSPost2010PropOp47
 70
     1
102
RTVSPost2010Prop48
 90
       50
102
RTVSPost2010PropOp48
 70
     1
102
RTVSPost2010Prop49
280
     0
102
RTVSPost2010PropOp49
 70
     1
102
RTVSPost2010Prop50
 90
       50
102
RTVSPost2010PropOp50
 70
     1
102
RTVSPost2010Prop51ColorIndex
 90
      256
102
RTVSPost2010Prop51ColorRGB
 90
-16777216
102
RTVSPost2010PropOp51
 70
     0
102
RTVSPost2010Prop52
140
1.0
102
RTVSPost2010PropOp52
 70
     0
102
RTVSPost2010Prop53
 90
        2
102
RTVSPost2010PropOp53
 70
     1
102
RTVSPost2010Prop54
  1
strokes_ogs.tif
102
RTVSPost2010PropOp54
 70
     1
102
RTVSPost2010Prop55
280
     0
102
RTVSPost2010PropOp55
 70
     1
102
RTVSPost2010Prop56
140
1.0
102
RTVSPost2010PropOp56
 70
     1
102
RTVSPost2010Prop57
140
1.0
102
RTVSPost2010PropOp57
 70
     1
  0
XRECORD
  5
404
102
{ACAD_REACTORS
330
403
102
}
330
403
100
AcDbXrecord
280
     1
102
RTVSPropertyOp0
 70
     1
102
RTVSPropertyOp1
 70
     1
102
RTVSPropertyOp2
 70
     1
102
RTVSPropertyOp3
 70
     1
102
RTVSPropertyOp4
 70
     1
102
RTVSPropertyOp5
 70
     1
102
RTVSPropertyOp6
 70
     1
102
RTVSPropertyOp7
 70
     1
102
RTVSPropertyOp8
 70
     1
102
RTVSPropertyOp9
 70
     1
102
RTVSPropertyOp10
 70
     1
102
RTVSPropertyOp11
 70
     1
102
RTVSPropertyOp12
 70
     1
102
RTVSPropertyOp13
 70
     1
102
RTVSPropertyOp14
 70
     1
102
RTVSPropertyOp15
 70
     1
102
RTVSPropertyOp16
 70
     1
102
RTVSPropertyOp17
 70
     1
102
RTVSPropertyOp18
 70
     1
102
RTVSPropertyOp19
 70
     1
102
RTVSPropertyOp20
 70
     1
102
RTVSPropertyOp21
 70
     1
102
RTVSPropertyOp22
 70
     1
102
RTVSPropertyOp23
 70
     1
102
RTVSPropertyOp24
 70
     1
102
RTVSPropertyOp25
 70
     1
102
RTVSPropertyOp26
 70
     1
102
RTVSPropertyOp27
 70
     1
102
RTVSPropertyOp28
 70
     1
102
RTVSPropertyOp29
 70
     1
102
RTVSPropertyOp30
 70
     1
102
RTVSPropertyOp31
 70
     1
102
RTVSPropertyOp32
 70
     1
102
RTVSPropertyOp33
 70
     1
102
RTVSPropertyOp34
 70
     1
102
RTVSPropertyOp35
 70
     1
102
RTVSPropertyOp36
 70
     1
102
RTVSPropertyOp37
 70
     1
102
RTVSPropertyOp38
 70
     1
102
RTVSPropertyOp39
 70
     1
102
RTVSPropertyOp40
 70
     1
102
RTVSPropertyOp41
 70
     1
102
RTVSPropertyOp42
 70
     1
102
RTVSPropertyOp43
 70
     1
102
RTVSPropertyOp44
 70
     1
102
RTVSPropertyOp45
 70
     1
102
RTVSPropertyOp46
 70
     1
102
RTVSPropertyOp47
 70
     1
102
RTVSPropertyOp48
 70
     1
102
RTVSPropertyOp49
 70
     1
102
RTVSPropertyOp50
 70
     1
102
RTVSPropertyOp51
 70
     0
102
RTVSPropertyOp52
 70
     0
102
RTVSPropertyOp53
 70
     1
102
RTVSPropertyOp54
 70
     1
102
RTVSPropertyOp55
 70
     1
102
RTVSPropertyOp56
 70
     1
102
RTVSPropertyOp57
 70
     1
102
RTVSPost2010Prop28
280
     0
102
RTVSPost2010PropOp28
 70
     1
102
RTVSPost2010Prop29
280
     1
102
RTVSPost2010PropOp29
 70
     1
102
RTVSPost2010Prop30
280
     1
102
RTVSPost2010PropOp30
 70
     1
102
RTVSPost2010Prop31
280
     0
102
RTVSPost2010PropOp31
 70
     1
102
RTVSPost2010Prop32
280
     0
102
RTVSPost2010PropOp32
 70
     1
102
RTVSPost2010Prop33
280
     0
102
RTVSPost2010PropOp33
 70
     1
102
RTVSPost2010Prop34
280
     0
102
RTVSPost2010PropOp34
 70
     1
102
RTVSPost2010Prop35
280
     0
102
RTVSPost2010PropOp35
 70
     1
102
RTVSPost2010Prop36
280
     0
102
RTVSPost2010PropOp36
 70
     1
102
RTVSPost2010Prop37
 90
       50
102
RTVSPost2010PropOp37
 70
     1
102
RTVSPost2010Prop38
140
0.0
102
RTVSPost2010PropOp38
 70
     1
102
RTVSPost2010Prop39
140
1.0
102
RTVSPost2010PropOp39
 70
     1
102
RTVSPost2010Prop40
 90
        0
102
RTVSPost2010PropOp40
 70
     1
102
RTVSPost2010Prop41ColorIndex
 90
       18
102
RTVSPost2010Prop41ColorRGB
 90
        0
102
RTVSPost2010PropOp41
 70
     1
102
RTVSPost2010Prop42
 90
       50
102
RTVSPost2010PropOp42
 70
     1
102
RTVSPost2010Prop43
 90
        3
102
RTVSPost2010PropOp43
 70
     1
102
RTVSPost2010Prop44ColorIndex
 90
        5
102
RTVSPost2010Prop44ColorRGB
 90
      255
102
RTVSPost2010PropOp44
 70
     1
102
RTVSPost2010Prop45
280
     0
102
RTVSPost2010PropOp45
 70
     1
102
RTVSPost2010Prop46
 90
       50
102
RTVSPost2010PropOp46
 70
     1
102
RTVSPost2010Prop47
 90
       50
102
RTVSPost2010PropOp47
 70
     1
102
RTVSPost2010Prop48
 90
       50
102
RTVSPost2010PropOp48
 70
     1
102
RTVSPost2010Prop49
280
     0
102
RTVSPost2010PropOp49
 70
     1
102
RTVSPost2010Prop50
 90
       50
102
RTVSPost2010PropOp50
 70
     1
102
RTVSPost2010Prop51ColorIndex
 90
      256
102
RTVSPost2010Prop51ColorRGB
 90
-16777216
102
RTVSPost2010PropOp51
 70
     0
102
RTVSPost2010Prop52
140
1.0
102
RTVSPost2010PropOp52
 70
     0
102
RTVSPost2010Prop53
 90
        2
102
RTVSPost2010PropOp53
 70
     1
102
RTVSPost2010Prop54
  1
strokes_ogs.tif
102
RTVSPost2010PropOp54
 70
     1
102
RTVSPost2010Prop55
280
     0
102
RTVSPost2010PropOp55
 70
     1
102
RTVSPost2010Prop56
140
1.0
102
RTVSPost2010PropOp56
 70
     1
102
RTVSPost2010Prop57
140
1.0
102
RTVSPost2010PropOp57
 70
     1
  0
XRECORD
  5
406
102
{ACAD_REACTORS
330
405
102
}
330
405
100
AcDbXrecord
280
     1
102
RTVSPropertyOp0
 70
     1
102
RTVSPropertyOp1
 70
     1
102
RTVSPropertyOp2
 70
     1
102
RTVSPropertyOp3
 70
     1
102
RTVSPropertyOp4
 70
     1
102
RTVSPropertyOp5
 70
     1
102
RTVSPropertyOp6
 70
     1
102
RTVSPropertyOp7
 70
     1
102
RTVSPropertyOp8
 70
     1
102
RTVSPropertyOp9
 70
     1
102
RTVSPropertyOp10
 70
     1
102
RTVSPropertyOp11
 70
     1
102
RTVSPropertyOp12
 70
     1
102
RTVSPropertyOp13
 70
     1
102
RTVSPropertyOp14
 70
     1
102
RTVSPropertyOp15
 70
     1
102
RTVSPropertyOp16
 70
     1
102
RTVSPropertyOp17
 70
     1
102
RTVSPropertyOp18
 70
     1
102
RTVSPropertyOp19
 70
     1
102
RTVSPropertyOp20
 70
     1
102
RTVSPropertyOp21
 70
     1
102
RTVSPropertyOp22
 70
     1
102
RTVSPropertyOp23
 70
     1
102
RTVSPropertyOp24
 70
     1
102
RTVSPropertyOp25
 70
     1
102
RTVSPropertyOp26
 70
     1
102
RTVSPropertyOp27
 70
     1
102
RTVSPropertyOp28
 70
     1
102
RTVSPropertyOp29
 70
     1
102
RTVSPropertyOp30
 70
     1
102
RTVSPropertyOp31
 70
     1
102
RTVSPropertyOp32
 70
     1
102
RTVSPropertyOp33
 70
     1
102
RTVSPropertyOp34
 70
     1
102
RTVSPropertyOp35
 70
     1
102
RTVSPropertyOp36
 70
     1
102
RTVSPropertyOp37
 70
     1
102
RTVSPropertyOp38
 70
     1
102
RTVSPropertyOp39
 70
     1
102
RTVSPropertyOp40
 70
     1
102
RTVSPropertyOp41
 70
     1
102
RTVSPropertyOp42
 70
     1
102
RTVSPropertyOp43
 70
     1
102
RTVSPropertyOp44
 70
     1
102
RTVSPropertyOp45
 70
     1
102
RTVSPropertyOp46
 70
     1
102
RTVSPropertyOp47
 70
     1
102
RTVSPropertyOp48
 70
     1
102
RTVSPropertyOp49
 70
     1
102
RTVSPropertyOp50
 70
     1
102
RTVSPropertyOp51
 70
     0
102
RTVSPropertyOp52
 70
     0
102
RTVSPropertyOp53
 70
     1
102
RTVSPropertyOp54
 70
     1
102
RTVSPropertyOp55
 70
     1
102
RTVSPropertyOp56
 70
     1
102
RTVSPropertyOp57
 70
     1
102
RTVSPost2010Prop28
280
     0
102
RTVSPost2010PropOp28
 70
     1
102
RTVSPost2010Prop29
280
     1
102
RTVSPost2010PropOp29
 70
     1
102
RTVSPost2010Prop30
280
     1
102
RTVSPost2010PropOp30
 70
     1
102
RTVSPost2010Prop31
280
     0
102
RTVSPost2010PropOp31
 70
     1
102
RTVSPost2010Prop32
280
     0
102
RTVSPost2010PropOp32
 70
     1
102
RTVSPost2010Prop33
280
     0
102
RTVSPost2010PropOp33
 70
     1
102
RTVSPost2010Prop34
280
     0
102
RTVSPost2010PropOp34
 70
     1
102
RTVSPost2010Prop35
280
     0
102
RTVSPost2010PropOp35
 70
     1
102
RTVSPost2010Prop36
280
     0
102
RTVSPost2010PropOp36
 70
     1
102
RTVSPost2010Prop37
 90
       50
102
RTVSPost2010PropOp37
 70
     1
102
RTVSPost2010Prop38
140
0.0
102
RTVSPost2010PropOp38
 70
     1
102
RTVSPost2010Prop39
140
1.0
102
RTVSPost2010PropOp39
 70
     1
102
RTVSPost2010Prop40
 90
        0
102
RTVSPost2010PropOp40
 70
     1
102
RTVSPost2010Prop41ColorIndex
 90
       18
102
RTVSPost2010Prop41ColorRGB
 90
        0
102
RTVSPost2010PropOp41
 70
     1
102
RTVSPost2010Prop42
 90
       50
102
RTVSPost2010PropOp42
 70
     1
102
RTVSPost2010Prop43
 90
        3
102
RTVSPost2010PropOp43
 70
     1
102
RTVSPost2010Prop44ColorIndex
 90
        5
102
RTVSPost2010Prop44ColorRGB
 90
      255
102
RTVSPost2010PropOp44
 70
     1
102
RTVSPost2010Prop45
280
     0
102
RTVSPost2010PropOp45
 70
     1
102
RTVSPost2010Prop46
 90
       50
102
RTVSPost2010PropOp46
 70
     1
102
RTVSPost2010Prop47
 90
       50
102
RTVSPost2010PropOp47
 70
     1
102
RTVSPost2010Prop48
 90
       50
102
RTVSPost2010PropOp48
 70
     1
102
RTVSPost2010Prop49
280
     0
102
RTVSPost2010PropOp49
 70
     1
102
RTVSPost2010Prop50
 90
       50
102
RTVSPost2010PropOp50
 70
     1
102
RTVSPost2010Prop51ColorIndex
 90
      256
102
RTVSPost2010Prop51ColorRGB
 90
-16777216
102
RTVSPost2010PropOp51
 70
     0
102
RTVSPost2010Prop52
140
1.0
102
RTVSPost2010PropOp52
 70
     0
102
RTVSPost2010Prop53
 90
        2
102
RTVSPost2010PropOp53
 70
     1
102
RTVSPost2010Prop54
  1
strokes_ogs.tif
102
RTVSPost2010PropOp54
 70
     1
102
RTVSPost2010Prop55
280
     0
102
RTVSPost2010PropOp55
 70
     1
102
RTVSPost2010Prop56
140
1.0
102
RTVSPost2010PropOp56
 70
     1
102
RTVSPost2010Prop57
140
1.0
102
RTVSPost2010PropOp57
 70
     1
  0
XRECORD
  5
408
102
{ACAD_REACTORS
330
407
102
}
330
407
100
AcDbXrecord
280
     1
102
RTVSPropertyOp0
 70
     1
102
RTVSPropertyOp1
 70
     1
102
RTVSPropertyOp2
 70
     1
102
RTVSPropertyOp3
 70
     1
102
RTVSPropertyOp4
 70
     1
102
RTVSPropertyOp5
 70
     1
102
RTVSPropertyOp6
 70
     1
102
RTVSPropertyOp7
 70
     1
102
RTVSPropertyOp8
 70
     1
102
RTVSPropertyOp9
 70
     1
102
RTVSPropertyOp10
 70
     1
102
RTVSPropertyOp11
 70
     1
102
RTVSPropertyOp12
 70
     1
102
RTVSPropertyOp13
 70
     1
102
RTVSPropertyOp14
 70
     1
102
RTVSPropertyOp15
 70
     1
102
RTVSPropertyOp16
 70
     1
102
RTVSPropertyOp17
 70
     1
102
RTVSPropertyOp18
 70
     1
102
RTVSPropertyOp19
 70
     1
102
RTVSPropertyOp20
 70
     1
102
RTVSPropertyOp21
 70
     1
102
RTVSPropertyOp22
 70
     1
102
RTVSPropertyOp23
 70
     1
102
RTVSPropertyOp24
 70
     1
102
RTVSPropertyOp25
 70
     1
102
RTVSPropertyOp26
 70
     1
102
RTVSPropertyOp27
 70
     1
102
RTVSPropertyOp28
 70
     1
102
RTVSPropertyOp29
 70
     1
102
RTVSPropertyOp30
 70
     1
102
RTVSPropertyOp31
 70
     1
102
RTVSPropertyOp32
 70
     1
102
RTVSPropertyOp33
 70
     1
102
RTVSPropertyOp34
 70
     1
102
RTVSPropertyOp35
 70
     1
102
RTVSPropertyOp36
 70
     1
102
RTVSPropertyOp37
 70
     1
102
RTVSPropertyOp38
 70
     1
102
RTVSPropertyOp39
 70
     1
102
RTVSPropertyOp40
 70
     1
102
RTVSPropertyOp41
 70
     1
102
RTVSPropertyOp42
 70
     1
102
RTVSPropertyOp43
 70
     1
102
RTVSPropertyOp44
 70
     1
102
RTVSPropertyOp45
 70
     1
102
RTVSPropertyOp46
 70
     1
102
RTVSPropertyOp47
 70
     1
102
RTVSPropertyOp48
 70
     1
102
RTVSPropertyOp49
 70
     1
102
RTVSPropertyOp50
 70
     1
102
RTVSPropertyOp51
 70
     0
102
RTVSPropertyOp52
 70
     0
102
RTVSPropertyOp53
 70
     1
102
RTVSPropertyOp54
 70
     1
102
RTVSPropertyOp55
 70
     1
102
RTVSPropertyOp56
 70
     1
102
RTVSPropertyOp57
 70
     1
102
RTVSPost2010Prop28
280
     0
102
RTVSPost2010PropOp28
 70
     1
102
RTVSPost2010Prop29
280
     1
102
RTVSPost2010PropOp29
 70
     1
102
RTVSPost2010Prop30
280
     1
102
RTVSPost2010PropOp30
 70
     1
102
RTVSPost2010Prop31
280
     0
102
RTVSPost2010PropOp31
 70
     1
102
RTVSPost2010Prop32
280
     0
102
RTVSPost2010PropOp32
 70
     1
102
RTVSPost2010Prop33
280
     0
102
RTVSPost2010PropOp33
 70
     1
102
RTVSPost2010Prop34
280
     0
102
RTVSPost2010PropOp34
 70
     1
102
RTVSPost2010Prop35
280
     0
102
RTVSPost2010PropOp35
 70
     1
102
RTVSPost2010Prop36
280
     0
102
RTVSPost2010PropOp36
 70
     1
102
RTVSPost2010Prop37
 90
       50
102
RTVSPost2010PropOp37
 70
     1
102
RTVSPost2010Prop38
140
0.0
102
RTVSPost2010PropOp38
 70
     1
102
RTVSPost2010Prop39
140
1.0
102
RTVSPost2010PropOp39
 70
     1
102
RTVSPost2010Prop40
 90
        0
102
RTVSPost2010PropOp40
 70
     1
102
RTVSPost2010Prop41ColorIndex
 90
       18
102
RTVSPost2010Prop41ColorRGB
 90
        0
102
RTVSPost2010PropOp41
 70
     1
102
RTVSPost2010Prop42
 90
       50
102
RTVSPost2010PropOp42
 70
     1
102
RTVSPost2010Prop43
 90
        3
102
RTVSPost2010PropOp43
 70
     1
102
RTVSPost2010Prop44ColorIndex
 90
        5
102
RTVSPost2010Prop44ColorRGB
 90
      255
102
RTVSPost2010PropOp44
 70
     1
102
RTVSPost2010Prop45
280
     0
102
RTVSPost2010PropOp45
 70
     1
102
RTVSPost2010Prop46
 90
       50
102
RTVSPost2010PropOp46
 70
     1
102
RTVSPost2010Prop47
 90
       50
102
RTVSPost2010PropOp47
 70
     1
102
RTVSPost2010Prop48
 90
       50
102
RTVSPost2010PropOp48
 70
     1
102
RTVSPost2010Prop49
280
     0
102
RTVSPost2010PropOp49
 70
     1
102
RTVSPost2010Prop50
 90
       50
102
RTVSPost2010PropOp50
 70
     1
102
RTVSPost2010Prop51ColorIndex
 90
      256
102
RTVSPost2010Prop51ColorRGB
 90
-16777216
102
RTVSPost2010PropOp51
 70
     0
102
RTVSPost2010Prop52
140
1.0
102
RTVSPost2010PropOp52
 70
     0
102
RTVSPost2010Prop53
 90
        2
102
RTVSPost2010PropOp53
 70
     1
102
RTVSPost2010Prop54
  1
strokes_ogs.tif
102
RTVSPost2010PropOp54
 70
     1
102
RTVSPost2010Prop55
280
     0
102
RTVSPost2010PropOp55
 70
     1
102
RTVSPost2010Prop56
140
1.0
102
RTVSPost2010PropOp56
 70
     1
102
RTVSPost2010Prop57
140
1.0
102
RTVSPost2010PropOp57
 70
     1
  0
XRECORD
  5
40A
102
{ACAD_REACTORS
330
409
102
}
330
409
100
AcDbXrecord
280
     1
102
RTVSPropertyOp0
 70
     1
102
RTVSPropertyOp1
 70
     1
102
RTVSPropertyOp2
 70
     1
102
RTVSPropertyOp3
 70
     1
102
RTVSPropertyOp4
 70
     1
102
RTVSPropertyOp5
 70
     1
102
RTVSPropertyOp6
 70
     1
102
RTVSPropertyOp7
 70
     1
102
RTVSPropertyOp8
 70
     1
102
RTVSPropertyOp9
 70
     1
102
RTVSPropertyOp10
 70
     1
102
RTVSPropertyOp11
 70
     1
102
RTVSPropertyOp12
 70
     1
102
RTVSPropertyOp13
 70
     1
102
RTVSPropertyOp14
 70
     1
102
RTVSPropertyOp15
 70
     1
102
RTVSPropertyOp16
 70
     1
102
RTVSPropertyOp17
 70
     1
102
RTVSPropertyOp18
 70
     1
102
RTVSPropertyOp19
 70
     1
102
RTVSPropertyOp20
 70
     1
102
RTVSPropertyOp21
 70
     1
102
RTVSPropertyOp22
 70
     1
102
RTVSPropertyOp23
 70
     1
102
RTVSPropertyOp24
 70
     1
102
RTVSPropertyOp25
 70
     1
102
RTVSPropertyOp26
 70
     1
102
RTVSPropertyOp27
 70
     1
102
RTVSPropertyOp28
 70
     1
102
RTVSPropertyOp29
 70
     1
102
RTVSPropertyOp30
 70
     1
102
RTVSPropertyOp31
 70
     1
102
RTVSPropertyOp32
 70
     1
102
RTVSPropertyOp33
 70
     1
102
RTVSPropertyOp34
 70
     1
102
RTVSPropertyOp35
 70
     1
102
RTVSPropertyOp36
 70
     1
102
RTVSPropertyOp37
 70
     1
102
RTVSPropertyOp38
 70
     1
102
RTVSPropertyOp39
 70
     1
102
RTVSPropertyOp40
 70
     1
102
RTVSPropertyOp41
 70
     1
102
RTVSPropertyOp42
 70
     1
102
RTVSPropertyOp43
 70
     1
102
RTVSPropertyOp44
 70
     1
102
RTVSPropertyOp45
 70
     1
102
RTVSPropertyOp46
 70
     1
102
RTVSPropertyOp47
 70
     1
102
RTVSPropertyOp48
 70
     1
102
RTVSPropertyOp49
 70
     1
102
RTVSPropertyOp50
 70
     1
102
RTVSPropertyOp51
 70
     0
102
RTVSPropertyOp52
 70
     0
102
RTVSPropertyOp53
 70
     1
102
RTVSPropertyOp54
 70
     1
102
RTVSPropertyOp55
 70
     1
102
RTVSPropertyOp56
 70
     1
102
RTVSPropertyOp57
 70
     1
102
RTVSPost2010Prop28
280
     0
102
RTVSPost2010PropOp28
 70
     1
102
RTVSPost2010Prop29
280
     1
102
RTVSPost2010PropOp29
 70
     1
102
RTVSPost2010Prop30
280
     1
102
RTVSPost2010PropOp30
 70
     1
102
RTVSPost2010Prop31
280
     0
102
RTVSPost2010PropOp31
 70
     1
102
RTVSPost2010Prop32
280
     0
102
RTVSPost2010PropOp32
 70
     1
102
RTVSPost2010Prop33
280
     0
102
RTVSPost2010PropOp33
 70
     1
102
RTVSPost2010Prop34
280
     0
102
RTVSPost2010PropOp34
 70
     1
102
RTVSPost2010Prop35
280
     0
102
RTVSPost2010PropOp35
 70
     1
102
RTVSPost2010Prop36
280
     0
102
RTVSPost2010PropOp36
 70
     1
102
RTVSPost2010Prop37
 90
       50
102
RTVSPost2010PropOp37
 70
     1
102
RTVSPost2010Prop38
140
0.0
102
RTVSPost2010PropOp38
 70
     1
102
RTVSPost2010Prop39
140
1.0
102
RTVSPost2010PropOp39
 70
     1
102
RTVSPost2010Prop40
 90
        0
102
RTVSPost2010PropOp40
 70
     1
102
RTVSPost2010Prop41ColorIndex
 90
       18
102
RTVSPost2010Prop41ColorRGB
 90
        0
102
RTVSPost2010PropOp41
 70
     1
102
RTVSPost2010Prop42
 90
       50
102
RTVSPost2010PropOp42
 70
     1
102
RTVSPost2010Prop43
 90
        3
102
RTVSPost2010PropOp43
 70
     1
102
RTVSPost2010Prop44ColorIndex
 90
        5
102
RTVSPost2010Prop44ColorRGB
 90
      255
102
RTVSPost2010PropOp44
 70
     1
102
RTVSPost2010Prop45
280
     0
102
RTVSPost2010PropOp45
 70
     1
102
RTVSPost2010Prop46
 90
       50
102
RTVSPost2010PropOp46
 70
     1
102
RTVSPost2010Prop47
 90
       50
102
RTVSPost2010PropOp47
 70
     1
102
RTVSPost2010Prop48
 90
       50
102
RTVSPost2010PropOp48
 70
     1
102
RTVSPost2010Prop49
280
     0
102
RTVSPost2010PropOp49
 70
     1
102
RTVSPost2010Prop50
 90
       50
102
RTVSPost2010PropOp50
 70
     1
102
RTVSPost2010Prop51ColorIndex
 90
      256
102
RTVSPost2010Prop51ColorRGB
 90
-16777216
102
RTVSPost2010PropOp51
 70
     0
102
RTVSPost2010Prop52
140
1.0
102
RTVSPost2010PropOp52
 70
     0
102
RTVSPost2010Prop53
 90
        2
102
RTVSPost2010PropOp53
 70
     1
102
RTVSPost2010Prop54
  1
strokes_ogs.tif
102
RTVSPost2010PropOp54
 70
     1
102
RTVSPost2010Prop55
280
     0
102
RTVSPost2010PropOp55
 70
     1
102
RTVSPost2010Prop56
140
1.0
102
RTVSPost2010PropOp56
 70
     1
102
RTVSPost2010Prop57
140
1.0
102
RTVSPost2010PropOp57
 70
     1
  0
XRECORD
  5
410
102
{ACAD_REACTORS
330
40F
102
}
330
40F
100
AcDbXrecord
280
     1
102
RTVSPropertyOp0
 70
     1
102
RTVSPropertyOp1
 70
     1
102
RTVSPropertyOp2
 70
     1
102
RTVSPropertyOp3
 70
     1
102
RTVSPropertyOp4
 70
     1
102
RTVSPropertyOp5
 70
     1
102
RTVSPropertyOp6
 70
     1
102
RTVSPropertyOp7
 70
     1
102
RTVSPropertyOp8
 70
     1
102
RTVSPropertyOp9
 70
     1
102
RTVSPropertyOp10
 70
     1
102
RTVSPropertyOp11
 70
     1
102
RTVSPropertyOp12
 70
     1
102
RTVSPropertyOp13
 70
     1
102
RTVSPropertyOp14
 70
     1
102
RTVSPropertyOp15
 70
     1
102
RTVSPropertyOp16
 70
     1
102
RTVSPropertyOp17
 70
     1
102
RTVSPropertyOp18
 70
     1
102
RTVSPropertyOp19
 70
     1
102
RTVSPropertyOp20
 70
     1
102
RTVSPropertyOp21
 70
     1
102
RTVSPropertyOp22
 70
     1
102
RTVSPropertyOp23
 70
     1
102
RTVSPropertyOp24
 70
     1
102
RTVSPropertyOp25
 70
     1
102
RTVSPropertyOp26
 70
     1
102
RTVSPropertyOp27
 70
     1
102
RTVSPropertyOp28
 70
     1
102
RTVSPropertyOp29
 70
     1
102
RTVSPropertyOp30
 70
     1
102
RTVSPropertyOp31
 70
     1
102
RTVSPropertyOp32
 70
     1
102
RTVSPropertyOp33
 70
     1
102
RTVSPropertyOp34
 70
     1
102
RTVSPropertyOp35
 70
     1
102
RTVSPropertyOp36
 70
     1
102
RTVSPropertyOp37
 70
     1
102
RTVSPropertyOp38
 70
     1
102
RTVSPropertyOp39
 70
     1
102
RTVSPropertyOp40
 70
     1
102
RTVSPropertyOp41
 70
     1
102
RTVSPropertyOp42
 70
     1
102
RTVSPropertyOp43
 70
     1
102
RTVSPropertyOp44
 70
     1
102
RTVSPropertyOp45
 70
     1
102
RTVSPropertyOp46
 70
     1
102
RTVSPropertyOp47
 70
     1
102
RTVSPropertyOp48
 70
     1
102
RTVSPropertyOp49
 70
     1
102
RTVSPropertyOp50
 70
     1
102
RTVSPropertyOp51
 70
     0
102
RTVSPropertyOp52
 70
     0
102
RTVSPropertyOp53
 70
     1
102
RTVSPropertyOp54
 70
     1
102
RTVSPropertyOp55
 70
     1
102
RTVSPropertyOp56
 70
     1
102
RTVSPropertyOp57
 70
     1
102
RTVSPost2010Prop28
280
     0
102
RTVSPost2010PropOp28
 70
     1
102
RTVSPost2010Prop29
280
     1
102
RTVSPost2010PropOp29
 70
     1
102
RTVSPost2010Prop30
280
     1
102
RTVSPost2010PropOp30
 70
     1
102
RTVSPost2010Prop31
280
     0
102
RTVSPost2010PropOp31
 70
     1
102
RTVSPost2010Prop32
280
     0
102
RTVSPost2010PropOp32
 70
     1
102
RTVSPost2010Prop33
280
     0
102
RTVSPost2010PropOp33
 70
     1
102
RTVSPost2010Prop34
280
     0
102
RTVSPost2010PropOp34
 70
     1
102
RTVSPost2010Prop35
280
     0
102
RTVSPost2010PropOp35
 70
     1
102
RTVSPost2010Prop36
280
     0
102
RTVSPost2010PropOp36
 70
     1
102
RTVSPost2010Prop37
 90
       50
102
RTVSPost2010PropOp37
 70
     1
102
RTVSPost2010Prop38
140
0.0
102
RTVSPost2010PropOp38
 70
     1
102
RTVSPost2010Prop39
140
1.0
102
RTVSPost2010PropOp39
 70
     1
102
RTVSPost2010Prop40
 90
        0
102
RTVSPost2010PropOp40
 70
     1
102
RTVSPost2010Prop41ColorIndex
 90
       18
102
RTVSPost2010Prop41ColorRGB
 90
        0
102
RTVSPost2010PropOp41
 70
     1
102
RTVSPost2010Prop42
 90
       50
102
RTVSPost2010PropOp42
 70
     1
102
RTVSPost2010Prop43
 90
        3
102
RTVSPost2010PropOp43
 70
     1
102
RTVSPost2010Prop44ColorIndex
 90
        5
102
RTVSPost2010Prop44ColorRGB
 90
      255
102
RTVSPost2010PropOp44
 70
     1
102
RTVSPost2010Prop45
280
     0
102
RTVSPost2010PropOp45
 70
     1
102
RTVSPost2010Prop46
 90
       50
102
RTVSPost2010PropOp46
 70
     1
102
RTVSPost2010Prop47
 90
       50
102
RTVSPost2010PropOp47
 70
     1
102
RTVSPost2010Prop48
 90
       50
102
RTVSPost2010PropOp48
 70
     1
102
RTVSPost2010Prop49
280
     0
102
RTVSPost2010PropOp49
 70
     1
102
RTVSPost2010Prop50
 90
       50
102
RTVSPost2010PropOp50
 70
     1
102
RTVSPost2010Prop51ColorIndex
 90
      256
102
RTVSPost2010Prop51ColorRGB
 90
-16777216
102
RTVSPost2010PropOp51
 70
     0
102
RTVSPost2010Prop52
140
1.0
102
RTVSPost2010PropOp52
 70
     0
102
RTVSPost2010Prop53
 90
        2
102
RTVSPost2010PropOp53
 70
     1
102
RTVSPost2010Prop54
  1
strokes_ogs.tif
102
RTVSPost2010PropOp54
 70
     1
102
RTVSPost2010Prop55
280
     0
102
RTVSPost2010PropOp55
 70
     1
102
RTVSPost2010Prop56
140
1.0
102
RTVSPost2010PropOp56
 70
     1
102
RTVSPost2010Prop57
140
1.0
102
RTVSPost2010PropOp57
 70
     1
  0
XRECORD
  5
424
102
{ACAD_REACTORS
330
423
102
}
330
423
100
AcDbXrecord
280
     1
102
RTVSPropertyOp0
 70
     0
102
RTVSPropertyOp1
 70
     0
102
RTVSPropertyOp2
 70
     0
102
RTVSPropertyOp3
 70
     0
102
RTVSPropertyOp4
 70
     0
102
RTVSPropertyOp5
 70
     0
102
RTVSPropertyOp6
 70
     0
102
RTVSPropertyOp7
 70
     0
102
RTVSPropertyOp8
 70
     0
102
RTVSPropertyOp9
 70
     0
102
RTVSPropertyOp10
 70
     0
102
RTVSPropertyOp11
 70
     0
102
RTVSPropertyOp12
 70
     0
102
RTVSPropertyOp13
 70
     0
102
RTVSPropertyOp14
 70
     2
102
RTVSPropertyOp15
 70
     0
102
RTVSPropertyOp16
 70
     0
102
RTVSPropertyOp17
 70
     0
102
RTVSPropertyOp18
 70
     0
102
RTVSPropertyOp19
 70
     0
102
RTVSPropertyOp20
 70
     0
102
RTVSPropertyOp21
 70
     0
102
RTVSPropertyOp22
 70
     0
102
RTVSPropertyOp23
 70
     0
102
RTVSPropertyOp24
 70
     0
102
RTVSPropertyOp25
 70
     0
102
RTVSPropertyOp26
 70
     0
102
RTVSPropertyOp27
 70
     0
102
RTVSPropertyOp28
 70
     0
102
RTVSPropertyOp29
 70
     0
102
RTVSPropertyOp30
 70
     0
102
RTVSPropertyOp31
 70
     0
102
RTVSPropertyOp32
 70
     0
102
RTVSPropertyOp33
 70
     0
102
RTVSPropertyOp34
 70
     0
102
RTVSPropertyOp35
 70
     0
102
RTVSPropertyOp36
 70
     0
102
RTVSPropertyOp37
 70
     0
102
RTVSPropertyOp38
 70
     0
102
RTVSPropertyOp39
 70
     0
102
RTVSPropertyOp40
 70
     0
102
RTVSPropertyOp41
 70
     0
102
RTVSPropertyOp42
 70
     0
102
RTVSPropertyOp43
 70
     0
102
RTVSPropertyOp44
 70
     0
102
RTVSPropertyOp45
 70
     0
102
RTVSPropertyOp46
 70
     0
102
RTVSPropertyOp47
 70
     0
102
RTVSPropertyOp48
 70
     0
102
RTVSPropertyOp49
 70
     0
102
RTVSPropertyOp50
 70
     0
102
RTVSPropertyOp51
 70
     0
102
RTVSPropertyOp52
 70
     0
102
RTVSPropertyOp53
 70
     0
102
RTVSPropertyOp54
 70
     0
102
RTVSPropertyOp55
 70
     0
102
RTVSPropertyOp56
 70
     0
102
RTVSPropertyOp57
 70
     0
102
RTVSPost2010Prop28
280
     0
102
RTVSPost2010PropOp28
 70
     0
102
RTVSPost2010Prop29
280
     1
102
RTVSPost2010PropOp29
 70
     0
102
RTVSPost2010Prop30
280
     1
102
RTVSPost2010PropOp30
 70
     0
102
RTVSPost2010Prop31
280
     0
102
RTVSPost2010PropOp31
 70
     0
102
RTVSPost2010Prop32
280
     0
102
RTVSPost2010PropOp32
 70
     0
102
RTVSPost2010Prop33
280
     0
102
RTVSPost2010PropOp33
 70
     0
102
RTVSPost2010Prop34
280
     0
102
RTVSPost2010PropOp34
 70
     0
102
RTVSPost2010Prop35
280
     0
102
RTVSPost2010PropOp35
 70
     0
102
RTVSPost2010Prop36
280
     0
102
RTVSPost2010PropOp36
 70
     0
102
RTVSPost2010Prop37
 90
       50
102
RTVSPost2010PropOp37
 70
     0
102
RTVSPost2010Prop38
140
0.0
102
RTVSPost2010PropOp38
 70
     0
102
RTVSPost2010Prop39
140
1.0
102
RTVSPost2010PropOp39
 70
     0
102
RTVSPost2010Prop40
 90
        0
102
RTVSPost2010PropOp40
 70
     0
102
RTVSPost2010Prop41ColorIndex
 90
       18
102
RTVSPost2010Prop41ColorRGB
 90
        0
102
RTVSPost2010PropOp41
 70
     0
102
RTVSPost2010Prop42
 90
       50
102
RTVSPost2010PropOp42
 70
     0
102
RTVSPost2010Prop43
 90
        3
102
RTVSPost2010PropOp43
 70
     0
102
RTVSPost2010Prop44ColorIndex
 90
        5
102
RTVSPost2010Prop44ColorRGB
 90
      255
102
RTVSPost2010PropOp44
 70
     0
102
RTVSPost2010Prop45
280
     0
102
RTVSPost2010PropOp45
 70
     0
102
RTVSPost2010Prop46
 90
       50
102
RTVSPost2010PropOp46
 70
     0
102
RTVSPost2010Prop47
 90
       50
102
RTVSPost2010PropOp47
 70
     0
102
RTVSPost2010Prop48
 90
       50
102
RTVSPost2010PropOp48
 70
     0
102
RTVSPost2010Prop49
280
     0
102
RTVSPost2010PropOp49
 70
     0
102
RTVSPost2010Prop50
 90
       50
102
RTVSPost2010PropOp50
 70
     0
102
RTVSPost2010Prop51ColorIndex
 90
      256
102
RTVSPost2010Prop51ColorRGB
 90
-16777216
102
RTVSPost2010PropOp51
 70
     0
102
RTVSPost2010Prop52
140
1.0
102
RTVSPost2010PropOp52
 70
     0
102
RTVSPost2010Prop53
 90
        2
102
RTVSPost2010PropOp53
 70
     0
102
RTVSPost2010Prop54
  1
strokes_ogs.tif
102
RTVSPost2010PropOp54
 70
     0
102
RTVSPost2010Prop55
280
     0
102
RTVSPost2010PropOp55
 70
     0
102
RTVSPost2010Prop56
140
1.0
102
RTVSPost2010PropOp56
 70
     0
102
RTVSPost2010Prop57
140
1.0
102
RTVSPost2010PropOp57
 70
     0
  0
XRECORD
  5
41E
102
{ACAD_REACTORS
330
41D
102
}
330
41D
100
AcDbXrecord
280
     1
102
RTVSPropertyOp0
 70
     1
102
RTVSPropertyOp1
 70
     1
102
RTVSPropertyOp2
 70
     1
102
RTVSPropertyOp3
 70
     1
102
RTVSPropertyOp4
 70
     1
102
RTVSPropertyOp5
 70
     1
102
RTVSPropertyOp6
 70
     1
102
RTVSPropertyOp7
 70
     1
102
RTVSPropertyOp8
 70
     1
102
RTVSPropertyOp9
 70
     1
102
RTVSPropertyOp10
 70
     1
102
RTVSPropertyOp11
 70
     1
102
RTVSPropertyOp12
 70
     1
102
RTVSPropertyOp13
 70
     1
102
RTVSPropertyOp14
 70
     1
102
RTVSPropertyOp15
 70
     1
102
RTVSPropertyOp16
 70
     1
102
RTVSPropertyOp17
 70
     1
102
RTVSPropertyOp18
 70
     1
102
RTVSPropertyOp19
 70
     1
102
RTVSPropertyOp20
 70
     1
102
RTVSPropertyOp21
 70
     1
102
RTVSPropertyOp22
 70
     1
102
RTVSPropertyOp23
 70
     1
102
RTVSPropertyOp24
 70
     1
102
RTVSPropertyOp25
 70
     1
102
RTVSPropertyOp26
 70
     1
102
RTVSPropertyOp27
 70
     1
102
RTVSPropertyOp28
 70
     1
102
RTVSPropertyOp29
 70
     1
102
RTVSPropertyOp30
 70
     1
102
RTVSPropertyOp31
 70
     1
102
RTVSPropertyOp32
 70
     1
102
RTVSPropertyOp33
 70
     1
102
RTVSPropertyOp34
 70
     1
102
RTVSPropertyOp35
 70
     1
102
RTVSPropertyOp36
 70
     1
102
RTVSPropertyOp37
 70
     1
102
RTVSPropertyOp38
 70
     1
102
RTVSPropertyOp39
 70
     1
102
RTVSPropertyOp40
 70
     1
102
RTVSPropertyOp41
 70
     1
102
RTVSPropertyOp42
 70
     1
102
RTVSPropertyOp43
 70
     1
102
RTVSPropertyOp44
 70
     1
102
RTVSPropertyOp45
 70
     1
102
RTVSPropertyOp46
 70
     1
102
RTVSPropertyOp47
 70
     1
102
RTVSPropertyOp48
 70
     1
102
RTVSPropertyOp49
 70
     1
102
RTVSPropertyOp50
 70
     1
102
RTVSPropertyOp51
 70
     0
102
RTVSPropertyOp52
 70
     0
102
RTVSPropertyOp53
 70
     1
102
RTVSPropertyOp54
 70
     1
102
RTVSPropertyOp55
 70
     1
102
RTVSPropertyOp56
 70
     1
102
RTVSPropertyOp57
 70
     1
102
RTVSPost2010Prop28
280
     0
102
RTVSPost2010PropOp28
 70
     1
102
RTVSPost2010Prop29
280
     1
102
RTVSPost2010PropOp29
 70
     1
102
RTVSPost2010Prop30
280
     1
102
RTVSPost2010PropOp30
 70
     1
102
RTVSPost2010Prop31
280
     0
102
RTVSPost2010PropOp31
 70
     1
102
RTVSPost2010Prop32
280
     0
102
RTVSPost2010PropOp32
 70
     1
102
RTVSPost2010Prop33
280
     0
102
RTVSPost2010PropOp33
 70
     1
102
RTVSPost2010Prop34
280
     0
102
RTVSPost2010PropOp34
 70
     1
102
RTVSPost2010Prop35
280
     0
102
RTVSPost2010PropOp35
 70
     1
102
RTVSPost2010Prop36
280
     0
102
RTVSPost2010PropOp36
 70
     1
102
RTVSPost2010Prop37
 90
       50
102
RTVSPost2010PropOp37
 70
     1
102
RTVSPost2010Prop38
140
0.0
102
RTVSPost2010PropOp38
 70
     1
102
RTVSPost2010Prop39
140
1.0
102
RTVSPost2010PropOp39
 70
     1
102
RTVSPost2010Prop40
 90
        0
102
RTVSPost2010PropOp40
 70
     1
102
RTVSPost2010Prop41ColorIndex
 90
       18
102
RTVSPost2010Prop41ColorRGB
 90
        0
102
RTVSPost2010PropOp41
 70
     1
102
RTVSPost2010Prop42
 90
       50
102
RTVSPost2010PropOp42
 70
     1
102
RTVSPost2010Prop43
 90
        3
102
RTVSPost2010PropOp43
 70
     1
102
RTVSPost2010Prop44ColorIndex
 90
        5
102
RTVSPost2010Prop44ColorRGB
 90
      255
102
RTVSPost2010PropOp44
 70
     1
102
RTVSPost2010Prop45
280
     0
102
RTVSPost2010PropOp45
 70
     1
102
RTVSPost2010Prop46
 90
       50
102
RTVSPost2010PropOp46
 70
     1
102
RTVSPost2010Prop47
 90
       50
102
RTVSPost2010PropOp47
 70
     1
102
RTVSPost2010Prop48
 90
       50
102
RTVSPost2010PropOp48
 70
     1
102
RTVSPost2010Prop49
280
     0
102
RTVSPost2010PropOp49
 70
     1
102
RTVSPost2010Prop50
 90
       50
102
RTVSPost2010PropOp50
 70
     1
102
RTVSPost2010Prop51ColorIndex
 90
      256
102
RTVSPost2010Prop51ColorRGB
 90
-16777216
102
RTVSPost2010PropOp51
 70
     0
102
RTVSPost2010Prop52
140
1.0
102
RTVSPost2010PropOp52
 70
     0
102
RTVSPost2010Prop53
 90
        2
102
RTVSPost2010PropOp53
 70
     1
102
RTVSPost2010Prop54
  1
strokes_ogs.tif
102
RTVSPost2010PropOp54
 70
     1
102
RTVSPost2010Prop55
280
     0
102
RTVSPost2010PropOp55
 70
     1
102
RTVSPost2010Prop56
140
1.0
102
RTVSPost2010PropOp56
 70
     1
102
RTVSPost2010Prop57
140
1.0
102
RTVSPost2010PropOp57
 70
     1
  0
XRECORD
  5
426
102
{ACAD_REACTORS
330
425
102
}
330
425
100
AcDbXrecord
280
     1
102
RTVSPropertyOp0
 70
     0
102
RTVSPropertyOp1
 70
     0
102
RTVSPropertyOp2
 70
     0
102
RTVSPropertyOp3
 70
     0
102
RTVSPropertyOp4
 70
     0
102
RTVSPropertyOp5
 70
     0
102
RTVSPropertyOp6
 70
     0
102
RTVSPropertyOp7
 70
     0
102
RTVSPropertyOp8
 70
     0
102
RTVSPropertyOp9
 70
     0
102
RTVSPropertyOp10
 70
     0
102
RTVSPropertyOp11
 70
     0
102
RTVSPropertyOp12
 70
     0
102
RTVSPropertyOp13
 70
     0
102
RTVSPropertyOp14
 70
     2
102
RTVSPropertyOp15
 70
     0
102
RTVSPropertyOp16
 70
     0
102
RTVSPropertyOp17
 70
     0
102
RTVSPropertyOp18
 70
     0
102
RTVSPropertyOp19
 70
     0
102
RTVSPropertyOp20
 70
     0
102
RTVSPropertyOp21
 70
     0
102
RTVSPropertyOp22
 70
     0
102
RTVSPropertyOp23
 70
     0
102
RTVSPropertyOp24
 70
     0
102
RTVSPropertyOp25
 70
     0
102
RTVSPropertyOp26
 70
     0
102
RTVSPropertyOp27
 70
     0
102
RTVSPropertyOp28
 70
     0
102
RTVSPropertyOp29
 70
     0
102
RTVSPropertyOp30
 70
     0
102
RTVSPropertyOp31
 70
     0
102
RTVSPropertyOp32
 70
     0
102
RTVSPropertyOp33
 70
     0
102
RTVSPropertyOp34
 70
     0
102
RTVSPropertyOp35
 70
     0
102
RTVSPropertyOp36
 70
     0
102
RTVSPropertyOp37
 70
     0
102
RTVSPropertyOp38
 70
     0
102
RTVSPropertyOp39
 70
     0
102
RTVSPropertyOp40
 70
     0
102
RTVSPropertyOp41
 70
     0
102
RTVSPropertyOp42
 70
     0
102
RTVSPropertyOp43
 70
     0
102
RTVSPropertyOp44
 70
     0
102
RTVSPropertyOp45
 70
     0
102
RTVSPropertyOp46
 70
     0
102
RTVSPropertyOp47
 70
     0
102
RTVSPropertyOp48
 70
     0
102
RTVSPropertyOp49
 70
     0
102
RTVSPropertyOp50
 70
     0
102
RTVSPropertyOp51
 70
     0
102
RTVSPropertyOp52
 70
     0
102
RTVSPropertyOp53
 70
     0
102
RTVSPropertyOp54
 70
     0
102
RTVSPropertyOp55
 70
     0
102
RTVSPropertyOp56
 70
     0
102
RTVSPropertyOp57
 70
     0
102
RTVSPost2010Prop28
280
     0
102
RTVSPost2010PropOp28
 70
     0
102
RTVSPost2010Prop29
280
     1
102
RTVSPost2010PropOp29
 70
     0
102
RTVSPost2010Prop30
280
     1
102
RTVSPost2010PropOp30
 70
     0
102
RTVSPost2010Prop31
280
     0
102
RTVSPost2010PropOp31
 70
     0
102
RTVSPost2010Prop32
280
     0
102
RTVSPost2010PropOp32
 70
     0
102
RTVSPost2010Prop33
280
     0
102
RTVSPost2010PropOp33
 70
     0
102
RTVSPost2010Prop34
280
     0
102
RTVSPost2010PropOp34
 70
     0
102
RTVSPost2010Prop35
280
     0
102
RTVSPost2010PropOp35
 70
     0
102
RTVSPost2010Prop36
280
     0
102
RTVSPost2010PropOp36
 70
     0
102
RTVSPost2010Prop37
 90
       50
102
RTVSPost2010PropOp37
 70
     0
102
RTVSPost2010Prop38
140
0.0
102
RTVSPost2010PropOp38
 70
     0
102
RTVSPost2010Prop39
140
1.0
102
RTVSPost2010PropOp39
 70
     0
102
RTVSPost2010Prop40
 90
        0
102
RTVSPost2010PropOp40
 70
     0
102
RTVSPost2010Prop41ColorIndex
 90
       18
102
RTVSPost2010Prop41ColorRGB
 90
        0
102
RTVSPost2010PropOp41
 70
     0
102
RTVSPost2010Prop42
 90
       50
102
RTVSPost2010PropOp42
 70
     0
102
RTVSPost2010Prop43
 90
        3
102
RTVSPost2010PropOp43
 70
     0
102
RTVSPost2010Prop44ColorIndex
 90
        5
102
RTVSPost2010Prop44ColorRGB
 90
      255
102
RTVSPost2010PropOp44
 70
     0
102
RTVSPost2010Prop45
280
     0
102
RTVSPost2010PropOp45
 70
     0
102
RTVSPost2010Prop46
 90
       50
102
RTVSPost2010PropOp46
 70
     0
102
RTVSPost2010Prop47
 90
       50
102
RTVSPost2010PropOp47
 70
     0
102
RTVSPost2010Prop48
 90
       50
102
RTVSPost2010PropOp48
 70
     0
102
RTVSPost2010Prop49
280
     0
102
RTVSPost2010PropOp49
 70
     0
102
RTVSPost2010Prop50
 90
       50
102
RTVSPost2010PropOp50
 70
     0
102
RTVSPost2010Prop51ColorIndex
 90
      256
102
RTVSPost2010Prop51ColorRGB
 90
-16777216
102
RTVSPost2010PropOp51
 70
     0
102
RTVSPost2010Prop52
140
1.0
102
RTVSPost2010PropOp52
 70
     0
102
RTVSPost2010Prop53
 90
        2
102
RTVSPost2010PropOp53
 70
     0
102
RTVSPost2010Prop54
  1
strokes_ogs.tif
102
RTVSPost2010PropOp54
 70
     0
102
RTVSPost2010Prop55
280
     0
102
RTVSPost2010PropOp55
 70
     0
102
RTVSPost2010Prop56
140
1.0
102
RTVSPost2010PropOp56
 70
     0
102
RTVSPost2010Prop57
140
1.0
102
RTVSPost2010PropOp57
 70
     0
  0
XRECORD
  5
414
102
{ACAD_REACTORS
330
413
102
}
330
413
100
AcDbXrecord
280
     1
102
RTVSPropertyOp0
 70
     1
102
RTVSPropertyOp1
 70
     1
102
RTVSPropertyOp2
 70
     1
102
RTVSPropertyOp3
 70
     1
102
RTVSPropertyOp4
 70
     1
102
RTVSPropertyOp5
 70
     1
102
RTVSPropertyOp6
 70
     1
102
RTVSPropertyOp7
 70
     1
102
RTVSPropertyOp8
 70
     1
102
RTVSPropertyOp9
 70
     1
102
RTVSPropertyOp10
 70
     1
102
RTVSPropertyOp11
 70
     1
102
RTVSPropertyOp12
 70
     1
102
RTVSPropertyOp13
 70
     1
102
RTVSPropertyOp14
 70
     1
102
RTVSPropertyOp15
 70
     1
102
RTVSPropertyOp16
 70
     1
102
RTVSPropertyOp17
 70
     1
102
RTVSPropertyOp18
 70
     1
102
RTVSPropertyOp19
 70
     1
102
RTVSPropertyOp20
 70
     1
102
RTVSPropertyOp21
 70
     1
102
RTVSPropertyOp22
 70
     1
102
RTVSPropertyOp23
 70
     1
102
RTVSPropertyOp24
 70
     1
102
RTVSPropertyOp25
 70
     1
102
RTVSPropertyOp26
 70
     1
102
RTVSPropertyOp27
 70
     1
102
RTVSPropertyOp28
 70
     1
102
RTVSPropertyOp29
 70
     1
102
RTVSPropertyOp30
 70
     1
102
RTVSPropertyOp31
 70
     1
102
RTVSPropertyOp32
 70
     1
102
RTVSPropertyOp33
 70
     1
102
RTVSPropertyOp34
 70
     1
102
RTVSPropertyOp35
 70
     1
102
RTVSPropertyOp36
 70
     1
102
RTVSPropertyOp37
 70
     1
102
RTVSPropertyOp38
 70
     1
102
RTVSPropertyOp39
 70
     1
102
RTVSPropertyOp40
 70
     1
102
RTVSPropertyOp41
 70
     1
102
RTVSPropertyOp42
 70
     1
102
RTVSPropertyOp43
 70
     1
102
RTVSPropertyOp44
 70
     1
102
RTVSPropertyOp45
 70
     1
102
RTVSPropertyOp46
 70
     1
102
RTVSPropertyOp47
 70
     1
102
RTVSPropertyOp48
 70
     1
102
RTVSPropertyOp49
 70
     1
102
RTVSPropertyOp50
 70
     1
102
RTVSPropertyOp51
 70
     0
102
RTVSPropertyOp52
 70
     0
102
RTVSPropertyOp53
 70
     1
102
RTVSPropertyOp54
 70
     1
102
RTVSPropertyOp55
 70
     1
102
RTVSPropertyOp56
 70
     1
102
RTVSPropertyOp57
 70
     1
102
RTVSPost2010Prop28
280
     0
102
RTVSPost2010PropOp28
 70
     1
102
RTVSPost2010Prop29
280
     1
102
RTVSPost2010PropOp29
 70
     1
102
RTVSPost2010Prop30
280
     1
102
RTVSPost2010PropOp30
 70
     1
102
RTVSPost2010Prop31
280
     0
102
RTVSPost2010PropOp31
 70
     1
102
RTVSPost2010Prop32
280
     0
102
RTVSPost2010PropOp32
 70
     1
102
RTVSPost2010Prop33
280
     0
102
RTVSPost2010PropOp33
 70
     1
102
RTVSPost2010Prop34
280
     0
102
RTVSPost2010PropOp34
 70
     1
102
RTVSPost2010Prop35
280
     0
102
RTVSPost2010PropOp35
 70
     1
102
RTVSPost2010Prop36
280
     0
102
RTVSPost2010PropOp36
 70
     1
102
RTVSPost2010Prop37
 90
       50
102
RTVSPost2010PropOp37
 70
     1
102
RTVSPost2010Prop38
140
0.0
102
RTVSPost2010PropOp38
 70
     1
102
RTVSPost2010Prop39
140
1.0
102
RTVSPost2010PropOp39
 70
     1
102
RTVSPost2010Prop40
 90
        0
102
RTVSPost2010PropOp40
 70
     1
102
RTVSPost2010Prop41ColorIndex
 90
       18
102
RTVSPost2010Prop41ColorRGB
 90
        0
102
RTVSPost2010PropOp41
 70
     1
102
RTVSPost2010Prop42
 90
       50
102
RTVSPost2010PropOp42
 70
     1
102
RTVSPost2010Prop43
 90
        3
102
RTVSPost2010PropOp43
 70
     1
102
RTVSPost2010Prop44ColorIndex
 90
        5
102
RTVSPost2010Prop44ColorRGB
 90
      255
102
RTVSPost2010PropOp44
 70
     1
102
RTVSPost2010Prop45
280
     0
102
RTVSPost2010PropOp45
 70
     1
102
RTVSPost2010Prop46
 90
       50
102
RTVSPost2010PropOp46
 70
     1
102
RTVSPost2010Prop47
 90
       50
102
RTVSPost2010PropOp47
 70
     1
102
RTVSPost2010Prop48
 90
       50
102
RTVSPost2010PropOp48
 70
     1
102
RTVSPost2010Prop49
280
     0
102
RTVSPost2010PropOp49
 70
     1
102
RTVSPost2010Prop50
 90
       50
102
RTVSPost2010PropOp50
 70
     1
102
RTVSPost2010Prop51ColorIndex
 90
      256
102
RTVSPost2010Prop51ColorRGB
 90
-16777216
102
RTVSPost2010PropOp51
 70
     0
102
RTVSPost2010Prop52
140
1.0
102
RTVSPost2010PropOp52
 70
     0
102
RTVSPost2010Prop53
 90
        2
102
RTVSPost2010PropOp53
 70
     1
102
RTVSPost2010Prop54
  1
strokes_ogs.tif
102
RTVSPost2010PropOp54
 70
     1
102
RTVSPost2010Prop55
280
     0
102
RTVSPost2010PropOp55
 70
     1
102
RTVSPost2010Prop56
140
1.0
102
RTVSPost2010PropOp56
 70
     1
102
RTVSPost2010Prop57
140
1.0
102
RTVSPost2010PropOp57
 70
     1
  0
XRECORD
  5
432
102
{ACAD_REACTORS
330
431
102
}
330
431
100
AcDbXrecord
280
     1
102
RTVSPropertyOp0
 70
     1
102
RTVSPropertyOp1
 70
     1
102
RTVSPropertyOp2
 70
     1
102
RTVSPropertyOp3
 70
     1
102
RTVSPropertyOp4
 70
     1
102
RTVSPropertyOp5
 70
     1
102
RTVSPropertyOp6
 70
     1
102
RTVSPropertyOp7
 70
     1
102
RTVSPropertyOp8
 70
     1
102
RTVSPropertyOp9
 70
     1
102
RTVSPropertyOp10
 70
     1
102
RTVSPropertyOp11
 70
     1
102
RTVSPropertyOp12
 70
     1
102
RTVSPropertyOp13
 70
     1
102
RTVSPropertyOp14
 70
     1
102
RTVSPropertyOp15
 70
     1
102
RTVSPropertyOp16
 70
     1
102
RTVSPropertyOp17
 70
     1
102
RTVSPropertyOp18
 70
     1
102
RTVSPropertyOp19
 70
     1
102
RTVSPropertyOp20
 70
     1
102
RTVSPropertyOp21
 70
     1
102
RTVSPropertyOp22
 70
     1
102
RTVSPropertyOp23
 70
     1
102
RTVSPropertyOp24
 70
     1
102
RTVSPropertyOp25
 70
     1
102
RTVSPropertyOp26
 70
     1
102
RTVSPropertyOp27
 70
     1
102
RTVSPropertyOp28
 70
     1
102
RTVSPropertyOp29
 70
     1
102
RTVSPropertyOp30
 70
     1
102
RTVSPropertyOp31
 70
     1
102
RTVSPropertyOp32
 70
     1
102
RTVSPropertyOp33
 70
     1
102
RTVSPropertyOp34
 70
     1
102
RTVSPropertyOp35
 70
     1
102
RTVSPropertyOp36
 70
     1
102
RTVSPropertyOp37
 70
     1
102
RTVSPropertyOp38
 70
     1
102
RTVSPropertyOp39
 70
     1
102
RTVSPropertyOp40
 70
     1
102
RTVSPropertyOp41
 70
     1
102
RTVSPropertyOp42
 70
     1
102
RTVSPropertyOp43
 70
     1
102
RTVSPropertyOp44
 70
     1
102
RTVSPropertyOp45
 70
     1
102
RTVSPropertyOp46
 70
     1
102
RTVSPropertyOp47
 70
     1
102
RTVSPropertyOp48
 70
     1
102
RTVSPropertyOp49
 70
     1
102
RTVSPropertyOp50
 70
     1
102
RTVSPropertyOp51
 70
     0
102
RTVSPropertyOp52
 70
     0
102
RTVSPropertyOp53
 70
     1
102
RTVSPropertyOp54
 70
     1
102
RTVSPropertyOp55
 70
     1
102
RTVSPropertyOp56
 70
     1
102
RTVSPropertyOp57
 70
     1
102
RTVSPost2010Prop28
280
     0
102
RTVSPost2010PropOp28
 70
     1
102
RTVSPost2010Prop29
280
     1
102
RTVSPost2010PropOp29
 70
     1
102
RTVSPost2010Prop30
280
     1
102
RTVSPost2010PropOp30
 70
     1
102
RTVSPost2010Prop31
280
     0
102
RTVSPost2010PropOp31
 70
     1
102
RTVSPost2010Prop32
280
     0
102
RTVSPost2010PropOp32
 70
     1
102
RTVSPost2010Prop33
280
     0
102
RTVSPost2010PropOp33
 70
     1
102
RTVSPost2010Prop34
280
     0
102
RTVSPost2010PropOp34
 70
     1
102
RTVSPost2010Prop35
280
     0
102
RTVSPost2010PropOp35
 70
     1
102
RTVSPost2010Prop36
280
     0
102
RTVSPost2010PropOp36
 70
     1
102
RTVSPost2010Prop37
 90
       50
102
RTVSPost2010PropOp37
 70
     1
102
RTVSPost2010Prop38
140
0.0
102
RTVSPost2010PropOp38
 70
     1
102
RTVSPost2010Prop39
140
1.0
102
RTVSPost2010PropOp39
 70
     1
102
RTVSPost2010Prop40
 90
        0
102
RTVSPost2010PropOp40
 70
     1
102
RTVSPost2010Prop41ColorIndex
 90
       18
102
RTVSPost2010Prop41ColorRGB
 90
        0
102
RTVSPost2010PropOp41
 70
     1
102
RTVSPost2010Prop42
 90
       50
102
RTVSPost2010PropOp42
 70
     1
102
RTVSPost2010Prop43
 90
        3
102
RTVSPost2010PropOp43
 70
     1
102
RTVSPost2010Prop44ColorIndex
 90
        5
102
RTVSPost2010Prop44ColorRGB
 90
      255
102
RTVSPost2010PropOp44
 70
     1
102
RTVSPost2010Prop45
280
     0
102
RTVSPost2010PropOp45
 70
     1
102
RTVSPost2010Prop46
 90
       50
102
RTVSPost2010PropOp46
 70
     1
102
RTVSPost2010Prop47
 90
       50
102
RTVSPost2010PropOp47
 70
     1
102
RTVSPost2010Prop48
 90
       50
102
RTVSPost2010PropOp48
 70
     1
102
RTVSPost2010Prop49
280
     0
102
RTVSPost2010PropOp49
 70
     1
102
RTVSPost2010Prop50
 90
       50
102
RTVSPost2010PropOp50
 70
     1
102
RTVSPost2010Prop51ColorIndex
 90
      256
102
RTVSPost2010Prop51ColorRGB
 90
-16777216
102
RTVSPost2010PropOp51
 70
     0
102
RTVSPost2010Prop52
140
1.0
102
RTVSPost2010PropOp52
 70
     0
102
RTVSPost2010Prop53
 90
        2
102
RTVSPost2010PropOp53
 70
     1
102
RTVSPost2010Prop54
  1
strokes_ogs.tif
102
RTVSPost2010PropOp54
 70
     1
102
RTVSPost2010Prop55
280
     0
102
RTVSPost2010PropOp55
 70
     1
102
RTVSPost2010Prop56
140
1.0
102
RTVSPost2010PropOp56
 70
     1
102
RTVSPost2010Prop57
140
1.0
102
RTVSPost2010PropOp57
 70
     1
  0
XRECORD
  5
430
102
{ACAD_REACTORS
330
42F
102
}
330
42F
100
AcDbXrecord
280
     1
102
RTVSPropertyOp0
 70
     1
102
RTVSPropertyOp1
 70
     1
102
RTVSPropertyOp2
 70
     1
102
RTVSPropertyOp3
 70
     1
102
RTVSPropertyOp4
 70
     1
102
RTVSPropertyOp5
 70
     1
102
RTVSPropertyOp6
 70
     1
102
RTVSPropertyOp7
 70
     1
102
RTVSPropertyOp8
 70
     1
102
RTVSPropertyOp9
 70
     1
102
RTVSPropertyOp10
 70
     1
102
RTVSPropertyOp11
 70
     1
102
RTVSPropertyOp12
 70
     1
102
RTVSPropertyOp13
 70
     1
102
RTVSPropertyOp14
 70
     1
102
RTVSPropertyOp15
 70
     1
102
RTVSPropertyOp16
 70
     1
102
RTVSPropertyOp17
 70
     1
102
RTVSPropertyOp18
 70
     1
102
RTVSPropertyOp19
 70
     1
102
RTVSPropertyOp20
 70
     1
102
RTVSPropertyOp21
 70
     1
102
RTVSPropertyOp22
 70
     1
102
RTVSPropertyOp23
 70
     1
102
RTVSPropertyOp24
 70
     1
102
RTVSPropertyOp25
 70
     1
102
RTVSPropertyOp26
 70
     1
102
RTVSPropertyOp27
 70
     1
102
RTVSPropertyOp28
 70
     1
102
RTVSPropertyOp29
 70
     1
102
RTVSPropertyOp30
 70
     1
102
RTVSPropertyOp31
 70
     1
102
RTVSPropertyOp32
 70
     1
102
RTVSPropertyOp33
 70
     1
102
RTVSPropertyOp34
 70
     1
102
RTVSPropertyOp35
 70
     1
102
RTVSPropertyOp36
 70
     1
102
RTVSPropertyOp37
 70
     1
102
RTVSPropertyOp38
 70
     1
102
RTVSPropertyOp39
 70
     1
102
RTVSPropertyOp40
 70
     1
102
RTVSPropertyOp41
 70
     1
102
RTVSPropertyOp42
 70
     1
102
RTVSPropertyOp43
 70
     1
102
RTVSPropertyOp44
 70
     1
102
RTVSPropertyOp45
 70
     1
102
RTVSPropertyOp46
 70
     1
102
RTVSPropertyOp47
 70
     1
102
RTVSPropertyOp48
 70
     1
102
RTVSPropertyOp49
 70
     1
102
RTVSPropertyOp50
 70
     1
102
RTVSPropertyOp51
 70
     0
102
RTVSPropertyOp52
 70
     0
102
RTVSPropertyOp53
 70
     1
102
RTVSPropertyOp54
 70
     1
102
RTVSPropertyOp55
 70
     1
102
RTVSPropertyOp56
 70
     1
102
RTVSPropertyOp57
 70
     1
102
RTVSPost2010Prop28
280
     0
102
RTVSPost2010PropOp28
 70
     1
102
RTVSPost2010Prop29
280
     1
102
RTVSPost2010PropOp29
 70
     1
102
RTVSPost2010Prop30
280
     1
102
RTVSPost2010PropOp30
 70
     1
102
RTVSPost2010Prop31
280
     0
102
RTVSPost2010PropOp31
 70
     1
102
RTVSPost2010Prop32
280
     0
102
RTVSPost2010PropOp32
 70
     1
102
RTVSPost2010Prop33
280
     0
102
RTVSPost2010PropOp33
 70
     1
102
RTVSPost2010Prop34
280
     0
102
RTVSPost2010PropOp34
 70
     1
102
RTVSPost2010Prop35
280
     0
102
RTVSPost2010PropOp35
 70
     1
102
RTVSPost2010Prop36
280
     0
102
RTVSPost2010PropOp36
 70
     1
102
RTVSPost2010Prop37
 90
       50
102
RTVSPost2010PropOp37
 70
     1
102
RTVSPost2010Prop38
140
0.0
102
RTVSPost2010PropOp38
 70
     1
102
RTVSPost2010Prop39
140
1.0
102
RTVSPost2010PropOp39
 70
     1
102
RTVSPost2010Prop40
 90
        0
102
RTVSPost2010PropOp40
 70
     1
102
RTVSPost2010Prop41ColorIndex
 90
       18
102
RTVSPost2010Prop41ColorRGB
 90
        0
102
RTVSPost2010PropOp41
 70
     1
102
RTVSPost2010Prop42
 90
       50
102
RTVSPost2010PropOp42
 70
     1
102
RTVSPost2010Prop43
 90
        3
102
RTVSPost2010PropOp43
 70
     1
102
RTVSPost2010Prop44ColorIndex
 90
        5
102
RTVSPost2010Prop44ColorRGB
 90
      255
102
RTVSPost2010PropOp44
 70
     1
102
RTVSPost2010Prop45
280
     0
102
RTVSPost2010PropOp45
 70
     1
102
RTVSPost2010Prop46
 90
       50
102
RTVSPost2010PropOp46
 70
     1
102
RTVSPost2010Prop47
 90
       50
102
RTVSPost2010PropOp47
 70
     1
102
RTVSPost2010Prop48
 90
       50
102
RTVSPost2010PropOp48
 70
     1
102
RTVSPost2010Prop49
280
     0
102
RTVSPost2010PropOp49
 70
     1
102
RTVSPost2010Prop50
 90
       50
102
RTVSPost2010PropOp50
 70
     1
102
RTVSPost2010Prop51ColorIndex
 90
      256
102
RTVSPost2010Prop51ColorRGB
 90
-16777216
102
RTVSPost2010PropOp51
 70
     0
102
RTVSPost2010Prop52
140
1.0
102
RTVSPost2010PropOp52
 70
     0
102
RTVSPost2010Prop53
 90
        2
102
RTVSPost2010PropOp53
 70
     1
102
RTVSPost2010Prop54
  1
strokes_ogs.tif
102
RTVSPost2010PropOp54
 70
     1
102
RTVSPost2010Prop55
280
     0
102
RTVSPost2010PropOp55
 70
     1
102
RTVSPost2010Prop56
140
1.0
102
RTVSPost2010PropOp56
 70
     1
102
RTVSPost2010Prop57
140
1.0
102
RTVSPost2010PropOp57
 70
     1
  0
XRECORD
  5
42A
102
{ACAD_REACTORS
330
429
102
}
330
429
100
AcDbXrecord
280
     1
102
RTVSPropertyOp0
 70
     1
102
RTVSPropertyOp1
 70
     1
102
RTVSPropertyOp2
 70
     1
102
RTVSPropertyOp3
 70
     1
102
RTVSPropertyOp4
 70
     1
102
RTVSPropertyOp5
 70
     1
102
RTVSPropertyOp6
 70
     1
102
RTVSPropertyOp7
 70
     1
102
RTVSPropertyOp8
 70
     1
102
RTVSPropertyOp9
 70
     1
102
RTVSPropertyOp10
 70
     1
102
RTVSPropertyOp11
 70
     1
102
RTVSPropertyOp12
 70
     1
102
RTVSPropertyOp13
 70
     1
102
RTVSPropertyOp14
 70
     1
102
RTVSPropertyOp15
 70
     1
102
RTVSPropertyOp16
 70
     1
102
RTVSPropertyOp17
 70
     1
102
RTVSPropertyOp18
 70
     1
102
RTVSPropertyOp19
 70
     1
102
RTVSPropertyOp20
 70
     1
102
RTVSPropertyOp21
 70
     1
102
RTVSPropertyOp22
 70
     1
102
RTVSPropertyOp23
 70
     1
102
RTVSPropertyOp24
 70
     1
102
RTVSPropertyOp25
 70
     1
102
RTVSPropertyOp26
 70
     1
102
RTVSPropertyOp27
 70
     1
102
RTVSPropertyOp28
 70
     1
102
RTVSPropertyOp29
 70
     1
102
RTVSPropertyOp30
 70
     1
102
RTVSPropertyOp31
 70
     1
102
RTVSPropertyOp32
 70
     1
102
RTVSPropertyOp33
 70
     1
102
RTVSPropertyOp34
 70
     1
102
RTVSPropertyOp35
 70
     1
102
RTVSPropertyOp36
 70
     1
102
RTVSPropertyOp37
 70
     1
102
RTVSPropertyOp38
 70
     1
102
RTVSPropertyOp39
 70
     1
102
RTVSPropertyOp40
 70
     1
102
RTVSPropertyOp41
 70
     1
102
RTVSPropertyOp42
 70
     1
102
RTVSPropertyOp43
 70
     1
102
RTVSPropertyOp44
 70
     1
102
RTVSPropertyOp45
 70
     1
102
RTVSPropertyOp46
 70
     1
102
RTVSPropertyOp47
 70
     1
102
RTVSPropertyOp48
 70
     1
102
RTVSPropertyOp49
 70
     1
102
RTVSPropertyOp50
 70
     1
102
RTVSPropertyOp51
 70
     0
102
RTVSPropertyOp52
 70
     0
102
RTVSPropertyOp53
 70
     1
102
RTVSPropertyOp54
 70
     1
102
RTVSPropertyOp55
 70
     1
102
RTVSPropertyOp56
 70
     1
102
RTVSPropertyOp57
 70
     1
102
RTVSPost2010Prop28
280
     0
102
RTVSPost2010PropOp28
 70
     1
102
RTVSPost2010Prop29
280
     1
102
RTVSPost2010PropOp29
 70
     1
102
RTVSPost2010Prop30
280
     1
102
RTVSPost2010PropOp30
 70
     1
102
RTVSPost2010Prop31
280
     0
102
RTVSPost2010PropOp31
 70
     1
102
RTVSPost2010Prop32
280
     0
102
RTVSPost2010PropOp32
 70
     1
102
RTVSPost2010Prop33
280
     0
102
RTVSPost2010PropOp33
 70
     1
102
RTVSPost2010Prop34
280
     0
102
RTVSPost2010PropOp34
 70
     1
102
RTVSPost2010Prop35
280
     0
102
RTVSPost2010PropOp35
 70
     1
102
RTVSPost2010Prop36
280
     0
102
RTVSPost2010PropOp36
 70
     1
102
RTVSPost2010Prop37
 90
       50
102
RTVSPost2010PropOp37
 70
     1
102
RTVSPost2010Prop38
140
0.0
102
RTVSPost2010PropOp38
 70
     1
102
RTVSPost2010Prop39
140
1.0
102
RTVSPost2010PropOp39
 70
     1
102
RTVSPost2010Prop40
 90
        0
102
RTVSPost2010PropOp40
 70
     1
102
RTVSPost2010Prop41ColorIndex
 90
       18
102
RTVSPost2010Prop41ColorRGB
 90
        0
102
RTVSPost2010PropOp41
 70
     1
102
RTVSPost2010Prop42
 90
       50
102
RTVSPost2010PropOp42
 70
     1
102
RTVSPost2010Prop43
 90
        3
102
RTVSPost2010PropOp43
 70
     1
102
RTVSPost2010Prop44ColorIndex
 90
        5
102
RTVSPost2010Prop44ColorRGB
 90
      255
102
RTVSPost2010PropOp44
 70
     1
102
RTVSPost2010Prop45
280
     0
102
RTVSPost2010PropOp45
 70
     1
102
RTVSPost2010Prop46
 90
       50
102
RTVSPost2010PropOp46
 70
     1
102
RTVSPost2010Prop47
 90
       50
102
RTVSPost2010PropOp47
 70
     1
102
RTVSPost2010Prop48
 90
       50
102
RTVSPost2010PropOp48
 70
     1
102
RTVSPost2010Prop49
280
     0
102
RTVSPost2010PropOp49
 70
     1
102
RTVSPost2010Prop50
 90
       50
102
RTVSPost2010PropOp50
 70
     1
102
RTVSPost2010Prop51ColorIndex
 90
      256
102
RTVSPost2010Prop51ColorRGB
 90
-16777216
102
RTVSPost2010PropOp51
 70
     0
102
RTVSPost2010Prop52
140
1.0
102
RTVSPost2010PropOp52
 70
     0
102
RTVSPost2010Prop53
 90
        2
102
RTVSPost2010PropOp53
 70
     1
102
RTVSPost2010Prop54
  1
strokes_ogs.tif
102
RTVSPost2010PropOp54
 70
     1
102
RTVSPost2010Prop55
280
     0
102
RTVSPost2010PropOp55
 70
     1
102
RTVSPost2010Prop56
140
1.0
102
RTVSPost2010PropOp56
 70
     1
102
RTVSPost2010Prop57
140
1.0
102
RTVSPost2010PropOp57
 70
     1
  0
XRECORD
  5
42C
102
{ACAD_REACTORS
330
42B
102
}
330
42B
100
AcDbXrecord
280
     1
102
RTVSPropertyOp0
 70
     1
102
RTVSPropertyOp1
 70
     1
102
RTVSPropertyOp2
 70
     1
102
RTVSPropertyOp3
 70
     1
102
RTVSPropertyOp4
 70
     1
102
RTVSPropertyOp5
 70
     1
102
RTVSPropertyOp6
 70
     1
102
RTVSPropertyOp7
 70
     1
102
RTVSPropertyOp8
 70
     1
102
RTVSPropertyOp9
 70
     1
102
RTVSPropertyOp10
 70
     1
102
RTVSPropertyOp11
 70
     1
102
RTVSPropertyOp12
 70
     1
102
RTVSPropertyOp13
 70
     1
102
RTVSPropertyOp14
 70
     1
102
RTVSPropertyOp15
 70
     1
102
RTVSPropertyOp16
 70
     1
102
RTVSPropertyOp17
 70
     1
102
RTVSPropertyOp18
 70
     1
102
RTVSPropertyOp19
 70
     1
102
RTVSPropertyOp20
 70
     1
102
RTVSPropertyOp21
 70
     1
102
RTVSPropertyOp22
 70
     1
102
RTVSPropertyOp23
 70
     1
102
RTVSPropertyOp24
 70
     1
102
RTVSPropertyOp25
 70
     1
102
RTVSPropertyOp26
 70
     1
102
RTVSPropertyOp27
 70
     1
102
RTVSPropertyOp28
 70
     1
102
RTVSPropertyOp29
 70
     1
102
RTVSPropertyOp30
 70
     1
102
RTVSPropertyOp31
 70
     1
102
RTVSPropertyOp32
 70
     1
102
RTVSPropertyOp33
 70
     1
102
RTVSPropertyOp34
 70
     1
102
RTVSPropertyOp35
 70
     1
102
RTVSPropertyOp36
 70
     1
102
RTVSPropertyOp37
 70
     1
102
RTVSPropertyOp38
 70
     1
102
RTVSPropertyOp39
 70
     1
102
RTVSPropertyOp40
 70
     1
102
RTVSPropertyOp41
 70
     1
102
RTVSPropertyOp42
 70
     1
102
RTVSPropertyOp43
 70
     1
102
RTVSPropertyOp44
 70
     1
102
RTVSPropertyOp45
 70
     1
102
RTVSPropertyOp46
 70
     1
102
RTVSPropertyOp47
 70
     1
102
RTVSPropertyOp48
 70
     1
102
RTVSPropertyOp49
 70
     1
102
RTVSPropertyOp50
 70
     1
102
RTVSPropertyOp51
 70
     0
102
RTVSPropertyOp52
 70
     0
102
RTVSPropertyOp53
 70
     1
102
RTVSPropertyOp54
 70
     1
102
RTVSPropertyOp55
 70
     1
102
RTVSPropertyOp56
 70
     1
102
RTVSPropertyOp57
 70
     1
102
RTVSPost2010Prop28
280
     0
102
RTVSPost2010PropOp28
 70
     1
102
RTVSPost2010Prop29
280
     1
102
RTVSPost2010PropOp29
 70
     1
102
RTVSPost2010Prop30
280
     1
102
RTVSPost2010PropOp30
 70
     1
102
RTVSPost2010Prop31
280
     0
102
RTVSPost2010PropOp31
 70
     1
102
RTVSPost2010Prop32
280
     0
102
RTVSPost2010PropOp32
 70
     1
102
RTVSPost2010Prop33
280
     0
102
RTVSPost2010PropOp33
 70
     1
102
RTVSPost2010Prop34
280
     0
102
RTVSPost2010PropOp34
 70
     1
102
RTVSPost2010Prop35
280
     0
102
RTVSPost2010PropOp35
 70
     1
102
RTVSPost2010Prop36
280
     0
102
RTVSPost2010PropOp36
 70
     1
102
RTVSPost2010Prop37
 90
       50
102
RTVSPost2010PropOp37
 70
     1
102
RTVSPost2010Prop38
140
0.0
102
RTVSPost2010PropOp38
 70
     1
102
RTVSPost2010Prop39
140
1.0
102
RTVSPost2010PropOp39
 70
     1
102
RTVSPost2010Prop40
 90
        0
102
RTVSPost2010PropOp40
 70
     1
102
RTVSPost2010Prop41ColorIndex
 90
       18
102
RTVSPost2010Prop41ColorRGB
 90
        0
102
RTVSPost2010PropOp41
 70
     1
102
RTVSPost2010Prop42
 90
       50
102
RTVSPost2010PropOp42
 70
     1
102
RTVSPost2010Prop43
 90
        3
102
RTVSPost2010PropOp43
 70
     1
102
RTVSPost2010Prop44ColorIndex
 90
        5
102
RTVSPost2010Prop44ColorRGB
 90
      255
102
RTVSPost2010PropOp44
 70
     1
102
RTVSPost2010Prop45
280
     0
102
RTVSPost2010PropOp45
 70
     1
102
RTVSPost2010Prop46
 90
       50
102
RTVSPost2010PropOp46
 70
     1
102
RTVSPost2010Prop47
 90
       50
102
RTVSPost2010PropOp47
 70
     1
102
RTVSPost2010Prop48
 90
       50
102
RTVSPost2010PropOp48
 70
     1
102
RTVSPost2010Prop49
280
     0
102
RTVSPost2010PropOp49
 70
     1
102
RTVSPost2010Prop50
 90
       50
102
RTVSPost2010PropOp50
 70
     1
102
RTVSPost2010Prop51ColorIndex
 90
      256
102
RTVSPost2010Prop51ColorRGB
 90
-16777216
102
RTVSPost2010PropOp51
 70
     0
102
RTVSPost2010Prop52
140
1.0
102
RTVSPost2010PropOp52
 70
     0
102
RTVSPost2010Prop53
 90
        2
102
RTVSPost2010PropOp53
 70
     1
102
RTVSPost2010Prop54
  1
strokes_ogs.tif
102
RTVSPost2010PropOp54
 70
     1
102
RTVSPost2010Prop55
280
     0
102
RTVSPost2010PropOp55
 70
     1
102
RTVSPost2010Prop56
140
1.0
102
RTVSPost2010PropOp56
 70
     1
102
RTVSPost2010Prop57
140
1.0
102
RTVSPost2010PropOp57
 70
     1
  0
XRECORD
  5
41C
102
{ACAD_REACTORS
330
41B
102
}
330
41B
100
AcDbXrecord
280
     1
102
RTVSPropertyOp0
 70
     1
102
RTVSPropertyOp1
 70
     1
102
RTVSPropertyOp2
 70
     1
102
RTVSPropertyOp3
 70
     1
102
RTVSPropertyOp4
 70
     1
102
RTVSPropertyOp5
 70
     1
102
RTVSPropertyOp6
 70
     1
102
RTVSPropertyOp7
 70
     1
102
RTVSPropertyOp8
 70
     1
102
RTVSPropertyOp9
 70
     1
102
RTVSPropertyOp10
 70
     1
102
RTVSPropertyOp11
 70
     1
102
RTVSPropertyOp12
 70
     1
102
RTVSPropertyOp13
 70
     1
102
RTVSPropertyOp14
 70
     1
102
RTVSPropertyOp15
 70
     1
102
RTVSPropertyOp16
 70
     1
102
RTVSPropertyOp17
 70
     1
102
RTVSPropertyOp18
 70
     1
102
RTVSPropertyOp19
 70
     1
102
RTVSPropertyOp20
 70
     1
102
RTVSPropertyOp21
 70
     1
102
RTVSPropertyOp22
 70
     1
102
RTVSPropertyOp23
 70
     1
102
RTVSPropertyOp24
 70
     1
102
RTVSPropertyOp25
 70
     1
102
RTVSPropertyOp26
 70
     1
102
RTVSPropertyOp27
 70
     1
102
RTVSPropertyOp28
 70
     1
102
RTVSPropertyOp29
 70
     1
102
RTVSPropertyOp30
 70
     1
102
RTVSPropertyOp31
 70
     1
102
RTVSPropertyOp32
 70
     1
102
RTVSPropertyOp33
 70
     1
102
RTVSPropertyOp34
 70
     1
102
RTVSPropertyOp35
 70
     1
102
RTVSPropertyOp36
 70
     1
102
RTVSPropertyOp37
 70
     1
102
RTVSPropertyOp38
 70
     1
102
RTVSPropertyOp39
 70
     1
102
RTVSPropertyOp40
 70
     1
102
RTVSPropertyOp41
 70
     1
102
RTVSPropertyOp42
 70
     1
102
RTVSPropertyOp43
 70
     1
102
RTVSPropertyOp44
 70
     1
102
RTVSPropertyOp45
 70
     1
102
RTVSPropertyOp46
 70
     1
102
RTVSPropertyOp47
 70
     1
102
RTVSPropertyOp48
 70
     1
102
RTVSPropertyOp49
 70
     1
102
RTVSPropertyOp50
 70
     1
102
RTVSPropertyOp51
 70
     0
102
RTVSPropertyOp52
 70
     0
102
RTVSPropertyOp53
 70
     1
102
RTVSPropertyOp54
 70
     1
102
RTVSPropertyOp55
 70
     1
102
RTVSPropertyOp56
 70
     1
102
RTVSPropertyOp57
 70
     1
102
RTVSPost2010Prop28
280
     0
102
RTVSPost2010PropOp28
 70
     1
102
RTVSPost2010Prop29
280
     1
102
RTVSPost2010PropOp29
 70
     1
102
RTVSPost2010Prop30
280
     1
102
RTVSPost2010PropOp30
 70
     1
102
RTVSPost2010Prop31
280
     0
102
RTVSPost2010PropOp31
 70
     1
102
RTVSPost2010Prop32
280
     0
102
RTVSPost2010PropOp32
 70
     1
102
RTVSPost2010Prop33
280
     0
102
RTVSPost2010PropOp33
 70
     1
102
RTVSPost2010Prop34
280
     0
102
RTVSPost2010PropOp34
 70
     1
102
RTVSPost2010Prop35
280
     0
102
RTVSPost2010PropOp35
 70
     1
102
RTVSPost2010Prop36
280
     0
102
RTVSPost2010PropOp36
 70
     1
102
RTVSPost2010Prop37
 90
       50
102
RTVSPost2010PropOp37
 70
     1
102
RTVSPost2010Prop38
140
0.0
102
RTVSPost2010PropOp38
 70
     1
102
RTVSPost2010Prop39
140
1.0
102
RTVSPost2010PropOp39
 70
     1
102
RTVSPost2010Prop40
 90
        0
102
RTVSPost2010PropOp40
 70
     1
102
RTVSPost2010Prop41ColorIndex
 90
       18
102
RTVSPost2010Prop41ColorRGB
 90
        0
102
RTVSPost2010PropOp41
 70
     1
102
RTVSPost2010Prop42
 90
       50
102
RTVSPost2010PropOp42
 70
     1
102
RTVSPost2010Prop43
 90
        3
102
RTVSPost2010PropOp43
 70
     1
102
RTVSPost2010Prop44ColorIndex
 90
        5
102
RTVSPost2010Prop44ColorRGB
 90
      255
102
RTVSPost2010PropOp44
 70
     1
102
RTVSPost2010Prop45
280
     0
102
RTVSPost2010PropOp45
 70
     1
102
RTVSPost2010Prop46
 90
       50
102
RTVSPost2010PropOp46
 70
     1
102
RTVSPost2010Prop47
 90
       50
102
RTVSPost2010PropOp47
 70
     1
102
RTVSPost2010Prop48
 90
       50
102
RTVSPost2010PropOp48
 70
     1
102
RTVSPost2010Prop49
280
     0
102
RTVSPost2010PropOp49
 70
     1
102
RTVSPost2010Prop50
 90
       50
102
RTVSPost2010PropOp50
 70
     1
102
RTVSPost2010Prop51ColorIndex
 90
      256
102
RTVSPost2010Prop51ColorRGB
 90
-16777216
102
RTVSPost2010PropOp51
 70
     0
102
RTVSPost2010Prop52
140
1.0
102
RTVSPost2010PropOp52
 70
     0
102
RTVSPost2010Prop53
 90
        2
102
RTVSPost2010PropOp53
 70
     1
102
RTVSPost2010Prop54
  1
strokes_ogs.tif
102
RTVSPost2010PropOp54
 70
     1
102
RTVSPost2010Prop55
280
     0
102
RTVSPost2010PropOp55
 70
     1
102
RTVSPost2010Prop56
140
1.0
102
RTVSPost2010PropOp56
 70
     1
102
RTVSPost2010Prop57
140
1.0
102
RTVSPost2010PropOp57
 70
     1
  0
XRECORD
  5
40E
102
{ACAD_REACTORS
330
40D
102
}
330
40D
100
AcDbXrecord
280
     1
102
RTVSPropertyOp0
 70
     1
102
RTVSPropertyOp1
 70
     1
102
RTVSPropertyOp2
 70
     1
102
RTVSPropertyOp3
 70
     1
102
RTVSPropertyOp4
 70
     1
102
RTVSPropertyOp5
 70
     1
102
RTVSPropertyOp6
 70
     1
102
RTVSPropertyOp7
 70
     1
102
RTVSPropertyOp8
 70
     1
102
RTVSPropertyOp9
 70
     1
102
RTVSPropertyOp10
 70
     1
102
RTVSPropertyOp11
 70
     1
102
RTVSPropertyOp12
 70
     1
102
RTVSPropertyOp13
 70
     1
102
RTVSPropertyOp14
 70
     1
102
RTVSPropertyOp15
 70
     1
102
RTVSPropertyOp16
 70
     1
102
RTVSPropertyOp17
 70
     1
102
RTVSPropertyOp18
 70
     1
102
RTVSPropertyOp19
 70
     1
102
RTVSPropertyOp20
 70
     1
102
RTVSPropertyOp21
 70
     1
102
RTVSPropertyOp22
 70
     1
102
RTVSPropertyOp23
 70
     1
102
RTVSPropertyOp24
 70
     1
102
RTVSPropertyOp25
 70
     1
102
RTVSPropertyOp26
 70
     1
102
RTVSPropertyOp27
 70
     1
102
RTVSPropertyOp28
 70
     1
102
RTVSPropertyOp29
 70
     1
102
RTVSPropertyOp30
 70
     1
102
RTVSPropertyOp31
 70
     1
102
RTVSPropertyOp32
 70
     1
102
RTVSPropertyOp33
 70
     1
102
RTVSPropertyOp34
 70
     1
102
RTVSPropertyOp35
 70
     1
102
RTVSPropertyOp36
 70
     1
102
RTVSPropertyOp37
 70
     1
102
RTVSPropertyOp38
 70
     1
102
RTVSPropertyOp39
 70
     1
102
RTVSPropertyOp40
 70
     1
102
RTVSPropertyOp41
 70
     1
102
RTVSPropertyOp42
 70
     1
102
RTVSPropertyOp43
 70
     1
102
RTVSPropertyOp44
 70
     1
102
RTVSPropertyOp45
 70
     1
102
RTVSPropertyOp46
 70
     1
102
RTVSPropertyOp47
 70
     1
102
RTVSPropertyOp48
 70
     1
102
RTVSPropertyOp49
 70
     1
102
RTVSPropertyOp50
 70
     1
102
RTVSPropertyOp51
 70
     0
102
RTVSPropertyOp52
 70
     0
102
RTVSPropertyOp53
 70
     1
102
RTVSPropertyOp54
 70
     1
102
RTVSPropertyOp55
 70
     1
102
RTVSPropertyOp56
 70
     1
102
RTVSPropertyOp57
 70
     1
102
RTVSPost2010Prop28
280
     0
102
RTVSPost2010PropOp28
 70
     1
102
RTVSPost2010Prop29
280
     1
102
RTVSPost2010PropOp29
 70
     1
102
RTVSPost2010Prop30
280
     1
102
RTVSPost2010PropOp30
 70
     1
102
RTVSPost2010Prop31
280
     0
102
RTVSPost2010PropOp31
 70
     1
102
RTVSPost2010Prop32
280
     0
102
RTVSPost2010PropOp32
 70
     1
102
RTVSPost2010Prop33
280
     0
102
RTVSPost2010PropOp33
 70
     1
102
RTVSPost2010Prop34
280
     0
102
RTVSPost2010PropOp34
 70
     1
102
RTVSPost2010Prop35
280
     0
102
RTVSPost2010PropOp35
 70
     1
102
RTVSPost2010Prop36
280
     0
102
RTVSPost2010PropOp36
 70
     1
102
RTVSPost2010Prop37
 90
       50
102
RTVSPost2010PropOp37
 70
     1
102
RTVSPost2010Prop38
140
0.0
102
RTVSPost2010PropOp38
 70
     1
102
RTVSPost2010Prop39
140
1.0
102
RTVSPost2010PropOp39
 70
     1
102
RTVSPost2010Prop40
 90
        0
102
RTVSPost2010PropOp40
 70
     1
102
RTVSPost2010Prop41ColorIndex
 90
       18
102
RTVSPost2010Prop41ColorRGB
 90
        0
102
RTVSPost2010PropOp41
 70
     1
102
RTVSPost2010Prop42
 90
       50
102
RTVSPost2010PropOp42
 70
     1
102
RTVSPost2010Prop43
 90
        3
102
RTVSPost2010PropOp43
 70
     1
102
RTVSPost2010Prop44ColorIndex
 90
        5
102
RTVSPost2010Prop44ColorRGB
 90
      255
102
RTVSPost2010PropOp44
 70
     1
102
RTVSPost2010Prop45
280
     0
102
RTVSPost2010PropOp45
 70
     1
102
RTVSPost2010Prop46
 90
       50
102
RTVSPost2010PropOp46
 70
     1
102
RTVSPost2010Prop47
 90
       50
102
RTVSPost2010PropOp47
 70
     1
102
RTVSPost2010Prop48
 90
       50
102
RTVSPost2010PropOp48
 70
     1
102
RTVSPost2010Prop49
280
     0
102
RTVSPost2010PropOp49
 70
     1
102
RTVSPost2010Prop50
 90
       50
102
RTVSPost2010PropOp50
 70
     1
102
RTVSPost2010Prop51ColorIndex
 90
      256
102
RTVSPost2010Prop51ColorRGB
 90
-16777216
102
RTVSPost2010PropOp51
 70
     0
102
RTVSPost2010Prop52
140
1.0
102
RTVSPost2010PropOp52
 70
     0
102
RTVSPost2010Prop53
 90
        2
102
RTVSPost2010PropOp53
 70
     1
102
RTVSPost2010Prop54
  1
strokes_ogs.tif
102
RTVSPost2010PropOp54
 70
     1
102
RTVSPost2010Prop55
280
     0
102
RTVSPost2010PropOp55
 70
     1
102
RTVSPost2010Prop56
140
1.0
102
RTVSPost2010PropOp56
 70
     1
102
RTVSPost2010Prop57
140
1.0
102
RTVSPost2010PropOp57
 70
     1
  0
XRECORD
  5
42E
102
{ACAD_REACTORS
330
42D
102
}
330
42D
100
AcDbXrecord
280
     1
102
RTVSPropertyOp0
 70
     1
102
RTVSPropertyOp1
 70
     1
102
RTVSPropertyOp2
 70
     1
102
RTVSPropertyOp3
 70
     1
102
RTVSPropertyOp4
 70
     1
102
RTVSPropertyOp5
 70
     1
102
RTVSPropertyOp6
 70
     1
102
RTVSPropertyOp7
 70
     1
102
RTVSPropertyOp8
 70
     1
102
RTVSPropertyOp9
 70
     1
102
RTVSPropertyOp10
 70
     1
102
RTVSPropertyOp11
 70
     1
102
RTVSPropertyOp12
 70
     1
102
RTVSPropertyOp13
 70
     1
102
RTVSPropertyOp14
 70
     1
102
RTVSPropertyOp15
 70
     1
102
RTVSPropertyOp16
 70
     1
102
RTVSPropertyOp17
 70
     1
102
RTVSPropertyOp18
 70
     1
102
RTVSPropertyOp19
 70
     1
102
RTVSPropertyOp20
 70
     1
102
RTVSPropertyOp21
 70
     1
102
RTVSPropertyOp22
 70
     1
102
RTVSPropertyOp23
 70
     1
102
RTVSPropertyOp24
 70
     1
102
RTVSPropertyOp25
 70
     1
102
RTVSPropertyOp26
 70
     1
102
RTVSPropertyOp27
 70
     1
102
RTVSPropertyOp28
 70
     1
102
RTVSPropertyOp29
 70
     1
102
RTVSPropertyOp30
 70
     1
102
RTVSPropertyOp31
 70
     1
102
RTVSPropertyOp32
 70
     1
102
RTVSPropertyOp33
 70
     1
102
RTVSPropertyOp34
 70
     1
102
RTVSPropertyOp35
 70
     1
102
RTVSPropertyOp36
 70
     1
102
RTVSPropertyOp37
 70
     1
102
RTVSPropertyOp38
 70
     1
102
RTVSPropertyOp39
 70
     1
102
RTVSPropertyOp40
 70
     1
102
RTVSPropertyOp41
 70
     1
102
RTVSPropertyOp42
 70
     1
102
RTVSPropertyOp43
 70
     1
102
RTVSPropertyOp44
 70
     1
102
RTVSPropertyOp45
 70
     1
102
RTVSPropertyOp46
 70
     1
102
RTVSPropertyOp47
 70
     1
102
RTVSPropertyOp48
 70
     1
102
RTVSPropertyOp49
 70
     1
102
RTVSPropertyOp50
 70
     1
102
RTVSPropertyOp51
 70
     0
102
RTVSPropertyOp52
 70
     0
102
RTVSPropertyOp53
 70
     1
102
RTVSPropertyOp54
 70
     1
102
RTVSPropertyOp55
 70
     1
102
RTVSPropertyOp56
 70
     1
102
RTVSPropertyOp57
 70
     1
102
RTVSPost2010Prop28
280
     0
102
RTVSPost2010PropOp28
 70
     1
102
RTVSPost2010Prop29
280
     1
102
RTVSPost2010PropOp29
 70
     1
102
RTVSPost2010Prop30
280
     1
102
RTVSPost2010PropOp30
 70
     1
102
RTVSPost2010Prop31
280
     0
102
RTVSPost2010PropOp31
 70
     1
102
RTVSPost2010Prop32
280
     0
102
RTVSPost2010PropOp32
 70
     1
102
RTVSPost2010Prop33
280
     0
102
RTVSPost2010PropOp33
 70
     1
102
RTVSPost2010Prop34
280
     0
102
RTVSPost2010PropOp34
 70
     1
102
RTVSPost2010Prop35
280
     0
102
RTVSPost2010PropOp35
 70
     1
102
RTVSPost2010Prop36
280
     0
102
RTVSPost2010PropOp36
 70
     1
102
RTVSPost2010Prop37
 90
       50
102
RTVSPost2010PropOp37
 70
     1
102
RTVSPost2010Prop38
140
0.0
102
RTVSPost2010PropOp38
 70
     1
102
RTVSPost2010Prop39
140
1.0
102
RTVSPost2010PropOp39
 70
     1
102
RTVSPost2010Prop40
 90
        0
102
RTVSPost2010PropOp40
 70
     1
102
RTVSPost2010Prop41ColorIndex
 90
       18
102
RTVSPost2010Prop41ColorRGB
 90
        0
102
RTVSPost2010PropOp41
 70
     1
102
RTVSPost2010Prop42
 90
       50
102
RTVSPost2010PropOp42
 70
     1
102
RTVSPost2010Prop43
 90
        3
102
RTVSPost2010PropOp43
 70
     1
102
RTVSPost2010Prop44ColorIndex
 90
        5
102
RTVSPost2010Prop44ColorRGB
 90
      255
102
RTVSPost2010PropOp44
 70
     1
102
RTVSPost2010Prop45
280
     0
102
RTVSPost2010PropOp45
 70
     1
102
RTVSPost2010Prop46
 90
       50
102
RTVSPost2010PropOp46
 70
     1
102
RTVSPost2010Prop47
 90
       50
102
RTVSPost2010PropOp47
 70
     1
102
RTVSPost2010Prop48
 90
       50
102
RTVSPost2010PropOp48
 70
     1
102
RTVSPost2010Prop49
280
     0
102
RTVSPost2010PropOp49
 70
     1
102
RTVSPost2010Prop50
 90
       50
102
RTVSPost2010PropOp50
 70
     1
102
RTVSPost2010Prop51ColorIndex
 90
      256
102
RTVSPost2010Prop51ColorRGB
 90
-16777216
102
RTVSPost2010PropOp51
 70
     0
102
RTVSPost2010Prop52
140
1.0
102
RTVSPost2010PropOp52
 70
     0
102
RTVSPost2010Prop53
 90
        2
102
RTVSPost2010PropOp53
 70
     1
102
RTVSPost2010Prop54
  1
strokes_ogs.tif
102
RTVSPost2010PropOp54
 70
     1
102
RTVSPost2010Prop55
280
     0
102
RTVSPost2010PropOp55
 70
     1
102
RTVSPost2010Prop56
140
1.0
102
RTVSPost2010PropOp56
 70
     1
102
RTVSPost2010Prop57
140
1.0
102
RTVSPost2010PropOp57
 70
     1
  0
ENDSEC
  0
EOF
