999
"DXF R12 Output" (www.mydxf.blogspot.com)
 0 
SECTION
 2 
HEADER
 9 
$ACADVER
 1 
AC1009
 9 
$EXTMIN
 10 
 0 
 20 
 0 
 9 
$EXTMAX
 10 
 8.5 
 20 
 11 
 0 
ENDSEC
 0 
SECTION
 2 
ENTITIES
0
LINE
8
Layer 1
10
3.000000
20
300.000000
11
-3.000000
21
294.000000
0
LINE
8
Layer 1
10
0.000000
20
302.000000
11
0.000000
21
292.000000
0
LINE
8
Layer 1
10
8.000000
20
293.000000
11
4.000000
21
289.000000
0
LINE
8
Layer 1
10
6.000000
20
295.000000
11
2.000000
21
291.000000
0
LINE
8
Layer 1
10
4.000000
20
297.000000
11
0.000000
21
293.000000
0
LINE
8
Layer 1
10
73.788815
20
55.309780
11
82.946838
21
48.856860
0
LINE
8
Layer 1
10
198.461800
20
113.955470
11
197.592650
21
102.786610
0
LINE
8
Layer 1
10
11.737145
20
114.131680
11
8.411333
21
125.670160
0
LINE
8
Layer 1
10
138.121190
20
47.840860
11
139.158890
21
52.621880
0
LINE
8
Layer 1
10
155.429710
20
75.690110
11
151.490590
21
70.326210
0
LINE
8
Layer 1
10
155.429710
20
75.690110
11
159.587900
21
82.744690
0
LINE
8
Layer 1
10
72.402663
20
217.663670
11
72.175386
21
224.837317
0
LINE
8
Layer 1
10
72.402663
20
217.663670
11
74.839476
21
211.725097
0
LINE
8
Layer 1
10
80.793924
20
244.302448
11
77.259620
21
236.398021
0
LINE
8
Layer 1
10
80.793924
20
244.302448
11
80.855304
21
252.111890
0
LINE
8
Layer 1
10
146.510340
20
147.619200
11
151.544300
21
150.945280
0
LINE
8
Layer 1
10
146.510340
20
147.619200
11
150.093320
21
147.280010
0
LINE
8
Layer 1
10
134.351150
20
191.339220
11
139.141960
21
193.963350
0
LINE
8
Layer 1
10
134.351150
20
191.339220
11
127.996910
21
189.511210
0
LINE
8
Layer 1
10
142.832100
20
197.566714
11
139.141960
21
193.963350
0
LINE
8
Layer 1
10
142.832100
20
197.566714
11
146.146010
21
203.360295
0
LINE
8
Layer 1
10
182.598450
20
124.254380
11
186.156560
21
116.965370
0
LINE
8
Layer 1
10
138.489760
20
267.274102
11
144.952210
21
269.013209
0
LINE
8
Layer 1
10
138.489760
20
267.274102
11
133.521410
21
264.744686
0
LINE
8
Layer 1
10
6.616135
20
132.333690
11
12.323727
21
131.752400
0
LINE
8
Layer 1
10
6.616135
20
132.333690
11
-0.461204
21
131.641280
0
LINE
8
Layer 1
10
160.176600
20
176.358240
11
165.544730
21
181.100370
0
LINE
8
Layer 1
10
160.176600
20
176.358240
11
153.841680
21
172.080990
0
LINE
8
Layer 1
10
126.099320
20
240.691415
11
130.219940
21
232.415249
0
LINE
8
Layer 1
10
126.099320
20
240.691415
11
125.484430
21
246.340005
0
LINE
8
Layer 1
10
207.707670
20
226.506838
11
212.535520
21
225.245834
0
LINE
8
Layer 1
10
207.707670
20
226.506838
11
202.191630
21
226.695478
0
LINE
8
Layer 1
10
112.677270
20
103.186660
11
105.062300
21
103.272960
0
LINE
8
Layer 1
10
112.677270
20
103.186660
11
119.290000
21
102.576800
0
LINE
8
Layer 1
10
157.563040
20
61.929660
11
151.911810
21
59.900830
0
LINE
8
Layer 1
10
151.911810
20
59.900830
11
148.313740
21
57.550800
0
LINE
8
Layer 1
10
148.313740
20
57.550800
11
138.121190
21
47.840860
0
LINE
8
Layer 1
10
38.941339
20
261.039196
11
41.483985
21
265.892977
0
LINE
8
Layer 1
10
38.941339
20
261.039196
11
37.931689
21
255.885377
0
LINE
8
Layer 1
10
-9.527973
20
167.954550
11
-13.582871
21
171.817200
0
LINE
8
Layer 1
10
-9.527973
20
167.954550
11
-3.292828
21
164.869240
0
LINE
8
Layer 1
10
169.852140
20
134.728970
11
173.269240
21
134.497190
0
LINE
8
Layer 1
10
52.322905
20
31.658940
11
56.431884
21
26.795900
0
LINE
8
Layer 1
10
52.322905
20
31.658940
11
50.221849
21
36.191260
0
LINE
8
Layer 1
10
136.726050
20
100.546650
11
143.510230
21
95.974650
0
LINE
8
Layer 1
10
136.726050
20
100.546650
11
126.506510
21
101.984660
0
LINE
8
Layer 1
10
157.563040
20
61.929660
11
164.446710
21
60.268340
0
LINE
8
Layer 1
10
137.170020
20
167.378810
11
138.760430
21
166.763130
0
LINE
8
Layer 1
10
137.170020
20
167.378810
11
137.369780
21
169.333290
0
LINE
8
Layer 1
10
154.534090
20
26.449300
11
146.806670
21
27.687550
0
LINE
8
Layer 1
10
154.534090
20
26.449300
11
162.258600
21
28.396630
0
LINE
8
Layer 1
10
188.565060
20
108.314030
11
186.156560
21
116.965370
0
LINE
8
Layer 1
10
169.852140
20
134.728970
11
164.504650
21
133.623010
0
LINE
8
Layer 1
10
64.576553
20
97.016850
11
60.596691
21
89.591580
0
LINE
8
Layer 1
10
188.565060
20
108.314030
11
192.127150
21
99.775130
0
LINE
8
Layer 1
10
164.812890
20
249.964002
11
164.422890
21
255.550415
0
LINE
8
Layer 1
10
164.812890
20
249.964002
11
163.213750
21
243.193580
0
LINE
8
Layer 1
10
38.275118
20
152.618240
11
33.368156
21
156.723250
0
LINE
8
Layer 1
10
38.275118
20
152.618240
11
44.851337
21
151.476830
0
LINE
8
Layer 1
10
23.701868
20
151.952550
11
19.746083
21
162.495400
0
LINE
8
Layer 1
10
23.701868
20
151.952550
11
29.926191
21
145.529790
0
LINE
8
Layer 1
10
182.493140
20
202.542997
11
185.947540
21
209.182716
0
LINE
8
Layer 1
10
182.493140
20
202.542997
11
180.390500
21
195.437880
0
LINE
8
Layer 1
10
26.902797
20
127.573840
11
19.791856
21
129.852170
0
LINE
8
Layer 1
10
26.902797
20
127.573840
11
33.458643
21
125.122210
0
LINE
8
Layer 1
10
133.521410
20
264.744686
11
129.016880
21
259.184732
0
LINE
8
Layer 1
10
-21.427285
20
108.168770
11
-20.252196
21
102.979500
0
LINE
8
Layer 1
10
-21.427285
20
108.168770
11
-20.916327
21
115.431050
0
LINE
8
Layer 1
10
181.958950
20
214.814372
11
181.921650
21
214.757752
0
LINE
8
Layer 1
10
181.958950
20
214.814372
11
187.005080
21
219.824786
0
LINE
8
Layer 1
10
178.533650
20
187.416770
11
180.390500
21
195.437880
0
LINE
8
Layer 1
10
178.533650
20
187.416770
11
175.359710
21
179.199070
0
LINE
8
Layer 1
10
186.629370
20
140.774700
11
180.173270
21
146.745810
0
LINE
8
Layer 1
10
186.629370
20
140.774700
11
190.124250
21
134.445600
0
LINE
8
Layer 1
10
182.598450
20
124.254380
11
180.286780
21
129.272730
0
LINE
8
Layer 1
10
73.806807
20
78.443360
11
76.089367
21
73.635350
0
LINE
8
Layer 1
10
68.156101
20
240.518907
11
71.280830
21
247.636198
0
LINE
8
Layer 1
10
71.280830
20
247.636198
11
62.797230
21
242.900686
0
LINE
8
Layer 1
10
62.797230
20
242.900686
11
58.732436
21
240.331317
0
LINE
8
Layer 1
10
55.663005
20
53.483630
11
51.424116
21
48.549940
0
LINE
8
Layer 1
10
55.663005
20
53.483630
11
62.515449
21
56.965810
0
LINE
8
Layer 1
10
191.397430
20
126.907090
11
190.124250
21
134.445600
0
LINE
8
Layer 1
10
82.946838
20
48.856860
11
78.925701
21
55.785500
0
LINE
8
Layer 1
10
66.118016
20
138.063250
11
63.027682
21
138.460650
0
LINE
8
Layer 1
10
66.118016
20
138.063250
11
67.735413
21
137.864280
0
LINE
8
Layer 1
10
146.806670
20
27.687550
11
138.082040
21
32.021420
0
LINE
8
Layer 1
10
139.158890
20
52.621880
11
141.712120
21
58.746720
0
LINE
8
Layer 1
10
13.389468
20
109.712350
11
14.189039
21
103.388540
0
LINE
8
Layer 1
10
77.259620
20
236.398021
11
73.002738
21
229.643209
0
LINE
8
Layer 1
10
113.844350
20
193.498480
11
106.119580
21
198.694632
0
LINE
8
Layer 1
10
41.483985
20
265.892977
11
48.385641
21
271.835783
0
LINE
8
Layer 1
10
200.558890
20
118.589380
11
204.374450
21
123.695580
0
LINE
8
Layer 1
10
200.558890
20
118.589380
11
198.461800
21
113.955470
0
LINE
8
Layer 1
10
61.234866
20
24.496670
11
56.431884
21
26.795900
0
LINE
8
Layer 1
10
61.234866
20
24.496670
11
66.365136
21
23.216090
0
LINE
8
Layer 1
10
37.931689
20
255.885377
11
38.657176
21
250.187575
0
LINE
8
Layer 1
10
-0.461204
20
131.641280
11
-4.695067
21
130.814190
0
LINE
8
Layer 1
10
163.213750
20
243.193580
11
158.974860
21
238.258571
0
LINE
8
Layer 1
10
224.956650
20
206.757280
11
224.432770
21
201.604520
0
LINE
8
Layer 1
10
224.956650
20
206.757280
11
223.827140
21
211.894430
0
LINE
8
Layer 1
10
213.253330
20
188.869330
11
206.776860
21
188.267140
0
LINE
8
Layer 1
10
213.253330
20
188.869330
11
219.104590
21
192.628790
0
LINE
8
Layer 1
10
164.446710
20
60.268340
11
169.257360
21
56.464160
0
LINE
8
Layer 1
10
164.504650
20
133.623010
11
157.218820
21
129.129060
0
LINE
8
Layer 1
10
156.930160
20
205.271909
11
155.951460
21
214.162174
0
LINE
8
Layer 1
10
-13.582871
20
171.817200
11
-16.170998
21
177.110980
0
LINE
8
Layer 1
10
129.436250
20
56.311760
11
132.262790
21
63.921700
0
LINE
8
Layer 1
10
230.203870
20
103.978300
11
231.494240
21
109.145080
0
LINE
8
Layer 1
10
230.203870
20
103.978300
11
227.918130
21
99.210240
0
LINE
8
Layer 1
10
185.947540
20
209.182716
11
188.987600
21
213.291165
0
LINE
8
Layer 1
10
55.097855
20
113.004820
11
46.746282
21
113.370480
0
LINE
8
Layer 1
10
55.097855
20
113.004820
11
64.061674
21
113.395610
0
LINE
8
Layer 1
10
57.464024
20
126.745160
11
50.129509
21
124.592510
0
LINE
8
Layer 1
10
57.464024
20
126.745160
11
67.486705
21
131.620640
0
LINE
8
Layer 1
10
13.562241
20
199.252109
11
18.340881
21
195.940060
0
LINE
8
Layer 1
10
13.562241
20
199.252109
11
6.193595
21
201.408993
0
LINE
8
Layer 1
10
62.515449
20
56.965810
11
68.882118
21
56.648840
0
LINE
8
Layer 1
10
151.490590
20
70.326210
11
141.712120
21
58.746720
0
LINE
8
Layer 1
10
79.282359
20
66.587380
11
84.445174
21
59.336210
0
LINE
8
Layer 1
10
79.282359
20
66.587380
11
76.089367
21
73.635350
0
LINE
8
Layer 1
10
-18.809185
20
119.954100
11
-15.437388
21
124.323700
0
LINE
8
Layer 1
10
13.389468
20
109.712350
11
11.737145
21
114.131680
0
LINE
8
Layer 1
10
129.670670
20
48.372670
11
129.436250
21
56.311760
0
LINE
8
Layer 1
10
-18.809185
20
119.954100
11
-20.916327
21
115.431050
0
LINE
8
Layer 1
10
-20.252196
20
102.979500
11
-17.831021
21
98.219110
0
LINE
8
Layer 1
10
181.921640
20
214.757751
11
178.767280
21
210.046845
0
LINE
8
Layer 1
10
195.066140
20
195.172500
11
199.427800
21
190.524030
0
LINE
8
Layer 1
10
195.066140
20
195.172500
11
192.715320
21
199.263222
0
LINE
8
Layer 1
10
60.930066
20
80.831490
11
60.596691
21
89.591580
0
LINE
8
Layer 1
10
60.930066
20
80.831490
11
63.512663
21
74.240980
0
LINE
8
Layer 1
10
146.190460
20
85.838730
11
145.649380
21
90.259650
0
LINE
8
Layer 1
10
146.190460
20
85.838730
11
143.996530
21
80.711900
0
LINE
8
Layer 1
10
169.257360
20
56.464160
11
171.987070
21
50.044840
0
LINE
8
Layer 1
10
138.082040
20
32.021420
11
132.047420
21
41.112510
0
LINE
8
Layer 1
10
74.839476
20
211.725097
11
78.714563
21
207.620616
0
LINE
8
Layer 1
10
73.002738
20
229.643209
11
72.175386
21
224.837317
0
LINE
8
Layer 1
10
191.397430
20
126.907090
11
193.268830
21
118.765330
0
LINE
8
Layer 1
10
78.925701
20
55.785500
11
73.375007
21
62.262770
0
LINE
8
Layer 1
10
38.657176
20
250.187575
11
41.379474
21
243.783336
0
LINE
8
Layer 1
10
129.016880
20
259.184732
11
125.979990
21
252.133321
0
LINE
8
Layer 1
10
218.455570
20
221.008797
11
212.535520
21
225.245834
0
LINE
8
Layer 1
10
218.455570
20
221.008797
11
221.703860
21
216.794778
0
LINE
8
Layer 1
10
138.760430
20
166.763130
11
143.694910
21
167.468770
0
LINE
8
Layer 1
10
113.844350
20
193.498480
11
118.081120
21
190.169230
0
LINE
8
Layer 1
10
151.544300
20
150.945280
11
159.918100
21
158.486170
0
LINE
8
Layer 1
10
146.112670
20
209.757920
11
146.145970
21
203.360295
0
LINE
8
Layer 1
10
146.112670
20
209.757920
11
141.552310
21
218.233053
0
LINE
8
Layer 1
10
-16.170998
20
177.110980
11
-16.634945
21
183.977450
0
LINE
8
Layer 1
10
44.851337
20
151.476830
11
49.980020
21
152.022130
0
LINE
8
Layer 1
10
48.385641
20
271.835783
11
56.110151
21
273.783911
0
LINE
8
Layer 1
10
204.374450
20
123.695580
11
211.426390
21
126.754160
0
LINE
8
Layer 1
10
143.695960
20
230.358113
11
137.361310
21
236.732719
0
LINE
8
Layer 1
10
137.361310
20
236.732719
11
141.639890
21
236.237949
0
LINE
8
Layer 1
10
141.639890
20
236.237949
11
145.755750
21
235.093361
0
LINE
8
Layer 1
10
29.926191
20
145.529790
11
41.765766
21
141.153580
0
LINE
8
Layer 1
10
93.853492
20
203.812468
11
90.790146
21
203.329603
0
LINE
8
Layer 1
10
93.853492
20
203.812468
11
101.214200
21
201.659289
0
LINE
8
Layer 1
10
144.952210
20
269.013209
11
152.211840
21
268.046421
0
LINE
8
Layer 1
10
143.695960
20
230.358113
11
150.352090
21
223.931913
0
LINE
8
Layer 1
10
187.005080
20
219.824786
11
190.342010
21
222.558726
0
LINE
8
Layer 1
10
223.827140
20
211.894430
11
221.703860
21
216.794778
0
LINE
8
Layer 1
10
50.221849
20
36.191260
11
49.824974
21
41.779260
0
LINE
8
Layer 1
10
46.746282
20
113.370480
11
38.259772
21
114.707680
0
LINE
8
Layer 1
10
22.542729
20
121.186800
11
29.905818
21
117.502740
0
LINE
8
Layer 1
10
22.542729
20
121.186800
11
15.728649
21
124.097740
0
LINE
8
Layer 1
10
64.104272
20
235.119290
11
68.156101
21
240.518907
0
LINE
8
Layer 1
10
64.104272
20
235.119290
11
60.035245
21
227.764138
0
LINE
8
Layer 1
10
127.996910
20
189.511210
11
118.081120
21
190.169230
0
LINE
8
Layer 1
10
193.268830
20
118.765330
11
194.819810
21
110.301580
0
LINE
8
Layer 1
10
84.445174
20
59.336210
11
88.751796
21
51.148150
0
LINE
8
Layer 1
10
41.765766
20
141.153580
11
63.027682
21
138.460650
0
LINE
8
Layer 1
10
15.821518
20
177.053300
11
14.078972
21
173.152820
0
LINE
8
Layer 1
10
26.048193
20
183.413090
11
22.300106
21
191.864680
0
LINE
8
Layer 1
10
70.083855
20
137.682250
11
71.716599
21
136.589780
0
LINE
8
Layer 1
10
197.592650
20
102.786610
11
194.819810
21
110.301580
0
LINE
8
Layer 1
10
71.529009
20
106.613280
11
64.576553
21
97.016850
0
LINE
8
Layer 1
10
71.529009
20
106.613280
11
79.082334
21
113.824240
0
LINE
8
Layer 1
10
-16.634945
20
183.977450
11
-15.422863
21
189.191590
0
LINE
8
Layer 1
10
58.780061
20
205.104693
11
62.755161
21
195.249230
0
LINE
8
Layer 1
10
150.819080
20
118.558430
11
150.637580
21
121.494240
0
LINE
8
Layer 1
10
150.819090
20
118.558430
11
155.727640
21
112.338340
0
LINE
8
Layer 1
10
125.979990
20
252.133321
11
125.484430
21
246.340005
0
LINE
8
Layer 1
10
219.104590
20
192.628790
11
222.698170
21
196.920870
0
LINE
8
Layer 1
10
15.728649
20
124.097740
11
8.411333
21
125.670160
0
LINE
8
Layer 1
10
159.918100
20
158.486170
11
165.935250
21
165.142290
0
LINE
8
Layer 1
10
19.040174
20
171.720360
11
19.746083
21
162.495400
0
LINE
8
Layer 1
10
19.040174
20
171.720360
11
18.168637
21
180.664870
0
LINE
8
Layer 1
10
153.841680
20
172.080990
11
143.694910
21
167.468770
0
LINE
8
Layer 1
10
67.486705
20
131.620640
11
71.176849
21
134.972120
0
LINE
8
Layer 1
10
227.918130
20
99.210240
11
223.958910
21
94.959450
0
LINE
8
Layer 1
10
78.714563
20
207.620616
11
83.859651
21
202.013036
0
LINE
8
Layer 1
10
171.987070
20
50.044840
11
172.712550
21
44.345710
0
LINE
8
Layer 1
10
156.930160
20
205.271909
11
152.751860
21
193.361160
0
LINE
8
Layer 1
10
49.980020
20
152.022130
11
55.056316
21
154.039320
0
LINE
8
Layer 1
10
56.110151
20
273.783911
11
63.838895
21
272.541163
0
LINE
8
Layer 1
10
212.559070
20
89.852190
11
219.399870
21
91.842650
0
LINE
8
Layer 1
10
212.559070
20
89.852190
11
206.056930
21
89.884990
0
LINE
8
Layer 1
10
73.788815
20
55.309780
11
68.882118
21
56.648840
0
LINE
8
Layer 1
10
150.637570
20
121.494240
11
157.218820
21
129.129060
0
LINE
8
Layer 1
10
73.375007
20
62.262770
11
68.429416
21
68.591340
0
LINE
8
Layer 1
10
14.189039
20
103.388540
11
11.241581
21
96.287920
0
LINE
8
Layer 1
10
38.389947
20
123.507720
11
43.053493
21
123.481020
0
LINE
8
Layer 1
10
38.389947
20
123.507720
11
33.458643
21
125.122210
0
LINE
8
Layer 1
10
18.340881
20
195.940060
11
22.300106
21
191.864680
0
LINE
8
Layer 1
10
67.265249
20
188.701850
11
66.905151
21
184.241240
0
LINE
8
Layer 1
10
67.265249
20
188.701850
11
62.755161
21
195.249230
0
LINE
8
Layer 1
10
141.552310
20
218.233053
11
135.728300
21
225.054011
0
LINE
8
Layer 1
10
211.426390
20
126.754160
11
217.930640
21
126.872690
0
LINE
8
Layer 1
10
126.506510
20
101.984660
11
119.290000
21
102.576800
0
LINE
8
Layer 1
10
231.494240
20
109.145080
11
230.368970
21
115.410410
0
LINE
8
Layer 1
10
230.368970
20
115.410410
11
228.216320
21
119.919440
0
LINE
8
Layer 1
10
41.379474
20
243.783336
11
41.386874
21
243.767726
0
LINE
8
Layer 1
10
41.386883
20
243.767725
11
46.197537
21
239.963546
0
LINE
8
Layer 1
10
19.791856
20
129.852170
11
12.323727
21
131.752400
0
LINE
8
Layer 1
10
-10.290449
20
91.191510
11
-5.576659
21
89.541310
0
LINE
8
Layer 1
10
-10.290449
20
91.191510
11
-14.593976
21
94.073360
0
LINE
8
Layer 1
10
101.214200
20
201.659289
11
106.119580
21
198.694632
0
LINE
8
Layer 1
10
161.995080
20
260.919869
11
157.001600
21
265.655381
0
LINE
8
Layer 1
10
161.995080
20
260.919869
11
164.422890
21
255.550415
0
LINE
8
Layer 1
10
168.497740
20
184.710080
11
170.398510
21
189.538200
0
LINE
8
Layer 1
10
190.342010
20
222.558726
11
197.639210
21
225.757274
0
LINE
8
Layer 1
10
168.497740
20
184.710080
11
165.544730
21
181.100370
0
LINE
8
Layer 1
10
165.935250
20
165.142290
11
170.978470
21
171.809000
0
LINE
8
Layer 1
10
81.194503
20
93.566940
11
76.491534
21
89.945330
0
LINE
8
Layer 1
10
-15.422863
20
189.191590
11
-11.538435
21
195.400570
0
LINE
8
Layer 1
10
58.780061
20
205.104693
11
57.742630
21
212.558270
0
LINE
8
Layer 1
10
63.512663
20
74.240980
11
68.429416
21
68.591340
0
LINE
8
Layer 1
10
26.048193
20
183.413090
11
28.206664
21
174.476260
0
LINE
8
Layer 1
10
88.751796
20
51.148150
11
89.881303
21
45.184440
0
LINE
8
Layer 1
10
14.078972
20
173.152820
11
10.263416
21
168.046620
0
LINE
8
Layer 1
10
152.122410
20
234.776390
11
145.755750
21
235.093361
0
LINE
8
Layer 1
10
152.122410
20
234.776390
11
158.974860
21
238.258571
0
LINE
8
Layer 1
10
206.056930
20
89.885000
11
200.636150
21
91.573310
0
LINE
8
Layer 1
10
219.399870
20
91.842650
11
223.958910
21
94.959450
0
LINE
8
Layer 1
10
90.790146
20
203.329603
11
83.859651
21
202.013036
0
LINE
8
Layer 1
10
135.728300
20
225.054011
11
130.219940
21
232.415249
0
LINE
8
Layer 1
10
137.369780
20
169.333290
11
138.726560
21
171.258400
0
LINE
8
Layer 1
10
178.767280
20
210.046845
11
175.469250
21
203.082218
0
LINE
8
Layer 1
10
199.427800
20
190.524030
11
206.776860
21
188.267140
0
LINE
8
Layer 1
10
151.911280
20
192.025810
11
152.751860
21
193.361160
0
LINE
8
Layer 1
10
177.125800
20
132.922660
11
173.269240
21
134.497190
0
LINE
8
Layer 1
10
177.125800
20
132.922660
11
180.286780
21
129.272730
0
LINE
8
Layer 1
10
143.996530
20
80.711900
11
141.757630
21
77.011700
0
LINE
8
Layer 1
10
63.838895
20
272.541163
11
72.563795
21
268.207288
0
LINE
8
Layer 1
10
66.699305
20
165.045720
11
60.516257
21
157.768620
0
LINE
8
Layer 1
10
172.712550
20
44.345710
11
171.702900
21
39.191630
0
LINE
8
Layer 1
10
217.930640
20
126.872690
11
224.165810
21
123.787650
0
LINE
8
Layer 1
10
81.194503
20
93.566940
11
89.107132
21
97.226130
0
LINE
8
Layer 1
10
79.082334
20
113.824240
11
80.982572
21
116.795240
0
LINE
8
Layer 1
10
66.699305
20
165.045720
11
68.483126
21
171.069750
0
LINE
8
Layer 1
10
152.211840
20
268.046421
11
157.001600
21
265.655381
0
LINE
8
Layer 1
10
170.398510
20
189.538200
11
172.690060
21
196.151990
0
LINE
8
Layer 1
10
170.978470
20
171.809000
11
175.359710
21
179.199070
0
LINE
8
Layer 1
10
224.165810
20
123.787650
11
228.216320
21
119.919440
0
LINE
8
Layer 1
10
72.164274
20
23.554760
11
77.472345
21
25.081400
0
LINE
8
Layer 1
10
72.164274
20
23.554760
11
66.365136
21
23.216090
0
LINE
8
Layer 1
10
75.210422
20
115.038150
11
80.982572
21
116.795240
0
LINE
8
Layer 1
10
75.210422
20
115.038150
11
64.061674
21
113.395610
0
LINE
8
Layer 1
10
72.563795
20
268.207288
11
78.548405
21
259.223625
0
LINE
8
Layer 1
10
-11.538435
20
195.400570
11
-6.077991
21
199.269836
0
LINE
8
Layer 1
10
60.516257
20
157.768620
11
55.056316
21
154.039320
0
LINE
8
Layer 1
10
57.742630
20
212.558270
11
58.398268
21
220.472222
0
LINE
8
Layer 1
10
155.727630
20
112.338340
11
160.747830
21
103.086390
0
LINE
8
Layer 1
10
-5.576659
20
89.541310
11
-5.554090
21
89.541570
0
LINE
8
Layer 1
10
172.690060
20
196.151990
11
175.469250
21
203.082218
0
LINE
8
Layer 1
10
202.191630
20
226.695486
11
197.639210
21
225.757274
0
LINE
8
Layer 1
10
89.881303
20
45.184440
11
89.644236
21
39.363610
0
LINE
8
Layer 1
10
58.732436
20
240.331317
11
53.081201
21
238.302492
0
LINE
8
Layer 1
10
200.636150
20
91.573310
11
195.999860
21
95.103110
0
LINE
8
Layer 1
10
11.241581
20
96.287920
11
6.648150
21
91.682850
0
LINE
8
Layer 1
10
28.206664
20
174.476260
11
29.747333
21
165.640240
0
LINE
8
Layer 1
10
10.263416
20
168.046620
11
3.211477
21
164.988040
0
LINE
8
Layer 1
10
171.702900
20
39.191630
11
169.160260
21
34.339170
0
LINE
8
Layer 1
10
161.420140
20
149.628710
11
150.093320
21
147.280010
0
LINE
8
Layer 1
10
161.420140
20
149.628710
11
172.783200
21
149.119920
0
LINE
8
Layer 1
10
160.747830
20
103.086390
11
162.669240
21
92.772140
0
LINE
8
Layer 1
10
145.649380
20
90.259650
11
143.510230
21
95.974650
0
LINE
8
Layer 1
10
-4.695067
20
130.814190
11
-11.811856
21
127.232000
0
LINE
8
Layer 1
10
-14.593976
20
94.073360
11
-17.831021
21
98.219110
0
LINE
8
Layer 1
10
-5.554090
20
89.541570
11
0.021104
21
89.572770
0
LINE
8
Layer 1
10
66.905151
20
184.241240
11
66.449803
21
177.098550
0
LINE
8
Layer 1
10
155.951460
20
214.162174
11
150.352090
21
223.931913
0
LINE
8
Layer 1
10
83.367526
20
29.081900
11
77.472345
21
25.081400
0
LINE
8
Layer 1
10
83.367526
20
29.081900
11
87.488411
21
34.111630
0
LINE
8
Layer 1
10
50.129509
20
124.592510
11
43.053493
21
123.481000
0
LINE
8
Layer 1
10
78.548405
20
259.223625
11
80.855307
21
252.111890
0
LINE
8
Layer 1
10
49.824974
20
41.779260
11
51.424116
21
48.549940
0
LINE
8
Layer 1
10
76.491534
20
89.945330
11
74.280676
21
87.121960
0
LINE
8
Layer 1
10
58.398268
20
220.472222
11
60.035245
21
227.764138
0
LINE
8
Layer 1
10
73.806807
20
78.443360
11
73.036076
21
83.144480
0
LINE
8
Layer 1
10
6.193595
20
201.408993
11
-0.961558
21
201.484399
0
LINE
8
Layer 1
10
132.262790
20
63.921700
11
137.360780
21
70.620950
0
LINE
8
Layer 1
10
3.211477
20
164.988040
11
-3.292828
21
164.869240
0
LINE
8
Layer 1
10
195.999860
20
95.103110
11
192.127150
21
99.775130
0
LINE
8
Layer 1
10
71.716599
20
136.589780
11
71.176849
21
134.972120
0
LINE
8
Layer 1
10
53.081201
20
238.302492
11
46.197537
21
239.963546
0
LINE
8
Layer 1
10
172.783200
20
149.119920
11
180.173270
21
146.745810
0
LINE
8
Layer 1
10
-15.437388
20
124.323700
11
-11.811856
21
127.232000
0
LINE
8
Layer 1
10
29.747333
20
165.640240
11
33.368156
21
156.723250
0
LINE
8
Layer 1
10
-6.077991
20
199.269836
11
-0.961558
21
201.484399
0
LINE
8
Layer 1
10
222.698170
20
196.920870
11
224.432770
21
201.604520
0
LINE
8
Layer 1
10
89.107132
20
97.226130
11
98.911532
21
101.428770
0
LINE
8
Layer 1
10
29.905818
20
117.502740
11
38.259772
21
114.707680
0
LINE
8
Layer 1
10
89.644236
20
39.363610
11
87.488411
21
34.111630
0
LINE
8
Layer 1
10
6.648150
20
91.682850
11
0.021104
21
89.572790
0
LINE
8
Layer 1
10
162.669240
20
92.772140
11
159.587900
21
82.744690
0
LINE
8
Layer 1
10
169.160260
20
34.339170
11
162.258600
21
28.396630
0
LINE
8
Layer 1
10
74.280676
20
87.121960
11
73.036076
21
83.144480
0
LINE
8
Layer 1
10
137.360780
20
70.620950
11
141.757630
21
77.011700
0
LINE
8
Layer 1
10
66.449803
20
177.098550
11
68.483126
21
171.069750
0
LINE
8
Layer 1
10
105.062300
20
103.272920
11
98.911532
21
101.428770
0
LINE
8
Layer 1
10
67.735413
20
137.864280
11
70.083855
21
137.682250
0
LINE
8
Layer 1
10
152.751860
20
193.361160
11
145.123021
21
181.307029
0
LINE
8
Layer 1
10
145.123021
20
181.307029
11
137.369780
21
169.333290
0
LINE
8
Layer 1
10
199.427800
20
190.524030
11
195.066140
21
195.172500
0
LINE
8
Layer 1
10
181.958950
20
214.814372
11
187.005080
21
219.824786
0
LINE
8
Layer 1
10
143.695960
20
230.358113
11
150.352090
21
223.931913
0
LINE
8
Layer 1
10
68.483126
20
171.069750
11
66.699305
21
165.045720
0
LINE
8
Layer 1
10
157.001600
20
265.655381
11
161.995080
21
260.919869
0
LINE
8
Layer 1
10
93.853492
20
203.812468
11
101.214200
21
201.659289
0
LINE
8
Layer 1
10
68.483126
20
171.069750
11
66.449803
21
177.098550
0
LINE
8
Layer 1
10
-3.292828
20
164.869240
11
-9.527973
21
167.954550
0
LINE
8
Layer 1
10
173.269240
20
134.497190
11
169.852140
21
134.728970
0
LINE
8
Layer 1
10
143.694910
20
167.468770
11
138.760430
21
166.763130
0
LINE
8
Layer 1
10
192.127150
20
99.775130
11
188.565060
21
108.314030
0
LINE
8
Layer 1
10
175.359710
20
179.199070
11
170.978470
21
171.809000
0
LINE
8
Layer 1
10
221.703860
20
216.794778
11
223.827140
21
211.894430
0
LINE
8
Layer 1
10
146.146010
20
203.360295
11
142.832100
21
197.566714
0
LINE
8
Layer 1
10
135.728300
20
225.054011
11
130.219940
21
232.415249
0
LINE
8
Layer 1
10
80.855307
20
252.111890
11
80.793927
21
244.302448
0
LINE
8
Layer 1
10
-0.961558
20
201.484399
11
6.193595
21
201.408989
0
LINE
8
Layer 1
10
159.587900
20
82.744690
11
155.429710
21
75.690110
0
LINE
8
Layer 1
10
230.368970
20
115.410410
11
231.494240
21
109.145080
0
LINE
8
Layer 1
10
180.173270
20
146.745810
11
186.629370
21
140.774700
0
LINE
8
Layer 1
10
33.368156
20
156.723250
11
38.275118
21
152.618240
0
LINE
8
Layer 1
10
177.125800
20
132.922660
11
173.269240
21
134.497190
0
LINE
8
Layer 1
10
195.999860
20
95.103110
11
192.127150
21
99.775130
0
LINE
8
Layer 1
10
178.533650
20
187.416770
11
175.359710
21
179.199070
0
LINE
8
Layer 1
10
29.747333
20
165.640240
11
33.368156
21
156.723250
0
LINE
8
Layer 1
10
206.776860
20
188.267140
11
199.427800
21
190.524030
0
LINE
8
Layer 1
10
178.767280
20
210.046845
11
181.958950
21
214.814372
0
LINE
8
Layer 1
10
152.211840
20
268.046421
11
157.001600
21
265.655381
0
LINE
8
Layer 1
10
129.016880
20
259.184732
11
125.979990
21
252.133321
0
LINE
8
Layer 1
10
90.790146
20
203.329603
11
93.853492
21
203.812468
0
LINE
8
Layer 1
10
53.081201
20
238.302492
11
46.197537
21
239.963546
0
LINE
8
Layer 1
10
3.211477
20
164.988040
11
-3.292828
21
164.869240
0
LINE
8
Layer 1
10
162.669240
20
92.772140
11
159.587900
21
82.744690
0
LINE
8
Layer 1
10
155.727630
20
112.338340
11
160.747830
21
103.086390
0
LINE
8
Layer 1
10
228.216320
20
119.919440
11
230.368970
21
115.410410
0
LINE
8
Layer 1
10
172.783200
20
149.119920
11
180.173270
21
146.745810
0
LINE
8
Layer 1
10
218.455570
20
221.008797
11
221.703860
21
216.794778
0
LINE
8
Layer 1
10
137.369780
20
169.333290
11
137.170020
21
167.378810
0
LINE
8
Layer 1
10
141.552310
20
218.233053
11
146.112670
21
209.757920
0
LINE
8
Layer 1
10
127.996910
20
189.511210
11
134.351150
21
191.339220
0
LINE
8
Layer 1
10
141.552310
20
218.233053
11
135.728300
21
225.054011
0
LINE
8
Layer 1
10
78.548405
20
259.223625
11
80.855307
21
252.111890
0
LINE
8
Layer 1
10
58.398268
20
220.472222
11
60.035245
21
227.764138
0
LINE
8
Layer 1
10
-6.077991
20
199.269836
11
-0.961558
21
201.484399
0
LINE
8
Layer 1
10
-5.576659
20
89.541310
11
-5.554090
21
89.541570
0
LINE
8
Layer 1
10
213.253330
20
188.869330
11
206.776860
21
188.267140
0
LINE
8
Layer 1
10
175.469250
20
203.082218
11
178.767280
21
210.046845
0
LINE
8
Layer 1
10
144.952210
20
269.013209
11
152.211840
21
268.046421
0
LINE
8
Layer 1
10
133.521410
20
264.744686
11
138.489760
21
267.274102
0
LINE
8
Layer 1
10
83.859651
20
202.013036
11
90.790146
21
203.329603
0
LINE
8
Layer 1
10
58.732436
20
240.331317
11
53.081201
21
238.302492
0
LINE
8
Layer 1
10
64.104272
20
235.119290
11
60.035245
21
227.764138
0
LINE
8
Layer 1
10
28.206664
20
174.476260
11
29.747333
21
165.640240
0
LINE
8
Layer 1
10
10.263416
20
168.046620
11
3.211477
21
164.988040
0
LINE
8
Layer 1
10
133.521410
20
264.744686
11
129.016880
21
259.184732
0
LINE
8
Layer 1
10
153.841680
20
172.080990
11
143.694910
21
167.468770
0
LINE
8
Layer 1
10
160.176600
20
176.358240
11
153.841680
21
172.080990
0
LINE
8
Layer 1
10
200.636150
20
91.573310
11
195.999860
21
95.103110
0
LINE
8
Layer 1
10
44.851337
20
151.476830
11
38.275118
21
152.618240
0
LINE
8
Layer 1
10
212.535520
20
225.245834
11
218.455570
21
221.008797
0
LINE
8
Layer 1
10
60.516257
20
157.768620
11
55.056316
21
154.039320
0
LINE
8
Layer 1
10
152.122410
20
234.776390
11
145.755750
21
235.093361
0
LINE
8
Layer 1
10
72.563795
20
268.207288
11
78.548405
21
259.223625
0
LINE
8
Layer 1
10
57.742630
20
212.558270
11
58.398268
21
220.472222
0
LINE
8
Layer 1
10
-11.538435
20
195.400570
11
-6.077991
21
199.269836
0
LINE
8
Layer 1
10
129.670670
20
48.372670
11
132.047420
21
41.112510
0
LINE
8
Layer 1
10
160.747830
20
103.086390
11
162.669240
21
92.772140
0
LINE
8
Layer 1
10
224.165810
20
123.787650
11
228.216320
21
119.919440
0
LINE
8
Layer 1
10
161.420140
20
149.628710
11
172.783200
21
149.119920
0
LINE
8
Layer 1
10
49.980020
20
152.022130
11
44.851337
21
151.476830
0
LINE
8
Layer 1
10
157.218820
20
129.129060
11
164.504650
21
133.623010
0
LINE
8
Layer 1
10
206.056930
20
89.885000
11
200.636150
21
91.573310
0
LINE
8
Layer 1
10
227.918130
20
99.210240
11
223.958910
21
94.959450
0
LINE
8
Layer 1
10
188.987600
20
213.291165
11
185.947540
21
209.182716
0
LINE
8
Layer 1
10
219.104590
20
192.628790
11
213.253330
21
188.869330
0
LINE
8
Layer 1
10
172.690060
20
196.151990
11
175.469250
21
203.082218
0
LINE
8
Layer 1
10
49.980020
20
152.022130
11
55.056316
21
154.039320
0
LINE
8
Layer 1
10
138.489760
20
267.274102
11
144.952210
21
269.013209
0
LINE
8
Layer 1
10
78.714563
20
207.620616
11
83.859651
21
202.013036
0
LINE
8
Layer 1
10
26.048193
20
183.413090
11
28.206664
21
174.476260
0
LINE
8
Layer 1
10
14.078972
20
173.152820
11
10.263416
21
168.046620
0
LINE
8
Layer 1
10
68.156101
20
240.518907
11
64.104272
21
235.119290
0
LINE
8
Layer 1
10
194.819810
20
110.301580
11
197.592650
21
102.786610
0
LINE
8
Layer 1
10
217.930640
20
126.872690
11
224.165810
21
123.787650
0
LINE
8
Layer 1
10
150.093320
20
147.280010
11
161.420140
21
149.628710
0
LINE
8
Layer 1
10
207.707670
20
226.506838
11
212.535520
21
225.245834
0
LINE
8
Layer 1
10
66.699305
20
165.045720
11
60.516257
21
157.768620
0
LINE
8
Layer 1
10
158.974860
20
238.258571
11
152.122410
21
234.776390
0
LINE
8
Layer 1
10
63.838895
20
272.541163
11
72.563795
21
268.207288
0
LINE
8
Layer 1
10
41.386883
20
243.767725
11
46.197537
21
239.963546
0
LINE
8
Layer 1
10
58.780061
20
205.104693
11
57.742630
21
212.558270
0
LINE
8
Layer 1
10
-15.422863
20
189.191590
11
-11.538435
21
195.400570
0
LINE
8
Layer 1
10
41.386883
20
243.767725
11
41.379483
21
243.783335
0
LINE
8
Layer 1
10
170.398510
20
189.538200
11
168.497740
21
184.710080
0
LINE
8
Layer 1
10
222.698170
20
196.920870
11
219.104590
21
192.628790
0
LINE
8
Layer 1
10
170.398510
20
189.538200
11
172.690060
21
196.151990
0
LINE
8
Layer 1
10
22.300106
20
191.864680
11
26.048193
21
183.413090
0
LINE
8
Layer 1
10
150.637570
20
121.494240
11
157.218820
21
129.129060
0
LINE
8
Layer 1
10
212.559070
20
89.852190
11
206.056930
21
89.884990
0
LINE
8
Layer 1
10
193.268830
20
118.765330
11
194.819810
21
110.301580
0
LINE
8
Layer 1
10
202.191630
20
226.695486
11
207.707670
21
226.506846
0
LINE
8
Layer 1
10
156.930160
20
205.271917
11
152.751860
21
193.361170
0
LINE
8
Layer 1
10
118.081120
20
190.169240
11
127.996910
21
189.511220
0
LINE
8
Layer 1
10
163.213750
20
243.193588
11
158.974860
21
238.258579
0
LINE
8
Layer 1
10
74.839476
20
211.725097
11
78.714563
21
207.620616
0
LINE
8
Layer 1
10
56.110151
20
273.783911
11
63.838895
21
272.541163
0
LINE
8
Layer 1
10
62.755161
20
195.249230
11
58.780061
21
205.104693
0
LINE
8
Layer 1
10
-16.634945
20
183.977450
11
-15.422863
21
189.191590
0
LINE
8
Layer 1
10
38.657176
20
250.187575
11
37.931689
21
255.885377
0
LINE
8
Layer 1
10
38.657176
20
250.187575
11
41.386883
21
243.767725
0
LINE
8
Layer 1
10
150.819080
20
118.558430
11
155.727630
21
112.338340
0
LINE
8
Layer 1
10
180.286780
20
129.272730
11
177.125800
21
132.922660
0
LINE
8
Layer 1
10
150.819080
20
118.558430
11
150.637580
21
121.494240
0
LINE
8
Layer 1
10
211.426400
20
126.754160
11
217.930650
21
126.872690
0
LINE
8
Layer 1
10
146.510350
20
147.619200
11
150.093330
21
147.280010
0
LINE
8
Layer 1
10
168.497750
20
184.710080
11
165.544740
21
181.100370
0
LINE
8
Layer 1
10
137.170030
20
167.378810
11
138.760440
21
166.763130
0
LINE
8
Layer 1
10
141.712130
20
58.746720
11
139.158900
21
52.621880
0
LINE
8
Layer 1
10
219.399880
20
91.842650
11
212.559080
21
89.852190
0
LINE
8
Layer 1
10
191.397440
20
126.907090
11
193.268840
21
118.765330
0
LINE
8
Layer 1
10
224.432780
20
201.604520
11
222.698180
21
196.920870
0
LINE
8
Layer 1
10
73.002738
20
229.643209
11
72.175386
21
224.837317
0
LINE
8
Layer 1
10
125.484430
20
246.340005
11
125.979990
21
252.133321
0
LINE
8
Layer 1
10
18.340881
20
195.940060
11
22.300106
21
191.864680
0
LINE
8
Layer 1
10
18.168637
20
180.664870
11
15.885046
21
177.038741
0
LINE
8
Layer 1
10
15.885046
20
177.038741
11
14.078972
21
173.152820
0
LINE
8
Layer 1
10
182.598450
20
124.254380
11
180.286780
21
129.272730
0
LINE
8
Layer 1
10
204.374450
20
123.695580
11
211.426390
21
126.754160
0
LINE
8
Layer 1
10
197.639210
20
225.757274
11
202.191630
21
226.695486
0
LINE
8
Layer 1
10
146.112670
20
209.757920
11
146.145970
21
203.360295
0
LINE
8
Layer 1
10
164.812890
20
249.964002
11
163.213750
21
243.193580
0
LINE
8
Layer 1
10
113.844350
20
193.498480
11
118.081120
21
190.169230
0
LINE
8
Layer 1
10
48.385641
20
271.835783
11
56.110151
21
273.783911
0
LINE
8
Layer 1
10
37.931689
20
255.885377
11
38.941339
21
261.039196
0
LINE
8
Layer 1
10
67.265249
20
188.701850
11
62.755161
21
195.249230
0
LINE
8
Layer 1
10
-16.170998
20
177.110980
11
-16.634945
21
183.977450
0
LINE
8
Layer 1
10
224.956650
20
206.757280
11
224.432770
21
201.604520
0
LINE
8
Layer 1
10
181.958950
20
214.814372
11
181.921650
21
214.757752
0
LINE
8
Layer 1
10
126.099320
20
240.691415
11
125.484430
21
246.340005
0
LINE
8
Layer 1
10
77.259620
20
236.398021
11
73.002738
21
229.643209
0
LINE
8
Layer 1
10
13.562241
20
199.252109
11
18.340881
21
195.940060
0
LINE
8
Layer 1
10
151.490590
20
70.326210
11
141.712120
21
58.746720
0
LINE
8
Layer 1
10
223.958910
20
94.959450
11
219.399870
21
91.842650
0
LINE
8
Layer 1
10
230.203870
20
103.978300
11
231.494240
21
109.145080
0
LINE
8
Layer 1
10
190.124250
20
134.445600
11
191.397430
21
126.907090
0
LINE
8
Layer 1
10
230.203870
20
103.978300
11
227.918130
21
99.210240
0
LINE
8
Layer 1
10
186.156560
20
116.965370
11
182.598450
21
124.254380
0
LINE
8
Layer 1
10
190.342010
20
222.558726
11
197.639210
21
225.757274
0
LINE
8
Layer 1
10
155.951460
20
214.162174
11
156.930160
21
205.271909
0
LINE
8
Layer 1
10
164.422890
20
255.550415
11
164.812890
21
249.964002
0
LINE
8
Layer 1
10
106.119580
20
198.694632
11
113.844350
21
193.498480
0
LINE
8
Layer 1
10
41.483985
20
265.892977
11
48.385641
21
271.835783
0
LINE
8
Layer 1
10
66.905151
20
184.241240
11
67.265249
21
188.701850
0
LINE
8
Layer 1
10
-13.582871
20
171.817200
11
-16.170998
21
177.110980
0
LINE
8
Layer 1
10
200.558890
20
118.589380
11
204.374450
21
123.695580
0
LINE
8
Layer 1
10
170.978470
20
171.809000
11
165.935250
21
165.142290
0
LINE
8
Layer 1
10
180.390500
20
195.437880
11
178.533650
21
187.416770
0
LINE
8
Layer 1
10
159.918100
20
158.486170
11
165.935250
21
165.142290
0
LINE
8
Layer 1
10
138.121190
20
47.840860
11
139.158890
21
52.621880
0
LINE
8
Layer 1
10
155.429710
20
75.690110
11
151.490590
21
70.326210
0
LINE
8
Layer 1
10
186.629370
20
140.774700
11
190.124250
21
134.445600
0
LINE
8
Layer 1
10
223.827140
20
211.894430
11
224.956650
21
206.757280
0
LINE
8
Layer 1
10
142.832100
20
197.566714
11
139.141960
21
193.963350
0
LINE
8
Layer 1
10
130.219940
20
232.415249
11
126.099320
21
240.691415
0
LINE
8
Layer 1
10
80.793924
20
244.302448
11
77.259620
21
236.398021
0
LINE
8
Layer 1
10
6.193595
20
201.408993
11
13.562241
21
199.252109
0
LINE
8
Layer 1
10
169.852140
20
134.728970
11
164.504650
21
133.623010
0
LINE
8
Layer 1
10
188.565060
20
108.314030
11
186.156560
21
116.965370
0
LINE
8
Layer 1
10
198.461800
20
113.955470
11
200.558890
21
118.589380
0
LINE
8
Layer 1
10
165.544730
20
181.100370
11
160.176600
21
176.358240
0
LINE
8
Layer 1
10
151.544300
20
150.945280
11
146.510340
21
147.619200
0
LINE
8
Layer 1
10
182.493140
20
202.542997
11
185.947540
21
209.182716
0
LINE
8
Layer 1
10
195.066140
20
195.172500
11
193.823952
21
197.245683
0
LINE
8
Layer 1
10
193.823952
20
197.245683
11
192.834158
21
199.420714
0
LINE
8
Layer 1
10
192.834158
20
199.420714
11
192.039471
21
201.674048
0
LINE
8
Layer 1
10
192.039471
20
201.674048
11
191.382605
21
203.982139
0
LINE
8
Layer 1
10
191.382605
20
203.982139
11
190.253185
21
208.668410
0
LINE
8
Layer 1
10
190.253185
20
208.668410
11
188.987600
21
213.291165
0
LINE
8
Layer 1
10
187.005080
20
219.824786
11
190.342010
21
222.558726
0
LINE
8
Layer 1
10
150.352090
20
223.931913
11
155.951460
21
214.162174
0
LINE
8
Layer 1
10
72.402663
20
217.663670
11
72.175386
21
224.837317
0
LINE
8
Layer 1
10
161.995080
20
260.919869
11
164.422890
21
255.550415
0
LINE
8
Layer 1
10
101.214200
20
201.659289
11
106.119580
21
198.694632
0
LINE
8
Layer 1
10
38.941339
20
261.039196
11
41.483985
21
265.892977
0
LINE
8
Layer 1
10
66.449803
20
177.098550
11
66.905151
21
184.241240
0
LINE
8
Layer 1
10
-9.527973
20
167.954550
11
-13.582871
21
171.817200
0
LINE
8
Layer 1
10
182.493140
20
202.542997
11
180.390500
21
195.437880
0
LINE
8
Layer 1
10
151.544300
20
150.945280
11
159.918100
21
158.486170
0
LINE
8
Layer 1
10
72.402663
20
217.663670
11
74.839476
21
211.725097
0
LINE
8
Layer 1
10
134.351150
20
191.339220
11
139.141960
21
193.963350
 0 
ENDSEC
 0 
EOF