999
dxfrw 0.6.3
  0
SECTION
  2
HEADER
  9
$ACADVER
  1
AC1021
  9
$DWGCODEPAGE
  3
ANSI_1252
  9
$INSBASE
 10
0
 20
0
 30
0
  9
$EXTMIN
 10
2.63633918762207
 20
4.154067993164062
 30
0
  9
$EXTMAX
 10
255.5577697753906
 20
254.7215728759766
 30
0
  9
$LIMMIN
 10
0
 20
0
  9
$LIMMAX
 10
420
 20
297
  9
$ORTHOMODE
 70
    0
  9
$REGENMODE
 70
    1
  9
$FILLMODE
 70
    1
  9
$QTEXTMODE
 70
    0
  9
$MIRRTEXT
 70
    0
  9
$LTSCALE
 40
1
  9
$ATTMODE
 70
    0
  9
$TEXTSIZE
 40
2.5
  9
$TRACEWID
 40
15.68
  9
$TEXTSTYLE
  7
STANDARD
  9
$CLAYER
  8
0
  9
$CELTYPE
  6
BYLAYER
  9
$CECOLOR
 62
  256
  9
$CELTSCALE
 40
1
  9
$DISPSILH
 70
    0
  9
$DIMSCALE
 40
2.5
  9
$DIMASZ
 40
2.5
  9
$DIMEXO
 40
0.625
  9
$DIMDLI
 40
3.75
  9
$DIMRND
 40
0
  9
$DIMDLE
 40
0
  9
$DIMEXE
 40
1.25
  9
$DIMTP
 40
0
  9
$DIMTM
 40
0
  9
$DIMTXT
 40
2.5
  9
$DIMCEN
 40
2.5
  9
$DIMTSZ
 40
0
  9
$DIMTOL
 70
    0
  9
$DIMLIM
 70
    0
  9
$DIMTIH
 70
    0
  9
$DIMTOH
 70
    0
  9
$DIMSE1
 70
    0
  9
$DIMSE2
 70
    0
  9
$DIMTAD
 70
    1
  9
$DIMZIN
 70
    8
  9
$DIMBLK
  1

  9
$DIMASO
 70
    1
  9
$DIMSHO
 70
    1
  9
$DIMPOST
  1

  9
$DIMAPOST
  1

  9
$DIMALT
 70
    0
  9
$DIMALTD
 70
    3
  9
$DIMALTF
 40
0.03937
  9
$DIMLFAC
 40
1
  9
$DIMTOFL
 70
    1
  9
$DIMTVP
 40
0
  9
$DIMTIX
 70
    0
  9
$DIMSOXD
 70
    0
  9
$DIMSAH
 70
    0
  9
$DIMBLK1
  1

  9
$DIMBLK2
  1

  9
$DIMSTYLE
  2
Standard
  9
$DIMCLRD
 70
    0
  9
$DIMCLRE
 70
    0
  9
$DIMCLRT
 70
    0
  9
$DIMTFAC
 40
1
  9
$DIMGAP
 40
0.625
  9
$DIMJUST
 70
    0
  9
$DIMSD1
 70
    0
  9
$DIMSD2
 70
    0
  9
$DIMTOLJ
 70
    0
  9
$DIMTZIN
 70
    8
  9
$DIMALTZ
 70
    0
  9
$DIMALTTZ
 70
    0
  9
$DIMUPT
 70
    0
  9
$DIMDEC
 70
    2
  9
$DIMTDEC
 70
    2
  9
$DIMALTU
 70
    2
  9
$DIMALTTD
 70
    3
  9
$DIMTXSTY
  7
STANDARD
  9
$DIMAUNIT
 70
    0
  9
$DIMADEC
 70
    0
  9
$DIMALTRND
 40
0
  9
$DIMAZIN
 70
    0
  9
$DIMDSEP
 70
   44
  9
$DIMATFIT
 70
    3
  9
$DIMFRAC
 70
    0
  9
$DIMLDRBLK
  1
STANDARD
  9
$DIMLUNIT
 70
    2
  9
$DIMLWD
 70
   -2
  9
$DIMLWE
 70
   -2
  9
$DIMTMOVE
 70
    0
  9
$DIMFXL
 40
1
  9
$DIMFXLON
 70
    0
  9
$DIMJOGANG
 40
0.7854
  9
$DIMTFILL
 70
    0
  9
$DIMTFILLCLR
 70
    0
  9
$DIMARCSYM
 70
    0
  9
$DIMLTYPE
  6

  9
$DIMLTEX1
  6

  9
$DIMLTEX2
  6

  9
$LUNITS
 70
    2
  9
$LUPREC
 70
    4
  9
$SKETCHINC
 40
1
  9
$FILLETRAD
 40
0
  9
$AUNITS
 70
    0
  9
$AUPREC
 70
    2
  9
$MENU
  1
.
  9
$ELEVATION
 40
0
  9
$PELEVATION
 40
0
  9
$THICKNESS
 40
0
  9
$LIMCHECK
 70
    0
  9
$CHAMFERA
 40
0
  9
$CHAMFERB
 40
0
  9
$CHAMFERC
 40
0
  9
$CHAMFERD
 40
0
  9
$SKPOLY
 70
    0
  9
$USRTIMER
 70
    1
  9
$ANGBASE
 50
0
  9
$ANGDIR
 70
    0
  9
$PDMODE
 70
   34
  9
$PDSIZE
 40
0
  9
$PLINEWID
 40
0
  9
$SPLFRAME
 70
    0
  9
$SPLINETYPE
 70
    2
  9
$SPLINESEGS
 70
    8
  9
$HANDSEED
  5
20000
  9
$SURFTAB1
 70
    6
  9
$SURFTAB2
 70
    6
  9
$SURFTYPE
 70
    6
  9
$SURFU
 70
    6
  9
$SURFV
 70
    6
  9
$UCSBASE
  2

  9
$UCSNAME
  2

  9
$UCSORG
 10
0
 20
0
 30
0
  9
$UCSXDIR
 10
1
 20
0
 30
0
  9
$UCSYDIR
 10
0
 20
1
 30
0
  9
$UCSORTHOREF
  2

  9
$UCSORTHOVIEW
 70
    0
  9
$UCSORGTOP
 10
0
 20
0
 30
0
  9
$UCSORGBOTTOM
 10
0
 20
0
 30
0
  9
$UCSORGLEFT
 10
0
 20
0
 30
0
  9
$UCSORGRIGHT
 10
0
 20
0
 30
0
  9
$UCSORGFRONT
 10
0
 20
0
 30
0
  9
$UCSORGBACK
 10
0
 20
0
 30
0
  9
$PUCSBASE
  2

  9
$PUCSNAME
  2

  9
$PUCSORG
 10
0
 20
0
 30
0
  9
$PUCSXDIR
 10
1
 20
0
 30
0
  9
$PUCSYDIR
 10
0
 20
1
 30
0
  9
$PUCSORTHOREF
  2

  9
$PUCSORTHOVIEW
 70
    0
  9
$PUCSORGTOP
 10
0
 20
0
 30
0
  9
$PUCSORGBOTTOM
 10
0
 20
0
 30
0
  9
$PUCSORGLEFT
 10
0
 20
0
 30
0
  9
$PUCSORGRIGHT
 10
0
 20
0
 30
0
  9
$PUCSORGFRONT
 10
0
 20
0
 30
0
  9
$PUCSORGBACK
 10
0
 20
0
 30
0
  9
$USERI1
 70
    0
  9
$USERI2
 70
    0
  9
$USERI3
 70
    0
  9
$USERI4
 70
    0
  9
$USERI5
 70
    0
  9
$USERR1
 40
0
  9
$USERR2
 40
0
  9
$USERR3
 40
0
  9
$USERR4
 40
0
  9
$USERR5
 40
0
  9
$WORLDVIEW
 70
    1
  9
$SHADEDGE
 70
    3
  9
$SHADEDIF
 70
   70
  9
$TILEMODE
 70
    1
  9
$MAXACTVP
 70
   64
  9
$PINSBASE
 10
0
 20
0
 30
0
  9
$PLIMCHECK
 70
    0
  9
$PEXTMIN
 10
0
 20
0
 30
0
  9
$PEXTMAX
 10
0
 20
0
 30
0
  9
$GRIDMODE
 70
    0
  9
$SNAPSTYLE
 70
    0
  9
$PLIMMIN
 10
0
 20
0
  9
$PLIMMAX
 10
210
 20
297
  9
$UNITMODE
 70
    0
  9
$VISRETAIN
 70
    1
  9
$PLINEGEN
 70
    0
  9
$PSLTSCALE
 70
    1
  9
$TREEDEPTH
 70
 3020
  9
$CMLSTYLE
  2
Standard
  9
$CMLJUST
 70
    0
  9
$CMLSCALE
 40
20
  9
$PROXYGRAPHICS
 70
    1
  9
$MEASUREMENT
 70
    1
  9
$CELWEIGHT
370
   -1
  9
$ENDCAPS
280
    0
  9
$JOINSTYLE
280
    0
  9
$LWDISPLAY
290
    0
  9
$INSUNITS
 70
    4
  9
$HYPERLINKBASE
  1

  9
$STYLESHEET
  1

  9
$XEDIT
290
    1
  9
$CEPSNTYPE
380
    0
  9
$PSTYLEMODE
290
    1
  9
$EXTNAMES
290
    1
  9
$PSVPSCALE
 40
1
  9
$OLESTARTUP
290
    0
  9
$SORTENTS
280
  127
  9
$INDEXCTL
280
    0
  9
$HIDETEXT
280
    1
  9
$XCLIPFRAME
290
    0
  9
$HALOGAP
280
    0
  9
$OBSCOLOR
 70
  257
  9
$OBSLTYPE
280
    0
  9
$INTERSECTIONDISPLAY
280
    0
  9
$INTERSECTIONCOLOR
 70
  257
  9
$DIMASSOC
280
    1
  9
$PROJECTNAME
  1

  9
$CAMERADISPLAY
290
    0
  9
$LENSLENGTH
 40
50
  9
$CAMERAHEIGHT
 40
0
  9
$STEPSPERSEC
 40
2
  9
$STEPSIZE
 40
50
  9
$3DDWFPREC
 40
2
  9
$PSOLWIDTH
 40
5
  9
$PSOLHEIGHT
 40
80
  9
$LOFTANG1
 40
1.570796326794897
  9
$LOFTANG2
 40
1.570796326794897
  9
$LOFTMAG1
 40
0
  9
$LOFTMAG2
 40
0
  9
$LOFTPARAM
 70
    7
  9
$LOFTNORMALS
280
    1
  9
$LATITUDE
 40
1
  9
$LONGITUDE
 40
1
  9
$NORTHDIRECTION
 40
0
  9
$TIMEZONE
 70
-8000
  9
$LIGHTGLYPHDISPLAY
280
    1
  9
$TILEMODELIGHTSYNCH
280
    1
  9
$SOLIDHIST
280
    1
  9
$SHOWHIST
280
    1
  9
$DWFFRAME
280
    2
  9
$DGNFRAME
280
    0
  9
$REALWORLDSCALE
290
    1
  9
$INTERFERECOLOR
 62
    1
  9
$CSHADOW
280
    0
  9
$SHADOWPLANELOCATION
 40
0
  0
ENDSEC
  0
SECTION
  2
CLASSES
  0
ENDSEC
  0
SECTION
  2
TABLES
  0
TABLE
  2
VPORT
  5
8
330
0
100
AcDbSymbolTable
 70
    1
  0
VPORT
  5
31
330
2
100
AcDbSymbolTableRecord
100
AcDbViewportTableRecord
  2
*ACTIVE
 70
    0
 10
0
 20
0
 11
1
 21
1
 12
175.9537731772928
 22
164.2353584147284
 13
0
 23
0
 14
10
 24
10
 15
10
 25
10
 16
0
 26
0
 36
1
 17
0
 27
0
 37
0
 40
414.0506549439424
 41
1.094339622641509
 42
50
 43
0
 44
0
 50
0
 51
0
 71
    0
 72
  100
 73
    1
 74
    3
 75
    0
 76
    0
 77
    0
 78
    0
281
    0
 65
    1
110
0
120
0
130
0
111
1
121
0
131
0
112
0
122
1
132
0
 79
    0
146
0
348
10020
 60
    7
 61
    5
292
1
282
    1
141
0
142
0
 63
  250
421
3358443
  0
ENDTAB
  0
TABLE
  2
LTYPE
  5
5
330
0
100
AcDbSymbolTable
 70
    4
  0
LTYPE
  5
14
330
5
100
AcDbSymbolTableRecord
100
AcDbLinetypeTableRecord
  2
ByBlock
 70
    0
  3

 72
   65
 73
    0
 40
0
  0
LTYPE
  5
15
330
5
100
AcDbSymbolTableRecord
100
AcDbLinetypeTableRecord
  2
ByLayer
 70
    0
  3

 72
   65
 73
    0
 40
0
  0
LTYPE
  5
16
330
5
100
AcDbSymbolTableRecord
100
AcDbLinetypeTableRecord
  2
Continuous
 70
    0
  3
Solid line
 72
   65
 73
    0
 40
0
  0
LTYPE
  5
32
330
5
100
AcDbSymbolTableRecord
100
AcDbLinetypeTableRecord
  2
DOT
 70
    0
  3
Dot . . . . . . . . . . . . . . . . . . . . . .
 72
   65
 73
    2
 40
6.35
 49
0
 74
    0
 49
-6.35
 74
    0
  0
LTYPE
  5
33
330
5
100
AcDbSymbolTableRecord
100
AcDbLinetypeTableRecord
  2
DOTTINY
 70
    0
  3
Dot (.15x) .....................................
 72
   65
 73
    2
 40
0.9525
 49
0
 74
    0
 49
-0.9525
 74
    0
  0
LTYPE
  5
34
330
5
100
AcDbSymbolTableRecord
100
AcDbLinetypeTableRecord
  2
DOT2
 70
    0
  3
Dot (.5x) .....................................
 72
   65
 73
    2
 40
3.175
 49
0
 74
    0
 49
-3.175
 74
    0
  0
LTYPE
  5
35
330
5
100
AcDbSymbolTableRecord
100
AcDbLinetypeTableRecord
  2
DOTX2
 70
    0
  3
Dot (2x) .  .  .  .  .  .  .  .  .  .  .  .  .
 72
   65
 73
    2
 40
12.7
 49
0
 74
    0
 49
-12.7
 74
    0
  0
LTYPE
  5
36
330
5
100
AcDbSymbolTableRecord
100
AcDbLinetypeTableRecord
  2
DASHED
 70
    0
  3
Dashed _ _ _ _ _ _ _ _ _ _ _ _ _ _ _ _ _
 72
   65
 73
    2
 40
19.05
 49
12.7
 74
    0
 49
-6.35
 74
    0
  0
LTYPE
  5
37
330
5
100
AcDbSymbolTableRecord
100
AcDbLinetypeTableRecord
  2
DASHEDTINY
 70
    0
  3
Dashed (.15x) _ _ _ _ _ _ _ _ _ _ _ _ _ _ _ _ _
 72
   65
 73
    2
 40
2.8575
 49
1.905
 74
    0
 49
-0.9525
 74
    0
  0
LTYPE
  5
38
330
5
100
AcDbSymbolTableRecord
100
AcDbLinetypeTableRecord
  2
DASHED2
 70
    0
  3
Dashed (.5x) _ _ _ _ _ _ _ _ _ _ _ _ _ _ _ _ _
 72
   65
 73
    2
 40
9.524999999999999
 49
6.35
 74
    0
 49
-3.175
 74
    0
  0
LTYPE
  5
39
330
5
100
AcDbSymbolTableRecord
100
AcDbLinetypeTableRecord
  2
DASHEDX2
 70
    0
  3
Dashed (2x) ____  ____  ____  ____  ____  ___
 72
   65
 73
    2
 40
38.09999999999999
 49
25.4
 74
    0
 49
-12.7
 74
    0
  0
LTYPE
  5
3A
330
5
100
AcDbSymbolTableRecord
100
AcDbLinetypeTableRecord
  2
DASHDOT
 70
    0
  3
Dash dot __ . __ . __ . __ . __ . __ . __ . __
 72
   65
 73
    4
 40
25.4
 49
12.7
 74
    0
 49
-6.35
 74
    0
 49
0
 74
    0
 49
-6.35
 74
    0
  0
LTYPE
  5
3B
330
5
100
AcDbSymbolTableRecord
100
AcDbLinetypeTableRecord
  2
DASHDOTTINY
 70
    0
  3
Dash dot (.15x) _._._._._._._._._._._._._._._.
 72
   65
 73
    4
 40
3.81
 49
1.905
 74
    0
 49
-0.9525
 74
    0
 49
0
 74
    0
 49
-0.9525
 74
    0
  0
LTYPE
  5
3C
330
5
100
AcDbSymbolTableRecord
100
AcDbLinetypeTableRecord
  2
DASHDOT2
 70
    0
  3
Dash dot (.5x) _._._._._._._._._._._._._._._.
 72
   65
 73
    4
 40
12.7
 49
6.35
 74
    0
 49
-3.175
 74
    0
 49
0
 74
    0
 49
-3.175
 74
    0
  0
LTYPE
  5
3D
330
5
100
AcDbSymbolTableRecord
100
AcDbLinetypeTableRecord
  2
DASHDOTX2
 70
    0
  3
Dash dot (2x) ____  .  ____  .  ____  .  ___
 72
   65
 73
    4
 40
50.8
 49
25.4
 74
    0
 49
-12.7
 74
    0
 49
0
 74
    0
 49
-12.7
 74
    0
  0
LTYPE
  5
3E
330
5
100
AcDbSymbolTableRecord
100
AcDbLinetypeTableRecord
  2
DIVIDE
 70
    0
  3
Divide ____ . . ____ . . ____ . . ____ . . ____
 72
   65
 73
    6
 40
31.75
 49
12.7
 74
    0
 49
-6.35
 74
    0
 49
0
 74
    0
 49
-6.35
 74
    0
 49
0
 74
    0
 49
-6.35
 74
    0
  0
LTYPE
  5
3F
330
5
100
AcDbSymbolTableRecord
100
AcDbLinetypeTableRecord
  2
DIVIDETINY
 70
    0
  3
Divide (.15x) __..__..__..__..__..__..__..__.._
 72
   65
 73
    6
 40
4.7625
 49
1.905
 74
    0
 49
-0.9525
 74
    0
 49
0
 74
    0
 49
-0.9525
 74
    0
 49
0
 74
    0
 49
-0.9525
 74
    0
  0
LTYPE
  5
40
330
5
100
AcDbSymbolTableRecord
100
AcDbLinetypeTableRecord
  2
DIVIDE2
 70
    0
  3
Divide (.5x) __..__..__..__..__..__..__..__.._
 72
   65
 73
    6
 40
15.875
 49
6.35
 74
    0
 49
-3.175
 74
    0
 49
0
 74
    0
 49
-3.175
 74
    0
 49
0
 74
    0
 49
-3.175
 74
    0
  0
LTYPE
  5
41
330
5
100
AcDbSymbolTableRecord
100
AcDbLinetypeTableRecord
  2
DIVIDEX2
 70
    0
  3
Divide (2x) ________  .  .  ________  .  .  _
 72
   65
 73
    6
 40
63.5
 49
25.4
 74
    0
 49
-12.7
 74
    0
 49
0
 74
    0
 49
-12.7
 74
    0
 49
0
 74
    0
 49
-12.7
 74
    0
  0
LTYPE
  5
42
330
5
100
AcDbSymbolTableRecord
100
AcDbLinetypeTableRecord
  2
BORDER
 70
    0
  3
Border __ __ . __ __ . __ __ . __ __ . __ __ .
 72
   65
 73
    6
 40
44.45
 49
12.7
 74
    0
 49
-6.35
 74
    0
 49
12.7
 74
    0
 49
-6.35
 74
    0
 49
0
 74
    0
 49
-6.35
 74
    0
  0
LTYPE
  5
43
330
5
100
AcDbSymbolTableRecord
100
AcDbLinetypeTableRecord
  2
BORDERTINY
 70
    0
  3
Border (.15x) __.__.__.__.__.__.__.__.__.__.__.
 72
   65
 73
    6
 40
6.6675
 49
1.905
 74
    0
 49
-0.9525
 74
    0
 49
1.905
 74
    0
 49
-0.9525
 74
    0
 49
0
 74
    0
 49
-0.9525
 74
    0
  0
LTYPE
  5
44
330
5
100
AcDbSymbolTableRecord
100
AcDbLinetypeTableRecord
  2
BORDER2
 70
    0
  3
Border (.5x) __.__.__.__.__.__.__.__.__.__.__.
 72
   65
 73
    6
 40
22.225
 49
6.35
 74
    0
 49
-3.175
 74
    0
 49
6.35
 74
    0
 49
-3.175
 74
    0
 49
0
 74
    0
 49
-3.175
 74
    0
  0
LTYPE
  5
45
330
5
100
AcDbSymbolTableRecord
100
AcDbLinetypeTableRecord
  2
BORDERX2
 70
    0
  3
Border (2x) ____  ____  .  ____  ____  .  ___
 72
   65
 73
    6
 40
88.89999999999999
 49
25.4
 74
    0
 49
-12.7
 74
    0
 49
25.4
 74
    0
 49
-12.7
 74
    0
 49
0
 74
    0
 49
-12.7
 74
    0
  0
LTYPE
  5
46
330
5
100
AcDbSymbolTableRecord
100
AcDbLinetypeTableRecord
  2
CENTER
 70
    0
  3
Center ____ _ ____ _ ____ _ ____ _ ____ _ ____
 72
   65
 73
    4
 40
50.8
 49
31.75
 74
    0
 49
-6.35
 74
    0
 49
6.35
 74
    0
 49
-6.35
 74
    0
  0
LTYPE
  5
47
330
5
100
AcDbSymbolTableRecord
100
AcDbLinetypeTableRecord
  2
CENTERTINY
 70
    0
  3
Center (.15x) ___ _ ___ _ ___ _ ___ _ ___ _ ___
 72
   65
 73
    4
 40
7.619999999999999
 49
4.7625
 74
    0
 49
-0.9525
 74
    0
 49
0.9525
 74
    0
 49
-0.9525
 74
    0
  0
LTYPE
  5
48
330
5
100
AcDbSymbolTableRecord
100
AcDbLinetypeTableRecord
  2
CENTER2
 70
    0
  3
Center (.5x) ___ _ ___ _ ___ _ ___ _ ___ _ ___
 72
   65
 73
    4
 40
28.575
 49
19.05
 74
    0
 49
-3.175
 74
    0
 49
3.175
 74
    0
 49
-3.175
 74
    0
  0
LTYPE
  5
49
330
5
100
AcDbSymbolTableRecord
100
AcDbLinetypeTableRecord
  2
CENTERX2
 70
    0
  3
Center (2x) ________  __  ________  __  _____
 72
   65
 73
    4
 40
101.6
 49
63.5
 74
    0
 49
-12.7
 74
    0
 49
12.7
 74
    0
 49
-12.7
 74
    0
  0
ENDTAB
  0
TABLE
  2
LAYER
  5
2
330
0
100
AcDbSymbolTable
 70
    1
  0
LAYER
  5
10
330
2
100
AcDbSymbolTableRecord
100
AcDbLayerTableRecord
  2
0
 70
    0
 62
    7
  6
CONTINUOUS
370
    0
390
F
  0
LAYER
  5
4A
330
2
100
AcDbSymbolTableRecord
100
AcDbLayerTableRecord
  2
PYDXF
 70
    0
 62
    7
  6
CONTINUOUS
370
   -3
390
F
  0
ENDTAB
  0
TABLE
  2
STYLE
  5
3
330
0
100
AcDbSymbolTable
 70
    3
  0
STYLE
  5
4B
330
2
100
AcDbSymbolTableRecord
100
AcDbTextStyleTableRecord
  2
Standard
 70
    0
 40
0
 41
1
 50
0
 71
    0
 42
1
  3
txt
  4

  0
ENDTAB
  0
TABLE
  2
VIEW
  5
6
330
0
100
AcDbSymbolTable
 70
    0
  0
ENDTAB
  0
TABLE
  2
UCS
  5
7
330
0
100
AcDbSymbolTable
 70
    0
  0
ENDTAB
  0
TABLE
  2
APPID
  5
9
330
0
100
AcDbSymbolTable
 70
    1
  0
APPID
  5
12
330
9
100
AcDbSymbolTableRecord
100
AcDbRegAppTableRecord
  2
ACAD
 70
    0
  0
APPID
  5
4C
330
9
100
AcDbSymbolTableRecord
100
AcDbRegAppTableRecord
  2
LibreCad
 70
    0
  0
ENDTAB
  0
TABLE
  2
DIMSTYLE
  5
A
330
0
100
AcDbSymbolTable
 70
    1
100
AcDbDimStyleTable
 71
    1
  0
DIMSTYLE
105
4D
330
A
100
AcDbSymbolTableRecord
100
AcDbDimStyleTableRecord
  2
Standard
 70
    0
 40
1
 41
2.5
 42
0.625
 43
0.38
 44
1.25
 45
0
 46
0
 47
0
 48
0
 49
1
140
2.5
141
0.09
142
2.5
143
25.4
144
1
145
0
146
1
147
0.625
148
0
 71
    0
 72
    0
 73
    0
 74
    1
 75
    0
 76
    0
 77
    0
 78
    1
 79
    0
170
    0
171
    2
172
    0
173
    0
174
    0
175
    0
176
    0
177
    0
178
    0
179
    0
271
    2
272
    4
273
    2
274
    2
275
    0
276
    0
277
    2
278
    0
279
    0
280
    0
281
    0
282
    0
283
    1
284
    0
285
    0
286
    0
288
    0
289
    3
340
standard
341

371
   -2
372
   -2
  0
ENDTAB
  0
TABLE
  2
BLOCK_RECORD
  5
1
330
0
100
AcDbSymbolTable
 70
    2
  0
BLOCK_RECORD
  5
1F
330
1
100
AcDbSymbolTableRecord
100
AcDbBlockTableRecord
  2
*Model_Space
 70
    0
280
    1
281
    0
  0
BLOCK_RECORD
  5
1E
330
1
100
AcDbSymbolTableRecord
100
AcDbBlockTableRecord
  2
*Paper_Space
 70
    0
280
    1
281
    0
  0
ENDTAB
  0
ENDSEC
  0
SECTION
  2
BLOCKS
  0
BLOCK
  5
20
330
1F
100
AcDbEntity
  8
0
100
AcDbBlockBegin
  2
*Model_Space
 70
    0
 10
0
 20
0
 30
0
  3
*Model_Space
  1

  0
ENDBLK
  5
21
330
1F
100
AcDbEntity
  8
0
100
AcDbBlockEnd
  0
BLOCK
  5
1C
330
1B
100
AcDbEntity
  8
0
100
AcDbBlockBegin
  2
*Paper_Space
 70
    0
 10
0
 20
0
 30
0
  3
*Paper_Space
  1

  0
ENDBLK
  5
1D
330
1F
100
AcDbEntity
  8
0
100
AcDbBlockEnd
  0
ENDSEC
  0
SECTION
  2
ENTITIES
  0
LINE
  5
4E
100
AcDbEntity
  8
0
  6
ByLayer
 62
  256
370
   -1
100
AcDbLine
 10
90.67821502685547
 20
9.660187721252441
 11
90.67821502685547
 21
9.660187721252441
  0
LINE
  5
4F
100
AcDbEntity
  8
0
  6
ByLayer
 62
  256
370
   -1
100
AcDbLine
 10
158.4147644042969
 20
172.2770080566406
 11
163.2055358886719
 21
174.9012603759766
  0
LINE
  5
50
100
AcDbEntity
  8
0
  6
ByLayer
 62
  256
370
   -1
100
AcDbLine
 10
96.46630859375
 20
198.6015014648438
 11
98.90308380126953
 21
192.6629638671875
  0
LINE
  5
51
100
AcDbEntity
  8
0
  6
ByLayer
 62
  256
370
   -1
100
AcDbLine
 10
170.5738830566406
 20
128.5569915771484
 11
170.5738830566406
 21
128.5569915771484
  0
LINE
  5
52
100
AcDbEntity
  8
0
  6
ByLayer
 62
  256
370
   -1
100
AcDbLine
 10
22.18585586547852
 20
106.2755813598633
 11
22.18585586547852
 21
106.2755813598633
  0
LINE
  5
53
100
AcDbEntity
  8
0
  6
ByLayer
 62
  256
370
   -1
100
AcDbLine
 10
162.5532836914062
 20
248.2118377685547
 11
162.5532836914062
 21
248.2118377685547
  0
LINE
  5
54
100
AcDbEntity
  8
0
  6
ByLayer
 62
  256
370
   -1
100
AcDbLine
 10
30.67971801757812
 20
113.2714309692383
 11
30.67971801757812
 21
113.2714309692383
  0
LINE
  5
55
100
AcDbEntity
  8
0
  6
ByLayer
 62
  256
370
   -1
100
AcDbLine
 10
24.0847339630127
 20
70.51046752929688
 11
30.7119026184082
 21
72.62075042724609
  0
LINE
  5
56
100
AcDbEntity
  8
0
  6
ByLayer
 62
  256
370
   -1
100
AcDbLine
 10
12.26512050628662
 20
101.0493927001953
 11
12.26512050628662
 21
101.0493927001953
  0
LINE
  5
57
100
AcDbEntity
  8
0
  6
ByLayer
 62
  256
370
   -1
100
AcDbLine
 10
230.9016265869141
 20
173.9964904785156
 11
230.9016265869141
 21
173.9964904785156
  0
LINE
  5
58
100
AcDbEntity
  8
0
  6
ByLayer
 62
  256
370
   -1
100
AcDbLine
 10
175.6079711914062
 20
131.8831787109375
 11
183.9818115234375
 21
139.4240417480469
  0
LINE
  5
59
100
AcDbEntity
  8
0
  6
ByLayer
 62
  256
370
   -1
100
AcDbLine
 10
34.4109992980957
 20
85.15582275390625
 11
34.4109992980957
 21
85.15582275390625
  0
LINE
  5
5A
100
AcDbEntity
  8
0
  6
ByLayer
 62
  256
370
   -1
100
AcDbLine
 10
206.556640625
 20
183.4808197021484
 11
204.4541778564453
 21
176.3757019042969
  0
LINE
  5
5B
100
AcDbEntity
  8
0
  6
ByLayer
 62
  256
370
   -1
100
AcDbLine
 10
30.67971801757812
 20
113.2714309692383
 11
23.60243225097656
 21
112.578987121582
  0
LINE
  5
5C
100
AcDbEntity
  8
0
  6
ByLayer
 62
  256
370
   -1
100
AcDbLine
 10
24.0847339630127
 20
70.51046752929688
 11
18.48697853088379
 21
70.47901916503906
  0
LINE
  5
5D
100
AcDbEntity
  8
0
  6
ByLayer
 62
  256
370
   -1
100
AcDbLine
 10
14.53566455841064
 20
148.8923950195312
 11
10.48074436187744
 21
152.7549133300781
  0
LINE
  5
5E
100
AcDbEntity
  8
0
  6
ByLayer
 62
  256
370
   -1
100
AcDbLine
 10
184.2402496337891
 20
157.2960357666016
 11
184.2402496337891
 21
157.2960357666016
  0
LINE
  5
5F
100
AcDbEntity
  8
0
  6
ByLayer
 62
  256
370
   -1
100
AcDbLine
 10
90.51348114013672
 20
158.0363464355469
 11
90.96879577636719
 21
165.1789093017578
  0
LINE
  5
60
100
AcDbEntity
  8
0
  6
ByLayer
 62
  256
370
   -1
100
AcDbLine
 10
63.00503921508789
 20
241.9770660400391
 11
65.54756927490234
 21
246.8308563232422
  0
LINE
  5
61
100
AcDbEntity
  8
0
  6
ByLayer
 62
  256
370
   -1
100
AcDbLine
 10
125.2778472900391
 20
182.5970153808594
 11
130.1833038330078
 21
179.6324157714844
  0
LINE
  5
62
100
AcDbEntity
  8
0
  6
ByLayer
 62
  256
370
   -1
100
AcDbLine
 10
150.1630401611328
 20
221.6292114257812
 11
150.1630401611328
 21
221.6292114257812
  0
LINE
  5
63
100
AcDbEntity
  8
0
  6
ByLayer
 62
  256
370
   -1
100
AcDbLine
 10
186.0588226318359
 20
241.8575286865234
 11
188.4865875244141
 21
236.4882659912109
  0
LINE
  5
64
100
AcDbEntity
  8
0
  6
ByLayer
 62
  256
370
   -1
100
AcDbLine
 10
93.05299377441406
 20
242.9385833740234
 11
95.83929443359375
 21
237.3498077392578
  0
LINE
  5
65
100
AcDbEntity
  8
0
  6
ByLayer
 62
  256
370
   -1
100
AcDbLine
 10
96.46630859375
 20
198.6015014648438
 11
96.23905181884766
 21
205.7752075195312
  0
LINE
  5
66
100
AcDbEntity
  8
0
  6
ByLayer
 62
  256
370
   -1
100
AcDbLine
 10
165.2765045166016
 20
243.1214141845703
 11
165.2765045166016
 21
243.1214141845703
  0
LINE
  5
67
100
AcDbEntity
  8
0
  6
ByLayer
 62
  256
370
   -1
100
AcDbLine
 10
32.13913345336914
 20
152.2528228759766
 11
26.67854499816895
 21
150.6808166503906
  0
LINE
  5
68
100
AcDbEntity
  8
0
  6
ByLayer
 62
  256
370
   -1
100
AcDbLine
 10
156.9873504638672
 20
233.0886077880859
 11
156.9873504638672
 21
233.0886077880859
  0
LINE
  5
69
100
AcDbEntity
  8
0
  6
ByLayer
 62
  256
370
   -1
100
AcDbLine
 10
174.4157409667969
 20
204.8698120117188
 11
180.0149841308594
 21
195.1000671386719
  0
LINE
  5
6A
100
AcDbEntity
  8
0
  6
ByLayer
 62
  256
370
   -1
100
AcDbLine
 10
211.0687866210938
 20
200.7625274658203
 11
214.4056549072266
 21
203.4966430664062
  0
LINE
  5
6B
100
AcDbEntity
  8
0
  6
ByLayer
 62
  256
370
   -1
100
AcDbLine
 10
231.7711639404297
 20
207.4445343017578
 11
231.7711639404297
 21
207.4445343017578
  0
LINE
  5
6C
100
AcDbEntity
  8
0
  6
ByLayer
 62
  256
370
   -1
100
AcDbLine
 10
219.1297454833984
 20
176.1103210449219
 11
216.7788696289062
 21
180.200927734375
  0
LINE
  5
6D
100
AcDbEntity
  8
0
  6
ByLayer
 62
  256
370
   -1
100
AcDbLine
 10
242.9577331542969
 20
191.0081939697266
 11
241.7486572265625
 21
194.2476043701172
  0
LINE
  5
6E
100
AcDbEntity
  8
0
  6
ByLayer
 62
  256
370
   -1
100
AcDbLine
 10
206.556640625
 20
183.4808197021484
 11
210.0111541748047
 21
190.1204223632812
  0
LINE
  5
6F
100
AcDbEntity
  8
0
  6
ByLayer
 62
  256
370
   -1
100
AcDbLine
 10
175.6079711914062
 20
131.8831787109375
 11
170.5738830566406
 21
128.5569915771484
  0
LINE
  5
70
100
AcDbEntity
  8
0
  6
ByLayer
 62
  256
370
   -1
100
AcDbLine
 10
189.6083831787109
 20
162.0382385253906
 11
184.2402496337891
 21
157.2960357666016
  0
LINE
  5
71
100
AcDbEntity
  8
0
  6
ByLayer
 62
  256
370
   -1
100
AcDbLine
 10
222.5254516601562
 20
94.893310546875
 11
224.6225280761719
 21
99.52706909179688
  0
LINE
  5
72
100
AcDbEntity
  8
0
  6
ByLayer
 62
  256
370
   -1
100
AcDbLine
 10
212.6287536621094
 20
89.25180053710938
 11
210.2201843261719
 21
97.90323638916016
  0
LINE
  5
73
100
AcDbEntity
  8
0
  6
ByLayer
 62
  256
370
   -1
100
AcDbLine
 10
181.6266479492188
 20
42.86741256713867
 11
188.5102081298828
 21
41.20621871948242
  0
LINE
  5
74
100
AcDbEntity
  8
0
  6
ByLayer
 62
  256
370
   -1
100
AcDbLine
 10
165.8212890625
 20
57.94937515258789
 11
168.0601654052734
 21
61.64971542358398
  0
LINE
  5
75
100
AcDbEntity
  8
0
  6
ByLayer
 62
  256
370
   -1
100
AcDbLine
 10
160.7897338867188
 20
81.48432159423828
 11
150.570068359375
 21
82.92254638671875
  0
LINE
  5
76
100
AcDbEntity
  8
0
  6
ByLayer
 62
  256
370
   -1
100
AcDbLine
 10
136.7407836914062
 20
84.12453460693359
 11
136.7407836914062
 21
84.12453460693359
  0
LINE
  5
77
100
AcDbEntity
  8
0
  6
ByLayer
 62
  256
370
   -1
100
AcDbLine
 10
122.9750518798828
 20
82.36653900146484
 11
113.1708374023438
 21
78.16381072998047
  0
LINE
  5
78
100
AcDbEntity
  8
0
  6
ByLayer
 62
  256
370
   -1
100
AcDbLine
 10
107.4311676025391
 20
10.01882076263428
 11
101.5358428955078
 21
6.018252849578857
  0
LINE
  5
79
100
AcDbEntity
  8
0
  6
ByLayer
 62
  256
370
   -1
100
AcDbLine
 10
83.00901794433594
 20
30.92978858947754
 11
79.7860107421875
 21
27.09873199462891
  0
LINE
  5
7A
100
AcDbEntity
  8
0
  6
ByLayer
 62
  256
370
   -1
100
AcDbLine
 10
87.15518951416016
 20
10.61516952514648
 11
90.67821502685547
 21
9.660187721252441
  0
LINE
  5
7B
100
AcDbEntity
  8
0
  6
ByLayer
 62
  256
370
   -1
100
AcDbLine
 10
247.2989349365234
 20
98.50373077392578
 11
247.2989349365234
 21
98.50373077392578
  0
LINE
  5
7C
100
AcDbEntity
  8
0
  6
ByLayer
 62
  256
370
   -1
100
AcDbLine
 10
99.15619659423828
 20
11.27028465270996
 11
94.63076782226562
 21
10.08920383453369
  0
LINE
  5
7D
100
AcDbEntity
  8
0
  6
ByLayer
 62
  256
370
   -1
100
AcDbLine
 10
88.64024353027344
 20
77.95476531982422
 11
95.59263610839844
 21
87.55110168457031
  0
LINE
  5
7E
100
AcDbEntity
  8
0
  6
ByLayer
 62
  256
370
   -1
100
AcDbLine
 10
247.5811767578125
 20
83.46680450439453
 11
244.7304229736328
 21
80.69557952880859
  0
LINE
  5
7F
100
AcDbEntity
  8
0
  6
ByLayer
 62
  256
370
   -1
100
AcDbLine
 10
193.9157104492188
 20
115.6668472290039
 11
188.5682067871094
 21
114.5606689453125
  0
LINE
  5
80
100
AcDbEntity
  8
0
  6
ByLayer
 62
  256
370
   -1
100
AcDbLine
 10
76.38653564453125
 20
12.59595108032227
 11
76.38653564453125
 21
12.59595108032227
  0
LINE
  5
81
100
AcDbEntity
  8
0
  6
ByLayer
 62
  256
370
   -1
100
AcDbLine
 10
161.2335510253906
 20
148.316650390625
 11
161.2335510253906
 21
148.316650390625
  0
LINE
  5
82
100
AcDbEntity
  8
0
  6
ByLayer
 62
  256
370
   -1
100
AcDbLine
 10
181.7664184570312
 20
238.3522033691406
 11
181.7664184570312
 21
238.3522033691406
  0
LINE
  5
83
100
AcDbEntity
  8
0
  6
ByLayer
 62
  256
370
   -1
100
AcDbLine
 10
188.8764495849609
 20
230.9017181396484
 11
188.8764495849609
 21
230.9017181396484
  0
LINE
  5
84
100
AcDbEntity
  8
0
  6
ByLayer
 62
  256
370
   -1
100
AcDbLine
 10
20.17055130004883
 20
174.8640747070312
 11
20.17055130004883
 21
174.8640747070312
  0
LINE
  5
85
100
AcDbEntity
  8
0
  6
ByLayer
 62
  256
370
   -1
100
AcDbLine
 10
12.26512050628662
 20
101.0493927001953
 11
14.74137592315674
 21
103.1968460083008
  0
LINE
  5
86
100
AcDbEntity
  8
0
  6
ByLayer
 62
  256
370
   -1
100
AcDbLine
 10
170.1090393066406
 20
218.7829742431641
 11
166.6952667236328
 21
219.4536437988281
  0
LINE
  5
87
100
AcDbEntity
  8
0
  6
ByLayer
 62
  256
370
   -1
100
AcDbLine
 10
161.4243469238281
 20
51.55886459350586
 11
156.326416015625
 21
44.85958099365234
  0
LINE
  5
88
100
AcDbEntity
  8
0
  6
ByLayer
 62
  256
370
   -1
100
AcDbLine
 10
47.76546478271484
 20
132.8903350830078
 11
47.76546478271484
 21
132.8903350830078
  0
LINE
  5
89
100
AcDbEntity
  8
0
  6
ByLayer
 62
  256
370
   -1
100
AcDbLine
 10
206.556640625
 20
183.4808197021484
 11
206.556640625
 21
183.4808197021484
  0
LINE
  5
8A
100
AcDbEntity
  8
0
  6
ByLayer
 62
  256
370
   -1
100
AcDbLine
 10
50.96630096435547
 20
108.51171875
 11
50.96630096435547
 21
108.51171875
  0
LINE
  5
8B
100
AcDbEntity
  8
0
  6
ByLayer
 62
  256
370
   -1
100
AcDbLine
 10
157.5850067138672
 20
245.6824493408203
 11
157.5850067138672
 21
245.6824493408203
  0
LINE
  5
8C
100
AcDbEntity
  8
0
  6
ByLayer
 62
  256
370
   -1
100
AcDbLine
 10
161.4243469238281
 20
51.55886459350586
 11
165.8212890625
 21
57.94937515258789
  0
LINE
  5
8D
100
AcDbEntity
  8
0
  6
ByLayer
 62
  256
370
   -1
100
AcDbLine
 10
2.63633918762207
 20
89.10655212402344
 11
2.63633918762207
 21
89.10655212402344
  0
LINE
  5
8E
100
AcDbEntity
  8
0
  6
ByLayer
 62
  256
370
   -1
100
AcDbLine
 10
30.25721549987793
 20
182.3468933105469
 11
37.62575149536133
 21
180.1899719238281
  0
LINE
  5
8F
100
AcDbEntity
  8
0
  6
ByLayer
 62
  256
370
   -1
100
AcDbLine
 10
95.34444427490234
 20
228.5740203857422
 11
96.53543090820312
 21
233.4389801025391
  0
LINE
  5
90
100
AcDbEntity
  8
0
  6
ByLayer
 62
  256
370
   -1
100
AcDbLine
 10
104.8576278686523
 20
225.2403411865234
 11
101.3232727050781
 21
217.3357696533203
  0
LINE
  5
91
100
AcDbEntity
  8
0
  6
ByLayer
 62
  256
370
   -1
100
AcDbLine
 10
154.2834777832031
 20
213.3529205322266
 11
150.1630401611328
 21
221.6292114257812
  0
LINE
  5
92
100
AcDbEntity
  8
0
  6
ByLayer
 62
  256
370
   -1
100
AcDbLine
 10
170.1090393066406
 20
218.7829742431641
 11
175.0632171630859
 21
219.4838256835938
  0
LINE
  5
93
100
AcDbEntity
  8
0
  6
ByLayer
 62
  256
370
   -1
100
AcDbLine
 10
178.3040924072266
 20
241.8395538330078
 11
181.7664184570312
 21
238.3522033691406
  0
LINE
  5
94
100
AcDbEntity
  8
0
  6
ByLayer
 62
  256
370
   -1
100
AcDbLine
 10
166.8958587646484
 20
178.5045166015625
 11
163.2055358886719
 21
174.9012603759766
  0
LINE
  5
95
100
AcDbEntity
  8
0
  6
ByLayer
 62
  256
370
   -1
100
AcDbLine
 10
206.0226745605469
 20
195.7521667480469
 11
206.0226745605469
 21
195.7521667480469
  0
LINE
  5
96
100
AcDbEntity
  8
0
  6
ByLayer
 62
  256
370
   -1
100
AcDbLine
 10
247.8907470703125
 20
192.8320922851562
 11
249.0203704833984
 21
187.6949462890625
  0
LINE
  5
97
100
AcDbEntity
  8
0
  6
ByLayer
 62
  256
370
   -1
100
AcDbLine
 10
218.8969268798828
 20
181.2811737060547
 11
217.4689025878906
 21
181.4102325439453
  0
LINE
  5
98
100
AcDbEntity
  8
0
  6
ByLayer
 62
  256
370
   -1
100
AcDbLine
 10
15.43886852264404
 20
155.0976867675781
 11
13.32987308502197
 21
159.1202239990234
  0
LINE
  5
99
100
AcDbEntity
  8
0
  6
ByLayer
 62
  256
370
   -1
100
AcDbLine
 10
243.0998992919922
 20
183.3538360595703
 11
243.0998992919922
 21
183.3538360595703
  0
LINE
  5
9A
100
AcDbEntity
  8
0
  6
ByLayer
 62
  256
370
   -1
100
AcDbLine
 10
28.95052909851074
 20
176.4343872070312
 11
28.95052909851074
 21
176.4343872070312
  0
LINE
  5
9B
100
AcDbEntity
  8
0
  6
ByLayer
 62
  256
370
   -1
100
AcDbLine
 10
94.14738464355469
 20
118.6199111938477
 11
95.78024291992188
 21
117.5276260375977
  0
LINE
  5
9C
100
AcDbEntity
  8
0
  6
ByLayer
 62
  256
370
   -1
100
AcDbLine
 10
202.5972290039062
 20
168.3544769287109
 11
202.5972290039062
 21
168.3544769287109
  0
LINE
  5
9D
100
AcDbEntity
  8
0
  6
ByLayer
 62
  256
370
   -1
100
AcDbLine
 10
210.6931304931641
 20
121.712516784668
 11
210.6931304931641
 21
121.712516784668
  0
LINE
  5
9E
100
AcDbEntity
  8
0
  6
ByLayer
 62
  256
370
   -1
100
AcDbLine
 10
210.6931304931641
 20
121.712516784668
 11
214.1878662109375
 21
115.383415222168
  0
LINE
  5
9F
100
AcDbEntity
  8
0
  6
ByLayer
 62
  256
370
   -1
100
AcDbLine
 10
206.662109375
 20
105.1921615600586
 11
206.662109375
 21
105.1921615600586
  0
LINE
  5
A0
100
AcDbEntity
  8
0
  6
ByLayer
 62
  256
370
   -1
100
AcDbLine
 10
179.493408203125
 20
56.62799453735352
 11
175.5542297363281
 21
51.26409912109375
  0
LINE
  5
A1
100
AcDbEntity
  8
0
  6
ByLayer
 62
  256
370
   -1
100
AcDbLine
 10
178.5977783203125
 20
7.38602876663208
 11
170.8703460693359
 21
8.625791549682617
  0
LINE
  5
A2
100
AcDbEntity
  8
0
  6
ByLayer
 62
  256
370
   -1
100
AcDbLine
 10
249.9617004394531
 20
90.41947937011719
 11
249.9617004394531
 21
90.41947937011719
  0
LINE
  5
A3
100
AcDbEntity
  8
0
  6
ByLayer
 62
  256
370
   -1
100
AcDbLine
 10
190.2035369873047
 20
22.0842342376709
 11
187.6441650390625
 21
18.41846656799316
  0
LINE
  5
A4
100
AcDbEntity
  8
0
  6
ByLayer
 62
  256
370
   -1
100
AcDbLine
 10
79.72655487060547
 20
34.42131805419922
 11
86.57909393310547
 21
37.90349960327148
  0
LINE
  5
A5
100
AcDbEntity
  8
0
  6
ByLayer
 62
  256
370
   -1
100
AcDbLine
 10
162.1849060058594
 20
28.77742195129395
 11
163.2224426269531
 21
33.55971908569336
  0
LINE
  5
A6
100
AcDbEntity
  8
0
  6
ByLayer
 62
  256
370
   -1
100
AcDbLine
 10
83.80439758300781
 20
12.25964641571045
 11
87.15518951416016
 21
10.61516952514648
  0
LINE
  5
A7
100
AcDbEntity
  8
0
  6
ByLayer
 62
  256
370
   -1
100
AcDbLine
 10
108.0385284423828
 20
25.26089286804199
 11
107.0105056762695
 21
29.79541206359863
  0
LINE
  5
A8
100
AcDbEntity
  8
0
  6
ByLayer
 62
  256
370
   -1
100
AcDbLine
 10
62.32339477539062
 20
95.64553070068359
 11
53.9693603515625
 21
98.44042205810547
  0
LINE
  5
A9
100
AcDbEntity
  8
0
  6
ByLayer
 62
  256
370
   -1
100
AcDbLine
 10
235.2160797119141
 20
76.59773254394531
 11
235.2160797119141
 21
76.59773254394531
  0
LINE
  5
AA
100
AcDbEntity
  8
0
  6
ByLayer
 62
  256
370
   -1
100
AcDbLine
 10
10.78301811218262
 20
81.79399871826172
 11
10.78301811218262
 21
81.79399871826172
  0
LINE
  5
AB
100
AcDbEntity
  8
0
  6
ByLayer
 62
  256
370
   -1
100
AcDbLine
 10
10.78301811218262
 20
81.79399871826172
 11
9.058524131774902
 21
84.79095458984375
  0
LINE
  5
AC
100
AcDbEntity
  8
0
  6
ByLayer
 62
  256
370
   -1
100
AcDbLine
 10
12.26512050628662
 20
101.0493927001953
 11
10.1513090133667
 21
97.96039581298828
  0
LINE
  5
AD
100
AcDbEntity
  8
0
  6
ByLayer
 62
  256
370
   -1
100
AcDbLine
 10
91.79916381835938
 20
118.8021850585938
 11
90.18161010742188
 21
119.0010833740234
  0
LINE
  5
AE
100
AcDbEntity
  8
0
  6
ByLayer
 62
  256
370
   -1
100
AcDbLine
 10
183.9818115234375
 20
139.4240417480469
 11
189.9987945556641
 21
146.0800476074219
  0
LINE
  5
AF
100
AcDbEntity
  8
0
  6
ByLayer
 62
  256
370
   -1
100
AcDbLine
 10
241.7486572265625
 20
194.2476043701172
 11
239.7548675537109
 21
197.0514526367188
  0
LINE
  5
B0
100
AcDbEntity
  8
0
  6
ByLayer
 62
  256
370
   -1
100
AcDbLine
 10
204.4541778564453
 20
176.3757019042969
 11
202.5972290039062
 21
168.3544769287109
  0
LINE
  5
B1
100
AcDbEntity
  8
0
  6
ByLayer
 62
  256
370
   -1
100
AcDbLine
 10
195.0421600341797
 20
152.7466735839844
 11
189.9987945556641
 21
146.0800476074219
  0
LINE
  5
B2
100
AcDbEntity
  8
0
  6
ByLayer
 62
  256
370
   -1
100
AcDbLine
 10
224.6225280761719
 20
99.52706909179688
 11
228.4380340576172
 21
104.6334686279297
  0
LINE
  5
B3
100
AcDbEntity
  8
0
  6
ByLayer
 62
  256
370
   -1
100
AcDbLine
 10
188.5102081298828
 20
41.20621871948242
 11
193.3210296630859
 21
37.40203475952148
  0
LINE
  5
B4
100
AcDbEntity
  8
0
  6
ByLayer
 62
  256
370
   -1
100
AcDbLine
 10
101.5358428955078
 20
6.018252849578857
 11
96.22782897949219
 21
4.49351978302002
  0
LINE
  5
B5
100
AcDbEntity
  8
0
  6
ByLayer
 62
  256
370
   -1
100
AcDbLine
 10
79.7860107421875
 20
27.09873199462891
 11
78.65232849121094
 21
22.4985179901123
  0
LINE
  5
B6
100
AcDbEntity
  8
0
  6
ByLayer
 62
  256
370
   -1
100
AcDbLine
 10
90.67821502685547
 20
9.660187721252441
 11
94.63076782226562
 21
10.08920383453369
  0
LINE
  5
B7
100
AcDbEntity
  8
0
  6
ByLayer
 62
  256
370
   -1
100
AcDbLine
 10
248.9997711181641
 20
95.05152130126953
 11
248.9997711181641
 21
95.05152130126953
  0
LINE
  5
B8
100
AcDbEntity
  8
0
  6
ByLayer
 62
  256
370
   -1
100
AcDbLine
 10
20.41939163208008
 20
75.62630462646484
 11
16.58887481689453
 21
76.80382537841797
  0
LINE
  5
B9
100
AcDbEntity
  8
0
  6
ByLayer
 62
  256
370
   -1
100
AcDbLine
 10
157.6400146484375
 20
224.7057342529297
 11
161.4249572753906
 21
217.67041015625
  0
LINE
  5
BA
100
AcDbEntity
  8
0
  6
ByLayer
 62
  256
370
   -1
100
AcDbLine
 10
85.29839324951172
 20
5.433522701263428
 11
85.29839324951172
 21
5.433522701263428
  0
LINE
  5
BB
100
AcDbEntity
  8
0
  6
ByLayer
 62
  256
370
   -1
100
AcDbLine
 10
67.48845672607422
 20
232.8399200439453
 11
67.48845672607422
 21
232.8399200439453
  0
LINE
  5
BC
100
AcDbEntity
  8
0
  6
ByLayer
 62
  256
370
   -1
100
AcDbLine
 10
61.99539566040039
 20
236.8232269287109
 11
61.99539566040039
 21
236.8232269287109
  0
LINE
  5
BD
100
AcDbEntity
  8
0
  6
ByLayer
 62
  256
370
   -1
100
AcDbLine
 10
23.60243225097656
 20
112.578987121582
 11
23.60243225097656
 21
112.578987121582
  0
LINE
  5
BE
100
AcDbEntity
  8
0
  6
ByLayer
 62
  256
370
   -1
100
AcDbLine
 10
18.48697853088379
 20
70.47901916503906
 11
13.77316951751709
 21
72.12926483154297
  0
LINE
  5
BF
100
AcDbEntity
  8
0
  6
ByLayer
 62
  256
370
   -1
100
AcDbLine
 10
30.7119026184082
 20
72.62075042724609
 11
35.30524826049805
 21
77.22579956054688
  0
LINE
  5
C0
100
AcDbEntity
  8
0
  6
ByLayer
 62
  256
370
   -1
100
AcDbLine
 10
34.73313140869141
 20
90.15060424804688
 11
34.73313140869141
 21
90.15060424804688
  0
LINE
  5
C1
100
AcDbEntity
  8
0
  6
ByLayer
 62
  256
370
   -1
100
AcDbLine
 10
10.48074436187744
 20
152.7549133300781
 11
7.892623424530029
 21
158.0487670898438
  0
LINE
  5
C2
100
AcDbEntity
  8
0
  6
ByLayer
 62
  256
370
   -1
100
AcDbLine
 10
90.96879577636719
 20
165.1789093017578
 11
91.32882690429688
 21
169.6396331787109
  0
LINE
  5
C3
100
AcDbEntity
  8
0
  6
ByLayer
 62
  256
370
   -1
100
AcDbLine
 10
65.54756927490234
 20
246.8308563232422
 11
72.44920349121094
 21
252.7734832763672
  0
LINE
  5
C4
100
AcDbEntity
  8
0
  6
ByLayer
 62
  256
370
   -1
100
AcDbLine
 10
130.1833038330078
 20
179.6324157714844
 11
137.9080657958984
 21
174.4363708496094
  0
LINE
  5
C5
100
AcDbEntity
  8
0
  6
ByLayer
 62
  256
370
   -1
100
AcDbLine
 10
188.4865875244141
 20
236.4882659912109
 11
188.8764495849609
 21
230.9017181396484
  0
LINE
  5
C6
100
AcDbEntity
  8
0
  6
ByLayer
 62
  256
370
   -1
100
AcDbLine
 10
187.2774200439453
 20
224.1313171386719
 11
187.2774200439453
 21
224.1313171386719
  0
LINE
  5
C7
100
AcDbEntity
  8
0
  6
ByLayer
 62
  256
370
   -1
100
AcDbLine
 10
183.5203704833984
 20
234.1626586914062
 11
183.5203704833984
 21
234.1626586914062
  0
LINE
  5
C8
100
AcDbEntity
  8
0
  6
ByLayer
 62
  256
370
   -1
100
AcDbLine
 10
170.5086517333984
 20
244.3167114257812
 11
165.2765045166016
 21
243.1214141845703
  0
LINE
  5
C9
100
AcDbEntity
  8
0
  6
ByLayer
 62
  256
370
   -1
100
AcDbLine
 10
158.4684295654297
 20
237.3591613769531
 11
158.4684295654297
 21
237.3591613769531
  0
LINE
  5
CA
100
AcDbEntity
  8
0
  6
ByLayer
 62
  256
370
   -1
100
AcDbLine
 10
157.6400146484375
 20
224.7057342529297
 11
156.7351989746094
 21
228.7701873779297
  0
LINE
  5
CB
100
AcDbEntity
  8
0
  6
ByLayer
 62
  256
370
   -1
100
AcDbLine
 10
180.0149841308594
 20
195.1000671386719
 11
180.9938049316406
 21
186.209716796875
  0
LINE
  5
CC
100
AcDbEntity
  8
0
  6
ByLayer
 62
  256
370
   -1
100
AcDbLine
 10
214.4056549072266
 20
203.4966430664062
 11
221.7029113769531
 21
206.6949615478516
  0
LINE
  5
CD
100
AcDbEntity
  8
0
  6
ByLayer
 62
  256
370
   -1
100
AcDbLine
 10
249.0203704833984
 20
187.6949462890625
 11
249.0203704833984
 21
187.6949462890625
  0
LINE
  5
CE
100
AcDbEntity
  8
0
  6
ByLayer
 62
  256
370
   -1
100
AcDbLine
 10
241.5644989013672
 20
179.6522064208984
 11
243.0998992919922
 21
183.3538360595703
  0
LINE
  5
CF
100
AcDbEntity
  8
0
  6
ByLayer
 62
  256
370
   -1
100
AcDbLine
 10
237.3169250488281
 20
169.8070526123047
 11
237.3169250488281
 21
169.8070526123047
  0
LINE
  5
D0
100
AcDbEntity
  8
0
  6
ByLayer
 62
  256
370
   -1
100
AcDbLine
 10
216.7788696289062
 20
180.200927734375
 11
217.4689025878906
 21
181.4102325439453
  0
LINE
  5
D1
100
AcDbEntity
  8
0
  6
ByLayer
 62
  256
370
   -1
100
AcDbLine
 10
165.6708068847656
 20
218.4052429199219
 11
165.6708068847656
 21
218.4052429199219
  0
LINE
  5
D2
100
AcDbEntity
  8
0
  6
ByLayer
 62
  256
370
   -1
100
AcDbLine
 10
210.2201843261719
 20
97.90323638916016
 11
206.662109375
 21
105.1921615600586
  0
LINE
  5
D3
100
AcDbEntity
  8
0
  6
ByLayer
 62
  256
370
   -1
100
AcDbLine
 10
99.15619659423828
 20
11.27028465270996
 11
99.15619659423828
 21
11.27028465270996
  0
LINE
  5
D4
100
AcDbEntity
  8
0
  6
ByLayer
 62
  256
370
   -1
100
AcDbLine
 10
254.2675018310547
 20
84.91602325439453
 11
251.9818115234375
 21
80.1480712890625
  0
LINE
  5
D5
100
AcDbEntity
  8
0
  6
ByLayer
 62
  256
370
   -1
100
AcDbLine
 10
210.0111541748047
 20
190.1204223632812
 11
210.0111541748047
 21
190.1204223632812
  0
LINE
  5
D6
100
AcDbEntity
  8
0
  6
ByLayer
 62
  256
370
   -1
100
AcDbLine
 10
214.1878662109375
 20
115.383415222168
 11
215.4609527587891
 21
107.8449096679688
  0
LINE
  5
D7
100
AcDbEntity
  8
0
  6
ByLayer
 62
  256
370
   -1
100
AcDbLine
 10
222.5254516601562
 20
94.893310546875
 11
222.5254516601562
 21
94.893310546875
  0
LINE
  5
D8
100
AcDbEntity
  8
0
  6
ByLayer
 62
  256
370
   -1
100
AcDbLine
 10
254.2675018310547
 20
84.91602325439453
 11
255.5577697753906
 21
90.08295440673828
  0
LINE
  5
D9
100
AcDbEntity
  8
0
  6
ByLayer
 62
  256
370
   -1
100
AcDbLine
 10
248.0225982666016
 20
75.89726257324219
 11
243.4635162353516
 21
72.78054809570312
  0
LINE
  5
DA
100
AcDbEntity
  8
0
  6
ByLayer
 62
  256
370
   -1
100
AcDbLine
 10
175.5542297363281
 20
51.26409912109375
 11
165.7756500244141
 21
39.68440628051758
  0
LINE
  5
DB
100
AcDbEntity
  8
0
  6
ByLayer
 62
  256
370
   -1
100
AcDbLine
 10
170.8703460693359
 20
8.625791549682617
 11
162.1455383300781
 21
12.95976543426514
  0
LINE
  5
DC
100
AcDbEntity
  8
0
  6
ByLayer
 62
  256
370
   -1
100
AcDbLine
 10
191.1897583007812
 20
26.08354377746582
 11
190.2035369873047
 21
22.0842342376709
  0
LINE
  5
DD
100
AcDbEntity
  8
0
  6
ByLayer
 62
  256
370
   -1
100
AcDbLine
 10
86.57909393310547
 20
37.90349960327148
 11
92.94565582275391
 21
37.58671569824219
  0
LINE
  5
DE
100
AcDbEntity
  8
0
  6
ByLayer
 62
  256
370
   -1
100
AcDbLine
 10
187.6441650390625
 20
18.41846656799316
 11
183.3379821777344
 21
15.16544151306152
  0
LINE
  5
DF
100
AcDbEntity
  8
0
  6
ByLayer
 62
  256
370
   -1
100
AcDbLine
 10
107.0105056762695
 20
29.79541206359863
 11
102.9894104003906
 21
36.72316360473633
  0
LINE
  5
E0
100
AcDbEntity
  8
0
  6
ByLayer
 62
  256
370
   -1
100
AcDbLine
 10
79.16140747070312
 20
93.94252014160156
 11
79.16140747070312
 21
93.94252014160156
  0
LINE
  5
E1
100
AcDbEntity
  8
0
  6
ByLayer
 62
  256
370
   -1
100
AcDbLine
 10
53.9693603515625
 20
98.44042205810547
 11
46.60628509521484
 21
102.1245880126953
  0
LINE
  5
E2
100
AcDbEntity
  8
0
  6
ByLayer
 62
  256
370
   -1
100
AcDbLine
 10
13.11742401123047
 20
79.26227569580078
 11
13.11742401123047
 21
79.26227569580078
  0
LINE
  5
E3
100
AcDbEntity
  8
0
  6
ByLayer
 62
  256
370
   -1
100
AcDbLine
 10
231.0488128662109
 20
76.42439270019531
 11
227.8316650390625
 21
77.50228118896484
  0
LINE
  5
E4
100
AcDbEntity
  8
0
  6
ByLayer
 62
  256
370
   -1
100
AcDbLine
 10
67.11713409423828
 20
104.4187698364258
 11
74.19316101074219
 21
105.5302581787109
  0
LINE
  5
E5
100
AcDbEntity
  8
0
  6
ByLayer
 62
  256
370
   -1
100
AcDbLine
 10
81.52767944335938
 20
107.6830291748047
 11
81.52767944335938
 21
107.6830291748047
  0
LINE
  5
E6
100
AcDbEntity
  8
0
  6
ByLayer
 62
  256
370
   -1
100
AcDbLine
 10
95.78024291992188
 20
117.5276260375977
 11
95.24037170410156
 21
115.9098739624023
  0
LINE
  5
E7
100
AcDbEntity
  8
0
  6
ByLayer
 62
  256
370
   -1
100
AcDbLine
 10
39.22617721557617
 20
169.0042724609375
 11
39.22617721557617
 21
169.0042724609375
  0
LINE
  5
E8
100
AcDbEntity
  8
0
  6
ByLayer
 62
  256
370
   -1
100
AcDbLine
 10
103.3459701538086
 20
47.52505493164062
 11
103.3459701538086
 21
47.52505493164062
  0
LINE
  5
E9
100
AcDbEntity
  8
0
  6
ByLayer
 62
  256
370
   -1
100
AcDbLine
 10
47.76546478271484
 20
132.8903350830078
 11
53.98992156982422
 21
126.4675140380859
  0
LINE
  5
EA
100
AcDbEntity
  8
0
  6
ByLayer
 62
  256
370
   -1
100
AcDbLine
 10
37.45305252075195
 20
90.65023040771484
 11
37.45305252075195
 21
90.65023040771484
  0
LINE
  5
EB
100
AcDbEntity
  8
0
  6
ByLayer
 62
  256
370
   -1
100
AcDbLine
 10
37.45305252075195
 20
90.65023040771484
 11
35.80086517333984
 21
95.06948089599609
  0
LINE
  5
EC
100
AcDbEntity
  8
0
  6
ByLayer
 62
  256
370
   -1
100
AcDbLine
 10
156.326416015625
 20
44.85958099365234
 11
153.4997711181641
 21
37.24944686889648
  0
LINE
  5
ED
100
AcDbEntity
  8
0
  6
ByLayer
 62
  256
370
   -1
100
AcDbLine
 10
153.7341766357422
 20
29.30977249145508
 11
153.7341766357422
 21
29.30977249145508
  0
LINE
  5
EE
100
AcDbEntity
  8
0
  6
ByLayer
 62
  256
370
   -1
100
AcDbLine
 10
5.254449367523193
 20
100.8918380737305
 11
5.254449367523193
 21
100.8918380737305
  0
LINE
  5
EF
100
AcDbEntity
  8
0
  6
ByLayer
 62
  256
370
   -1
100
AcDbLine
 10
5.254449367523193
 20
100.8918380737305
 11
3.147310972213745
 21
96.36875152587891
  0
LINE
  5
F0
100
AcDbEntity
  8
0
  6
ByLayer
 62
  256
370
   -1
100
AcDbLine
 10
3.811431884765625
 20
83.91734313964844
 11
3.811431884765625
 21
83.91734313964844
  0
LINE
  5
F1
100
AcDbEntity
  8
0
  6
ByLayer
 62
  256
370
   -1
100
AcDbLine
 10
37.45305252075195
 20
90.65023040771484
 11
38.25270080566406
 21
84.32625579833984
  0
LINE
  5
F2
100
AcDbEntity
  8
0
  6
ByLayer
 62
  256
370
   -1
100
AcDbLine
 10
37.49808502197266
 20
158.6797332763672
 11
38.95897674560547
 21
158.8004302978516
  0
LINE
  5
F3
100
AcDbEntity
  8
0
  6
ByLayer
 62
  256
370
   -1
100
AcDbLine
 10
37.62575149536133
 20
180.1899719238281
 11
42.40448379516602
 21
176.8777465820312
  0
LINE
  5
F4
100
AcDbEntity
  8
0
  6
ByLayer
 62
  256
370
   -1
100
AcDbLine
 10
101.3232727050781
 20
217.3357696533203
 11
97.06624603271484
 21
210.5809478759766
  0
LINE
  5
F5
100
AcDbEntity
  8
0
  6
ByLayer
 62
  256
370
   -1
100
AcDbLine
 10
150.1630401611328
 20
221.6292114257812
 11
149.5481719970703
 21
227.2777709960938
  0
LINE
  5
F6
100
AcDbEntity
  8
0
  6
ByLayer
 62
  256
370
   -1
100
AcDbLine
 10
68.56797790527344
 20
240.0233612060547
 11
71.12735748291016
 21
243.6891326904297
  0
LINE
  5
F7
100
AcDbEntity
  8
0
  6
ByLayer
 62
  256
370
   -1
100
AcDbLine
 10
96.53543090820312
 20
233.4389801025391
 11
95.83929443359375
 21
237.3498077392578
  0
LINE
  5
F8
100
AcDbEntity
  8
0
  6
ByLayer
 62
  256
370
   -1
100
AcDbLine
 10
165.2765045166016
 20
243.1214141845703
 11
161.5401306152344
 21
241.0805816650391
  0
LINE
  5
F9
100
AcDbEntity
  8
0
  6
ByLayer
 62
  256
370
   -1
100
AcDbLine
 10
206.0226745605469
 20
195.7521667480469
 11
205.9852142333984
 21
195.6955413818359
  0
LINE
  5
FA
100
AcDbEntity
  8
0
  6
ByLayer
 62
  256
370
   -1
100
AcDbLine
 10
249.0203704833984
 20
187.6949462890625
 11
248.4962768554688
 21
182.5422210693359
  0
LINE
  5
FB
100
AcDbEntity
  8
0
  6
ByLayer
 62
  256
370
   -1
100
AcDbLine
 10
219.1297454833984
 20
176.1103210449219
 11
219.1297454833984
 21
176.1103210449219
  0
LINE
  5
FC
100
AcDbEntity
  8
0
  6
ByLayer
 62
  256
370
   -1
100
AcDbLine
 10
84.9937744140625
 20
61.7691764831543
 11
84.9937744140625
 21
61.7691764831543
  0
LINE
  5
FD
100
AcDbEntity
  8
0
  6
ByLayer
 62
  256
370
   -1
100
AcDbLine
 10
161.5401306152344
 20
241.0805816650391
 11
158.4684295654297
 21
237.3591613769531
  0
LINE
  5
FE
100
AcDbEntity
  8
0
  6
ByLayer
 62
  256
370
   -1
100
AcDbLine
 10
98.90308380126953
 20
192.6629638671875
 11
98.90308380126953
 21
192.6629638671875
  0
LINE
  5
FF
100
AcDbEntity
  8
0
  6
ByLayer
 62
  256
370
   -1
100
AcDbLine
 10
157.6400146484375
 20
224.7057342529297
 11
157.6400146484375
 21
224.7057342529297
  0
LINE
  5
100
100
AcDbEntity
  8
0
  6
ByLayer
 62
  256
370
   -1
100
AcDbLine
 10
42.23231887817383
 20
161.6025848388672
 11
39.22617721557617
 21
169.0042724609375
  0
LINE
  5
101
100
AcDbEntity
  8
0
  6
ByLayer
 62
  256
370
   -1
100
AcDbLine
 10
223.9463500976562
 20
201.6061553955078
 11
223.9463500976562
 21
201.6061553955078
  0
LINE
  5
102
100
AcDbEntity
  8
0
  6
ByLayer
 62
  256
370
   -1
100
AcDbLine
 10
62.72087097167969
 20
231.1252899169922
 11
62.72087097167969
 21
231.1252899169922
  0
LINE
  5
103
100
AcDbEntity
  8
0
  6
ByLayer
 62
  256
370
   -1
100
AcDbLine
 10
153.0806121826172
 20
240.1226043701172
 11
153.0806121826172
 21
240.1226043701172
  0
LINE
  5
104
100
AcDbEntity
  8
0
  6
ByLayer
 62
  256
370
   -1
100
AcDbLine
 10
7.892623424530029
 20
158.0487670898438
 11
7.428668975830078
 21
164.9152984619141
  0
LINE
  5
105
100
AcDbEntity
  8
0
  6
ByLayer
 62
  256
370
   -1
100
AcDbLine
 10
91.32882690429688
 20
169.6396331787109
 11
86.8187255859375
 21
176.1869964599609
  0
LINE
  5
106
100
AcDbEntity
  8
0
  6
ByLayer
 62
  256
370
   -1
100
AcDbLine
 10
61.99539566040039
 20
236.8232269287109
 11
63.00503921508789
 21
241.9770660400391
  0
LINE
  5
107
100
AcDbEntity
  8
0
  6
ByLayer
 62
  256
370
   -1
100
AcDbLine
 10
72.44920349121094
 20
252.7734832763672
 11
80.17375183105469
 21
254.7215728759766
  0
LINE
  5
108
100
AcDbEntity
  8
0
  6
ByLayer
 62
  256
370
   -1
100
AcDbLine
 10
137.9080657958984
 20
174.4363708496094
 11
142.1448822021484
 21
171.1070251464844
  0
LINE
  5
109
100
AcDbEntity
  8
0
  6
ByLayer
 62
  256
370
   -1
100
AcDbLine
 10
188.8764495849609
 20
230.9017181396484
 11
187.2774200439453
 21
224.1313171386719
  0
LINE
  5
10A
100
AcDbEntity
  8
0
  6
ByLayer
 62
  256
370
   -1
100
AcDbLine
 10
161.4249572753906
 20
217.67041015625
 11
167.7595825195312
 21
211.2958984375
  0
LINE
  5
10B
100
AcDbEntity
  8
0
  6
ByLayer
 62
  256
370
   -1
100
AcDbLine
 10
170.1762237548828
 20
190.6957550048828
 11
170.2097473144531
 21
184.2981414794922
  0
LINE
  5
10C
100
AcDbEntity
  8
0
  6
ByLayer
 62
  256
370
   -1
100
AcDbLine
 10
221.7029113769531
 20
206.6949615478516
 11
226.2551422119141
 21
207.6333770751953
  0
LINE
  5
10D
100
AcDbEntity
  8
0
  6
ByLayer
 62
  256
370
   -1
100
AcDbLine
 10
242.5192260742188
 20
201.9466552734375
 11
242.5192260742188
 21
201.9466552734375
  0
LINE
  5
10E
100
AcDbEntity
  8
0
  6
ByLayer
 62
  256
370
   -1
100
AcDbLine
 10
239.7548675537109
 20
197.0514526367188
 11
234.8997192382812
 21
200.8977355957031
  0
LINE
  5
10F
100
AcDbEntity
  8
0
  6
ByLayer
 62
  256
370
   -1
100
AcDbLine
 10
228.4380340576172
 20
104.6334686279297
 11
235.4898986816406
 21
107.6918640136719
  0
LINE
  5
110
100
AcDbEntity
  8
0
  6
ByLayer
 62
  256
370
   -1
100
AcDbLine
 10
206.662109375
 20
105.1921615600586
 11
204.3504943847656
 21
110.2104263305664
  0
LINE
  5
111
100
AcDbEntity
  8
0
  6
ByLayer
 62
  256
370
   -1
100
AcDbLine
 10
193.3210296630859
 20
37.40203475952148
 11
196.0506134033203
 21
30.9822883605957
  0
LINE
  5
112
100
AcDbEntity
  8
0
  6
ByLayer
 62
  256
370
   -1
100
AcDbLine
 10
113.1708374023438
 20
78.16381072998047
 11
105.2580642700195
 21
74.50461578369141
  0
LINE
  5
113
100
AcDbEntity
  8
0
  6
ByLayer
 62
  256
370
   -1
100
AcDbLine
 10
162.8240203857422
 20
147.7009887695312
 11
162.8240203857422
 21
147.7009887695312
  0
LINE
  5
114
100
AcDbEntity
  8
0
  6
ByLayer
 62
  256
370
   -1
100
AcDbLine
 10
80.49542236328125
 20
7.734216690063477
 11
80.49542236328125
 21
7.734216690063477
  0
LINE
  5
115
100
AcDbEntity
  8
0
  6
ByLayer
 62
  256
370
   -1
100
AcDbLine
 10
177.4959411621094
 20
13.62379360198975
 11
171.0724029541016
 21
14.69360446929932
  0
LINE
  5
116
100
AcDbEntity
  8
0
  6
ByLayer
 62
  256
370
   -1
100
AcDbLine
 10
247.2989349365234
 20
98.50373077392578
 11
248.9997711181641
 21
95.05152130126953
  0
LINE
  5
117
100
AcDbEntity
  8
0
  6
ByLayer
 62
  256
370
   -1
100
AcDbLine
 10
99.27393341064453
 20
95.97589874267578
 11
88.12542724609375
 21
94.33352661132812
  0
LINE
  5
118
100
AcDbEntity
  8
0
  6
ByLayer
 62
  256
370
   -1
100
AcDbLine
 10
8.169954299926758
 20
88.11470031738281
 11
8.302806854248047
 21
94.30731201171875
  0
LINE
  5
119
100
AcDbEntity
  8
0
  6
ByLayer
 62
  256
370
   -1
100
AcDbLine
 10
170.1090393066406
 20
218.7829742431641
 11
170.1090393066406
 21
218.7829742431641
  0
LINE
  5
11A
100
AcDbEntity
  8
0
  6
ByLayer
 62
  256
370
   -1
100
AcDbLine
 10
175.6079711914062
 20
131.8831787109375
 11
175.6079711914062
 21
131.8831787109375
  0
LINE
  5
11B
100
AcDbEntity
  8
0
  6
ByLayer
 62
  256
370
   -1
100
AcDbLine
 10
42.23231887817383
 20
161.6025848388672
 11
43.10366821289062
 21
152.6581726074219
  0
LINE
  5
11C
100
AcDbEntity
  8
0
  6
ByLayer
 62
  256
370
   -1
100
AcDbLine
 10
67.48845672607422
 20
232.8399200439453
 11
69.27555084228516
 21
228.6169891357422
  0
LINE
  5
11D
100
AcDbEntity
  8
0
  6
ByLayer
 62
  256
370
   -1
100
AcDbLine
 10
68.91485595703125
 20
132.4145965576172
 11
68.91485595703125
 21
132.4145965576172
  0
LINE
  5
11E
100
AcDbEntity
  8
0
  6
ByLayer
 62
  256
370
   -1
100
AcDbLine
 10
165.6708068847656
 20
218.4052429199219
 11
165.7035980224609
 21
217.1757507324219
  0
LINE
  5
11F
100
AcDbEntity
  8
0
  6
ByLayer
 62
  256
370
   -1
100
AcDbLine
 10
19.19007873535156
 20
105.5447845458984
 11
22.18585586547852
 21
106.2755813598633
  0
LINE
  5
120
100
AcDbEntity
  8
0
  6
ByLayer
 62
  256
370
   -1
100
AcDbLine
 10
36.67207336425781
 20
172.2928924560547
 11
36.67207336425781
 21
172.2928924560547
  0
LINE
  5
121
100
AcDbEntity
  8
0
  6
ByLayer
 62
  256
370
   -1
100
AcDbLine
 10
35.80086517333984
 20
95.06948089599609
 11
34.42927169799805
 21
95.30901336669922
  0
LINE
  5
122
100
AcDbEntity
  8
0
  6
ByLayer
 62
  256
370
   -1
100
AcDbLine
 10
3.147310972213745
 20
96.36875152587891
 11
3.147310972213745
 21
96.36875152587891
  0
LINE
  5
123
100
AcDbEntity
  8
0
  6
ByLayer
 62
  256
370
   -1
100
AcDbLine
 10
38.95897674560547
 20
158.8004302978516
 11
39.88516235351562
 21
157.9911956787109
  0
LINE
  5
124
100
AcDbEntity
  8
0
  6
ByLayer
 62
  256
370
   -1
100
AcDbLine
 10
42.40448379516602
 20
176.8777465820312
 11
46.36373519897461
 21
172.8023681640625
  0
LINE
  5
125
100
AcDbEntity
  8
0
  6
ByLayer
 62
  256
370
   -1
100
AcDbLine
 10
81.86662292480469
 20
224.1224365234375
 11
85.32288360595703
 21
225.9930419921875
  0
LINE
  5
126
100
AcDbEntity
  8
0
  6
ByLayer
 62
  256
370
   -1
100
AcDbLine
 10
81.86662292480469
 20
224.1224365234375
 11
77.44972991943359
 21
223.6323547363281
  0
LINE
  5
127
100
AcDbEntity
  8
0
  6
ByLayer
 62
  256
370
   -1
100
AcDbLine
 10
117.917236328125
 20
184.7503509521484
 11
117.917236328125
 21
184.7503509521484
  0
LINE
  5
128
100
AcDbEntity
  8
0
  6
ByLayer
 62
  256
370
   -1
100
AcDbLine
 10
149.5481719970703
 20
227.2777709960938
 11
150.043701171875
 21
233.0709991455078
  0
LINE
  5
129
100
AcDbEntity
  8
0
  6
ByLayer
 62
  256
370
   -1
100
AcDbLine
 10
169.0158233642578
 20
249.950927734375
 11
169.0158233642578
 21
249.950927734375
  0
LINE
  5
12A
100
AcDbEntity
  8
0
  6
ByLayer
 62
  256
370
   -1
100
AcDbLine
 10
71.12735748291016
 20
243.6891326904297
 11
75.43352508544922
 21
246.9421539306641
  0
LINE
  5
12B
100
AcDbEntity
  8
0
  6
ByLayer
 62
  256
370
   -1
100
AcDbLine
 10
97.06624603271484
 20
210.5809478759766
 11
96.23905181884766
 21
205.7752075195312
  0
LINE
  5
12C
100
AcDbEntity
  8
0
  6
ByLayer
 62
  256
370
   -1
100
AcDbLine
 10
167.7595825195312
 20
211.2958984375
 11
167.7595825195312
 21
211.2958984375
  0
LINE
  5
12D
100
AcDbEntity
  8
0
  6
ByLayer
 62
  256
370
   -1
100
AcDbLine
 10
211.0687866210938
 20
200.7625274658203
 11
211.0687866210938
 21
200.7625274658203
  0
LINE
  5
12E
100
AcDbEntity
  8
0
  6
ByLayer
 62
  256
370
   -1
100
AcDbLine
 10
247.8907470703125
 20
192.8320922851562
 11
247.8907470703125
 21
192.8320922851562
  0
LINE
  5
12F
100
AcDbEntity
  8
0
  6
ByLayer
 62
  256
370
   -1
100
AcDbLine
 10
248.4962768554688
 20
182.5422210693359
 11
246.7617950439453
 21
177.8587188720703
  0
LINE
  5
130
100
AcDbEntity
  8
0
  6
ByLayer
 62
  256
370
   -1
100
AcDbLine
 10
13.32987308502197
 20
159.1202239990234
 11
12.85117149353027
 21
164.0110626220703
  0
LINE
  5
131
100
AcDbEntity
  8
0
  6
ByLayer
 62
  256
370
   -1
100
AcDbLine
 10
214.1878662109375
 20
115.383415222168
 11
214.1878662109375
 21
115.383415222168
  0
LINE
  5
132
100
AcDbEntity
  8
0
  6
ByLayer
 62
  256
370
   -1
100
AcDbLine
 10
215.4609527587891
 20
107.8449096679688
 11
217.3324737548828
 21
99.70318603515625
  0
LINE
  5
133
100
AcDbEntity
  8
0
  6
ByLayer
 62
  256
370
   -1
100
AcDbLine
 10
243.4635162353516
 20
72.78054809570312
 11
236.6226348876953
 21
70.79004669189453
  0
LINE
  5
134
100
AcDbEntity
  8
0
  6
ByLayer
 62
  256
370
   -1
100
AcDbLine
 10
162.1455383300781
 20
12.95976543426514
 11
156.1109619140625
 21
22.04916381835938
  0
LINE
  5
135
100
AcDbEntity
  8
0
  6
ByLayer
 62
  256
370
   -1
100
AcDbLine
 10
103.3459701538086
 20
47.52505493164062
 11
108.5087509155273
 21
40.27410507202148
  0
LINE
  5
136
100
AcDbEntity
  8
0
  6
ByLayer
 62
  256
370
   -1
100
AcDbLine
 10
74.28556060791016
 20
17.12931632995605
 11
74.28556060791016
 21
17.12931632995605
  0
LINE
  5
137
100
AcDbEntity
  8
0
  6
ByLayer
 62
  256
370
   -1
100
AcDbLine
 10
92.94565582275391
 20
37.58671569824219
 11
97.85236358642578
 21
36.24750900268555
  0
LINE
  5
138
100
AcDbEntity
  8
0
  6
ByLayer
 62
  256
370
   -1
100
AcDbLine
 10
165.7756500244141
 20
39.68440628051758
 11
163.2224426269531
 21
33.55971908569336
  0
LINE
  5
139
100
AcDbEntity
  8
0
  6
ByLayer
 62
  256
370
   -1
100
AcDbLine
 10
94.63076782226562
 20
10.08920383453369
 11
94.63076782226562
 21
10.08920383453369
  0
LINE
  5
13A
100
AcDbEntity
  8
0
  6
ByLayer
 62
  256
370
   -1
100
AcDbLine
 10
102.9894104003906
 20
36.72316360473633
 11
97.43863677978516
 21
43.20062255859375
  0
LINE
  5
13B
100
AcDbEntity
  8
0
  6
ByLayer
 62
  256
370
   -1
100
AcDbLine
 10
97.87030792236328
 20
59.38116073608398
 11
97.09968566894531
 21
64.08222198486328
  0
LINE
  5
13C
100
AcDbEntity
  8
0
  6
ByLayer
 62
  256
370
   -1
100
AcDbLine
 10
70.81000518798828
 20
94.30828094482422
 11
70.81000518798828
 21
94.30828094482422
  0
LINE
  5
13D
100
AcDbEntity
  8
0
  6
ByLayer
 62
  256
370
   -1
100
AcDbLine
 10
46.60628509521484
 20
102.1245880126953
 11
46.60628509521484
 21
102.1245880126953
  0
LINE
  5
13E
100
AcDbEntity
  8
0
  6
ByLayer
 62
  256
370
   -1
100
AcDbLine
 10
46.60628509521484
 20
102.1245880126953
 11
39.79230117797852
 21
105.0354461669922
  0
LINE
  5
13F
100
AcDbEntity
  8
0
  6
ByLayer
 62
  256
370
   -1
100
AcDbLine
 10
247.5811767578125
 20
83.46680450439453
 11
247.5811767578125
 21
83.46680450439453
  0
LINE
  5
140
100
AcDbEntity
  8
0
  6
ByLayer
 62
  256
370
   -1
100
AcDbLine
 10
161.2335510253906
 20
148.316650390625
 11
162.8240203857422
 21
147.7009887695312
  0
LINE
  5
141
100
AcDbEntity
  8
0
  6
ByLayer
 62
  256
370
   -1
100
AcDbLine
 10
16.58887481689453
 20
76.80382537841797
 11
16.58887481689453
 21
76.80382537841797
  0
LINE
  5
142
100
AcDbEntity
  8
0
  6
ByLayer
 62
  256
370
   -1
100
AcDbLine
 10
9.058524131774902
 20
84.79095458984375
 11
8.169954299926758
 21
88.11470031738281
  0
LINE
  5
143
100
AcDbEntity
  8
0
  6
ByLayer
 62
  256
370
   -1
100
AcDbLine
 10
74.19316101074219
 20
105.5302581787109
 11
81.52767944335938
 21
107.6830291748047
  0
LINE
  5
144
100
AcDbEntity
  8
0
  6
ByLayer
 62
  256
370
   -1
100
AcDbLine
 10
19.19007873535156
 20
105.5447845458984
 11
14.74137592315674
 21
103.1968460083008
  0
LINE
  5
145
100
AcDbEntity
  8
0
  6
ByLayer
 62
  256
370
   -1
100
AcDbLine
 10
165.6708068847656
 20
218.4052429199219
 11
166.6952667236328
 21
219.4536437988281
  0
LINE
  5
146
100
AcDbEntity
  8
0
  6
ByLayer
 62
  256
370
   -1
100
AcDbLine
 10
88.16780090332031
 20
216.0571594238281
 11
88.16780090332031
 21
216.0571594238281
  0
LINE
  5
147
100
AcDbEntity
  8
0
  6
ByLayer
 62
  256
370
   -1
100
AcDbLine
 10
152.0605010986328
 20
170.448974609375
 11
152.0605010986328
 21
170.448974609375
  0
LINE
  5
148
100
AcDbEntity
  8
0
  6
ByLayer
 62
  256
370
   -1
100
AcDbLine
 10
19.19007873535156
 20
105.5447845458984
 11
19.19007873535156
 21
105.5447845458984
  0
LINE
  5
149
100
AcDbEntity
  8
0
  6
ByLayer
 62
  256
370
   -1
100
AcDbLine
 10
65.82929992675781
 20
122.0914459228516
 11
65.82929992675781
 21
122.0914459228516
  0
LINE
  5
14A
100
AcDbEntity
  8
0
  6
ByLayer
 62
  256
370
   -1
100
AcDbLine
 10
91.79916381835938
 20
118.8021850585938
 11
87.09121704101562
 21
119.3984756469727
  0
LINE
  5
14B
100
AcDbEntity
  8
0
  6
ByLayer
 62
  256
370
   -1
100
AcDbLine
 10
241.7486572265625
 20
194.2476043701172
 11
241.7486572265625
 21
194.2476043701172
  0
LINE
  5
14C
100
AcDbEntity
  8
0
  6
ByLayer
 62
  256
370
   -1
100
AcDbLine
 10
230.9069976806641
 20
201.8031158447266
 11
230.9069976806641
 21
201.8031158447266
  0
LINE
  5
14D
100
AcDbEntity
  8
0
  6
ByLayer
 62
  256
370
   -1
100
AcDbLine
 10
28.95052909851074
 20
176.4343872070312
 11
33.18466567993164
 21
174.8522491455078
  0
LINE
  5
14E
100
AcDbEntity
  8
0
  6
ByLayer
 62
  256
370
   -1
100
AcDbLine
 10
192.5613708496094
 20
165.6478729248047
 11
189.6083831787109
 21
162.0382385253906
  0
LINE
  5
14F
100
AcDbEntity
  8
0
  6
ByLayer
 62
  256
370
   -1
100
AcDbLine
 10
170.5738830566406
 20
128.5569915771484
 11
174.1569671630859
 21
128.2177429199219
  0
LINE
  5
150
100
AcDbEntity
  8
0
  6
ByLayer
 62
  256
370
   -1
100
AcDbLine
 10
235.4898986816406
 20
107.6918640136719
 11
241.9942932128906
 21
107.8105926513672
  0
LINE
  5
151
100
AcDbEntity
  8
0
  6
ByLayer
 62
  256
370
   -1
100
AcDbLine
 10
196.0506134033203
 20
30.9822883605957
 11
196.776123046875
 21
25.28435897827148
  0
LINE
  5
152
100
AcDbEntity
  8
0
  6
ByLayer
 62
  256
370
   -1
100
AcDbLine
 10
80.49542236328125
 20
7.734216690063477
 11
76.38653564453125
 21
12.59595108032227
  0
LINE
  5
153
100
AcDbEntity
  8
0
  6
ByLayer
 62
  256
370
   -1
100
AcDbLine
 10
171.0724029541016
 20
14.69360446929932
 11
165.7185363769531
 21
19.16901779174805
  0
LINE
  5
154
100
AcDbEntity
  8
0
  6
ByLayer
 62
  256
370
   -1
100
AcDbLine
 10
174.8827362060547
 20
99.49613189697266
 11
174.7011260986328
 21
102.4320602416992
  0
LINE
  5
155
100
AcDbEntity
  8
0
  6
ByLayer
 62
  256
370
   -1
100
AcDbLine
 10
108.0385284423828
 20
25.26089286804199
 11
108.0385284423828
 21
25.26089286804199
  0
LINE
  5
156
100
AcDbEntity
  8
0
  6
ByLayer
 62
  256
370
   -1
100
AcDbLine
 10
95.59263610839844
 20
87.55110168457031
 11
95.59263610839844
 21
87.55110168457031
  0
LINE
  5
157
100
AcDbEntity
  8
0
  6
ByLayer
 62
  256
370
   -1
100
AcDbLine
 10
88.12542724609375
 20
94.33352661132812
 11
79.16140747070312
 21
93.94252014160156
  0
LINE
  5
158
100
AcDbEntity
  8
0
  6
ByLayer
 62
  256
370
   -1
100
AcDbLine
 10
244.7304229736328
 20
80.69557952880859
 11
240.9349975585938
 21
77.96254730224609
  0
LINE
  5
159
100
AcDbEntity
  8
0
  6
ByLayer
 62
  256
370
   -1
100
AcDbLine
 10
204.3504943847656
 20
110.2104263305664
 11
201.1893157958984
 21
113.8604125976562
  0
LINE
  5
15A
100
AcDbEntity
  8
0
  6
ByLayer
 62
  256
370
   -1
100
AcDbLine
 10
43.10366821289062
 20
152.6581726074219
 11
43.80975723266602
 21
143.4332122802734
  0
LINE
  5
15B
100
AcDbEntity
  8
0
  6
ByLayer
 62
  256
370
   -1
100
AcDbLine
 10
19.36856460571289
 20
111.7518615722656
 11
12.25175666809082
 21
108.1698455810547
  0
LINE
  5
15C
100
AcDbEntity
  8
0
  6
ByLayer
 62
  256
370
   -1
100
AcDbLine
 10
174.8827362060547
 20
99.49613189697266
 11
179.7913665771484
 21
93.276123046875
  0
LINE
  5
15D
100
AcDbEntity
  8
0
  6
ByLayer
 62
  256
370
   -1
100
AcDbLine
 10
219.3010101318359
 20
199.6762847900391
 11
219.3010101318359
 21
199.6762847900391
  0
LINE
  5
15E
100
AcDbEntity
  8
0
  6
ByLayer
 62
  256
370
   -1
100
AcDbLine
 10
62.72087097167969
 20
231.1252899169922
 11
65.45047760009766
 21
224.7055511474609
  0
LINE
  5
15F
100
AcDbEntity
  8
0
  6
ByLayer
 62
  256
370
   -1
100
AcDbLine
 10
62.72087097167969
 20
231.1252899169922
 11
61.99539566040039
 21
236.8232269287109
  0
LINE
  5
160
100
AcDbEntity
  8
0
  6
ByLayer
 62
  256
370
   -1
100
AcDbLine
 10
153.4997711181641
 20
37.24944686889648
 11
153.4997711181641
 21
37.24944686889648
  0
LINE
  5
161
100
AcDbEntity
  8
0
  6
ByLayer
 62
  256
370
   -1
100
AcDbLine
 10
19.36856460571289
 20
111.7518615722656
 11
23.60243225097656
 21
112.578987121582
  0
LINE
  5
162
100
AcDbEntity
  8
0
  6
ByLayer
 62
  256
370
   -1
100
AcDbLine
 10
38.25270080566406
 20
84.32625579833984
 11
35.30524826049805
 21
77.22579956054688
  0
LINE
  5
163
100
AcDbEntity
  8
0
  6
ByLayer
 62
  256
370
   -1
100
AcDbLine
 10
94.14738464355469
 20
118.6199111938477
 11
94.14738464355469
 21
118.6199111938477
  0
LINE
  5
164
100
AcDbEntity
  8
0
  6
ByLayer
 62
  256
370
   -1
100
AcDbLine
 10
7.428668975830078
 20
164.9152984619141
 11
8.640767097473145
 21
170.12939453125
  0
LINE
  5
165
100
AcDbEntity
  8
0
  6
ByLayer
 62
  256
370
   -1
100
AcDbLine
 10
86.8187255859375
 20
176.1869964599609
 11
82.84368133544922
 21
186.0423583984375
  0
LINE
  5
166
100
AcDbEntity
  8
0
  6
ByLayer
 62
  256
370
   -1
100
AcDbLine
 10
80.17375183105469
 20
254.7215728759766
 11
87.90251159667969
 21
253.4789276123047
  0
LINE
  5
167
100
AcDbEntity
  8
0
  6
ByLayer
 62
  256
370
   -1
100
AcDbLine
 10
98.90308380126953
 20
192.6629638671875
 11
102.7781143188477
 21
188.5584716796875
  0
LINE
  5
168
100
AcDbEntity
  8
0
  6
ByLayer
 62
  256
370
   -1
100
AcDbLine
 10
150.043701171875
 20
233.0709991455078
 11
150.043701171875
 21
233.0709991455078
  0
LINE
  5
169
100
AcDbEntity
  8
0
  6
ByLayer
 62
  256
370
   -1
100
AcDbLine
 10
187.2774200439453
 20
224.1313171386719
 11
183.0385284423828
 21
219.1964416503906
  0
LINE
  5
16A
100
AcDbEntity
  8
0
  6
ByLayer
 62
  256
370
   -1
100
AcDbLine
 10
142.1448822021484
 20
171.1070251464844
 11
152.0605010986328
 21
170.448974609375
  0
LINE
  5
16B
100
AcDbEntity
  8
0
  6
ByLayer
 62
  256
370
   -1
100
AcDbLine
 10
156.7351989746094
 20
228.7701873779297
 11
156.7351989746094
 21
228.7701873779297
  0
LINE
  5
16C
100
AcDbEntity
  8
0
  6
ByLayer
 62
  256
370
   -1
100
AcDbLine
 10
180.9938049316406
 20
186.209716796875
 11
176.8156127929688
 21
174.2990264892578
  0
LINE
  5
16D
100
AcDbEntity
  8
0
  6
ByLayer
 62
  256
370
   -1
100
AcDbLine
 10
226.2551422119141
 20
207.6333770751953
 11
231.7711639404297
 21
207.4445343017578
  0
LINE
  5
16E
100
AcDbEntity
  8
0
  6
ByLayer
 62
  256
370
   -1
100
AcDbLine
 10
243.1682586669922
 20
173.5666046142578
 11
243.1682586669922
 21
173.5666046142578
  0
LINE
  5
16F
100
AcDbEntity
  8
0
  6
ByLayer
 62
  256
370
   -1
100
AcDbLine
 10
166.6952667236328
 20
219.4536437988281
 11
166.6952667236328
 21
219.4536437988281
  0
LINE
  5
170
100
AcDbEntity
  8
0
  6
ByLayer
 62
  256
370
   -1
100
AcDbLine
 10
225.3019714355469
 20
174.9502868652344
 11
225.3019714355469
 21
174.9502868652344
  0
LINE
  5
171
100
AcDbEntity
  8
0
  6
ByLayer
 62
  256
370
   -1
100
AcDbLine
 10
183.9818115234375
 20
139.4240417480469
 11
183.9818115234375
 21
139.4240417480469
  0
LINE
  5
172
100
AcDbEntity
  8
0
  6
ByLayer
 62
  256
370
   -1
100
AcDbLine
 10
177.9051818847656
 20
153.0186767578125
 11
177.9051818847656
 21
153.0186767578125
  0
LINE
  5
173
100
AcDbEntity
  8
0
  6
ByLayer
 62
  256
370
   -1
100
AcDbLine
 10
221.6561889648438
 20
83.72435760498047
 11
221.6561889648438
 21
83.72435760498047
  0
LINE
  5
174
100
AcDbEntity
  8
0
  6
ByLayer
 62
  256
370
   -1
100
AcDbLine
 10
91.55043792724609
 20
112.5585556030273
 11
91.55043792724609
 21
112.5585556030273
  0
LINE
  5
175
100
AcDbEntity
  8
0
  6
ByLayer
 62
  256
370
   -1
100
AcDbLine
 10
251.9818115234375
 20
80.1480712890625
 11
251.9818115234375
 21
80.1480712890625
  0
LINE
  5
176
100
AcDbEntity
  8
0
  6
ByLayer
 62
  256
370
   -1
100
AcDbLine
 10
102.7781143188477
 20
188.5584716796875
 11
102.7781143188477
 21
188.5584716796875
  0
LINE
  5
177
100
AcDbEntity
  8
0
  6
ByLayer
 62
  256
370
   -1
100
AcDbLine
 10
74.04369354248047
 20
132.9598236083984
 11
74.04369354248047
 21
132.9598236083984
  0
LINE
  5
178
100
AcDbEntity
  8
0
  6
ByLayer
 62
  256
370
   -1
100
AcDbLine
 10
227.1795806884766
 20
202.1444244384766
 11
227.1795806884766
 21
202.1444244384766
  0
LINE
  5
179
100
AcDbEntity
  8
0
  6
ByLayer
 62
  256
370
   -1
100
AcDbLine
 10
216.8277893066406
 20
197.8344879150391
 11
213.0511016845703
 21
194.2290496826172
  0
LINE
  5
17A
100
AcDbEntity
  8
0
  6
ByLayer
 62
  256
370
   -1
100
AcDbLine
 10
217.3324737548828
 20
99.70318603515625
 11
218.8834991455078
 21
91.23934936523438
  0
LINE
  5
17B
100
AcDbEntity
  8
0
  6
ByLayer
 62
  256
370
   -1
100
AcDbLine
 10
236.6226348876953
 20
70.79004669189453
 11
236.6226348876953
 21
70.79004669189453
  0
LINE
  5
17C
100
AcDbEntity
  8
0
  6
ByLayer
 62
  256
370
   -1
100
AcDbLine
 10
236.6226348876953
 20
70.79004669189453
 11
230.1204528808594
 21
70.82271575927734
  0
LINE
  5
17D
100
AcDbEntity
  8
0
  6
ByLayer
 62
  256
370
   -1
100
AcDbLine
 10
176.9048919677734
 20
37.98514938354492
 11
173.855224609375
 21
36.30581283569336
  0
LINE
  5
17E
100
AcDbEntity
  8
0
  6
ByLayer
 62
  256
370
   -1
100
AcDbLine
 10
176.9048919677734
 20
37.98514938354492
 11
181.3217926025391
 21
38.47524261474609
  0
LINE
  5
17F
100
AcDbEntity
  8
0
  6
ByLayer
 62
  256
370
   -1
100
AcDbLine
 10
108.5087509155273
 20
40.27410507202148
 11
112.815315246582
 21
32.08535766601562
  0
LINE
  5
180
100
AcDbEntity
  8
0
  6
ByLayer
 62
  256
370
   -1
100
AcDbLine
 10
97.85236358642578
 20
36.24750900268555
 11
97.85236358642578
 21
36.24750900268555
  0
LINE
  5
181
100
AcDbEntity
  8
0
  6
ByLayer
 62
  256
370
   -1
100
AcDbLine
 10
97.85236358642578
 20
36.24750900268555
 11
96.86489868164062
 21
33.96810150146484
  0
LINE
  5
182
100
AcDbEntity
  8
0
  6
ByLayer
 62
  256
370
   -1
100
AcDbLine
 10
174.7011260986328
 20
102.4320602416992
 11
181.2823333740234
 21
110.0668487548828
  0
LINE
  5
183
100
AcDbEntity
  8
0
  6
ByLayer
 62
  256
370
   -1
100
AcDbLine
 10
97.43863677978516
 20
43.20062255859375
 11
92.49296569824219
 21
49.52910232543945
  0
LINE
  5
184
100
AcDbEntity
  8
0
  6
ByLayer
 62
  256
370
   -1
100
AcDbLine
 10
39.79230117797852
 20
105.0354461669922
 11
39.79230117797852
 21
105.0354461669922
  0
LINE
  5
185
100
AcDbEntity
  8
0
  6
ByLayer
 62
  256
370
   -1
100
AcDbLine
 10
39.79230117797852
 20
105.0354461669922
 11
32.4748420715332
 21
106.6079406738281
  0
LINE
  5
186
100
AcDbEntity
  8
0
  6
ByLayer
 62
  256
370
   -1
100
AcDbLine
 10
20.41939163208008
 20
75.62630462646484
 11
20.41939163208008
 21
75.62630462646484
  0
LINE
  5
187
100
AcDbEntity
  8
0
  6
ByLayer
 62
  256
370
   -1
100
AcDbLine
 10
227.8316650390625
 20
77.50228118896484
 11
224.4938354492188
 21
80.04106903076172
  0
LINE
  5
188
100
AcDbEntity
  8
0
  6
ByLayer
 62
  256
370
   -1
100
AcDbLine
 10
22.18585586547852
 20
106.2755813598633
 11
27.37142181396484
 21
106.8859634399414
  0
LINE
  5
189
100
AcDbEntity
  8
0
  6
ByLayer
 62
  256
370
   -1
100
AcDbLine
 10
81.52767944335938
 20
107.6830291748047
 11
91.55043792724609
 21
112.5585556030273
  0
LINE
  5
18A
100
AcDbEntity
  8
0
  6
ByLayer
 62
  256
370
   -1
100
AcDbLine
 10
28.00183868408203
 20
76.72422790527344
 11
23.50461769104004
 21
75.24519348144531
  0
LINE
  5
18B
100
AcDbEntity
  8
0
  6
ByLayer
 62
  256
370
   -1
100
AcDbLine
 10
43.80975723266602
 20
143.4332122802734
 11
47.76546478271484
 21
132.8903350830078
  0
LINE
  5
18C
100
AcDbEntity
  8
0
  6
ByLayer
 62
  256
370
   -1
100
AcDbLine
 10
28.00183868408203
 20
76.72422790527344
 11
31.57521438598633
 21
80.23402404785156
  0
LINE
  5
18D
100
AcDbEntity
  8
0
  6
ByLayer
 62
  256
370
   -1
100
AcDbLine
 10
50.96630096435547
 20
108.51171875
 11
57.52236175537109
 21
106.0600280761719
  0
LINE
  5
18E
100
AcDbEntity
  8
0
  6
ByLayer
 62
  256
370
   -1
100
AcDbLine
 10
175.0255432128906
 20
243.4270935058594
 11
175.0255432128906
 21
243.4270935058594
  0
LINE
  5
18F
100
AcDbEntity
  8
0
  6
ByLayer
 62
  256
370
   -1
100
AcDbLine
 10
50.96630096435547
 20
108.51171875
 11
43.85546493530273
 21
110.7898712158203
  0
LINE
  5
190
100
AcDbEntity
  8
0
  6
ByLayer
 62
  256
370
   -1
100
AcDbLine
 10
38.25270080566406
 20
84.32625579833984
 11
38.25270080566406
 21
84.32625579833984
  0
LINE
  5
191
100
AcDbEntity
  8
0
  6
ByLayer
 62
  256
370
   -1
100
AcDbLine
 10
62.45361328125
 20
104.4456176757812
 11
62.45361328125
 21
104.4456176757812
  0
LINE
  5
192
100
AcDbEntity
  8
0
  6
ByLayer
 62
  256
370
   -1
100
AcDbLine
 10
39.88516235351562
 20
157.9911956787109
 11
38.14258193969727
 21
154.0906982421875
  0
LINE
  5
193
100
AcDbEntity
  8
0
  6
ByLayer
 62
  256
370
   -1
100
AcDbLine
 10
42.40448379516602
 20
176.8777465820312
 11
42.40448379516602
 21
176.8777465820312
  0
LINE
  5
194
100
AcDbEntity
  8
0
  6
ByLayer
 62
  256
370
   -1
100
AcDbLine
 10
46.36373519897461
 20
172.8023681640625
 11
50.1119384765625
 21
164.3509826660156
  0
LINE
  5
195
100
AcDbEntity
  8
0
  6
ByLayer
 62
  256
370
   -1
100
AcDbLine
 10
91.32882690429688
 20
169.6396331787109
 11
91.32882690429688
 21
169.6396331787109
  0
LINE
  5
196
100
AcDbEntity
  8
0
  6
ByLayer
 62
  256
370
   -1
100
AcDbLine
 10
85.32288360595703
 20
225.9930419921875
 11
86.86090087890625
 21
223.8385467529297
  0
LINE
  5
197
100
AcDbEntity
  8
0
  6
ByLayer
 62
  256
370
   -1
100
AcDbLine
 10
77.44972991943359
 20
223.6323547363281
 11
72.78885650634766
 21
225.6606903076172
  0
LINE
  5
198
100
AcDbEntity
  8
0
  6
ByLayer
 62
  256
370
   -1
100
AcDbLine
 10
165.6160430908203
 20
199.1708374023438
 11
165.6160430908203
 21
199.1708374023438
  0
LINE
  5
199
100
AcDbEntity
  8
0
  6
ByLayer
 62
  256
370
   -1
100
AcDbLine
 10
165.7035980224609
 20
217.1757507324219
 11
169.8194580078125
 21
216.0310516357422
  0
LINE
  5
19A
100
AcDbEntity
  8
0
  6
ByLayer
 62
  256
370
   -1
100
AcDbLine
 10
75.43352508544922
 20
246.9421539306641
 11
81.27558135986328
 21
248.4837951660156
  0
LINE
  5
19B
100
AcDbEntity
  8
0
  6
ByLayer
 62
  256
370
   -1
100
AcDbLine
 10
194.4620361328125
 20
170.4759826660156
 11
196.7537689208984
 21
177.0896453857422
  0
LINE
  5
19C
100
AcDbEntity
  8
0
  6
ByLayer
 62
  256
370
   -1
100
AcDbLine
 10
245.7673645019531
 20
197.7326049804688
 11
245.7673645019531
 21
197.7326049804688
  0
LINE
  5
19D
100
AcDbEntity
  8
0
  6
ByLayer
 62
  256
370
   -1
100
AcDbLine
 10
246.7617950439453
 20
177.8587188720703
 11
243.1682586669922
 21
173.5666046142578
  0
LINE
  5
19E
100
AcDbEntity
  8
0
  6
ByLayer
 62
  256
370
   -1
100
AcDbLine
 10
216.7788696289062
 20
180.200927734375
 11
216.7788696289062
 21
180.200927734375
  0
LINE
  5
19F
100
AcDbEntity
  8
0
  6
ByLayer
 62
  256
370
   -1
100
AcDbLine
 10
194.4620361328125
 20
170.4759826660156
 11
192.5613708496094
 21
165.6478729248047
  0
LINE
  5
1A0
100
AcDbEntity
  8
0
  6
ByLayer
 62
  256
370
   -1
100
AcDbLine
 10
26.67854499816895
 20
150.6808166503906
 11
21.67223167419434
 21
150.6408233642578
  0
LINE
  5
1A1
100
AcDbEntity
  8
0
  6
ByLayer
 62
  256
370
   -1
100
AcDbLine
 10
241.5644989013672
 20
179.6522064208984
 11
241.5644989013672
 21
179.6522064208984
  0
LINE
  5
1A2
100
AcDbEntity
  8
0
  6
ByLayer
 62
  256
370
   -1
100
AcDbLine
 10
12.85117149353027
 20
164.0110626220703
 11
13.71872615814209
 21
167.5489044189453
  0
LINE
  5
1A3
100
AcDbEntity
  8
0
  6
ByLayer
 62
  256
370
   -1
100
AcDbLine
 10
92.21964263916016
 20
221.4565734863281
 11
92.21964263916016
 21
221.4565734863281
  0
LINE
  5
1A4
100
AcDbEntity
  8
0
  6
ByLayer
 62
  256
370
   -1
100
AcDbLine
 10
255.5577697753906
 20
90.08295440673828
 11
255.5577697753906
 21
90.08295440673828
  0
LINE
  5
1A5
100
AcDbEntity
  8
0
  6
ByLayer
 62
  256
370
   -1
100
AcDbLine
 10
8.302806854248047
 20
94.30731201171875
 11
10.1513090133667
 21
97.96039581298828
  0
LINE
  5
1A6
100
AcDbEntity
  8
0
  6
ByLayer
 62
  256
370
   -1
100
AcDbLine
 10
221.2489166259766
 20
177.8869934082031
 11
221.2489166259766
 21
177.8869934082031
  0
LINE
  5
1A7
100
AcDbEntity
  8
0
  6
ByLayer
 62
  256
370
   -1
100
AcDbLine
 10
254.4325256347656
 20
96.34817504882812
 11
254.4325256347656
 21
96.34817504882812
  0
LINE
  5
1A8
100
AcDbEntity
  8
0
  6
ByLayer
 62
  256
370
   -1
100
AcDbLine
 10
14.74137592315674
 20
103.1968460083008
 11
14.74137592315674
 21
103.1968460083008
  0
LINE
  5
1A9
100
AcDbEntity
  8
0
  6
ByLayer
 62
  256
370
   -1
100
AcDbLine
 10
12.25175666809082
 20
108.1698455810547
 11
8.626235008239746
 21
105.261474609375
  0
LINE
  5
1AA
100
AcDbEntity
  8
0
  6
ByLayer
 62
  256
370
   -1
100
AcDbLine
 10
65.82929992675781
 20
122.0914459228516
 11
53.98992156982422
 21
126.4675140380859
  0
LINE
  5
1AB
100
AcDbEntity
  8
0
  6
ByLayer
 62
  256
370
   -1
100
AcDbLine
 10
65.45047760009766
 20
224.7055511474609
 11
65.44315338134766
 21
224.7211303710938
  0
LINE
  5
1AC
100
AcDbEntity
  8
0
  6
ByLayer
 62
  256
370
   -1
100
AcDbLine
 10
153.4997711181641
 20
37.24944686889648
 11
153.7341766357422
 21
29.30977249145508
  0
LINE
  5
1AD
100
AcDbEntity
  8
0
  6
ByLayer
 62
  256
370
   -1
100
AcDbLine
 10
43.85546493530273
 20
110.7898712158203
 11
43.85546493530273
 21
110.7898712158203
  0
LINE
  5
1AE
100
AcDbEntity
  8
0
  6
ByLayer
 62
  256
370
   -1
100
AcDbLine
 10
13.77316951751709
 20
72.12926483154297
 11
13.77316951751709
 21
72.12926483154297
  0
LINE
  5
1AF
100
AcDbEntity
  8
0
  6
ByLayer
 62
  256
370
   -1
100
AcDbLine
 10
33.61814498901367
 20
94.12667083740234
 11
33.61814498901367
 21
94.12667083740234
  0
LINE
  5
1B0
100
AcDbEntity
  8
0
  6
ByLayer
 62
  256
370
   -1
100
AcDbLine
 10
8.640767097473145
 20
170.12939453125
 11
12.5251932144165
 21
176.3382720947266
  0
LINE
  5
1B1
100
AcDbEntity
  8
0
  6
ByLayer
 62
  256
370
   -1
100
AcDbLine
 10
82.84368133544922
 20
186.0423583984375
 11
81.80637359619141
 21
193.4959411621094
  0
LINE
  5
1B2
100
AcDbEntity
  8
0
  6
ByLayer
 62
  256
370
   -1
100
AcDbLine
 10
65.45047760009766
 20
224.7055511474609
 11
70.26127624511719
 21
220.9013519287109
  0
LINE
  5
1B3
100
AcDbEntity
  8
0
  6
ByLayer
 62
  256
370
   -1
100
AcDbLine
 10
87.90251159667969
 20
253.4789276123047
 11
96.62733459472656
 21
249.1449584960938
  0
LINE
  5
1B4
100
AcDbEntity
  8
0
  6
ByLayer
 62
  256
370
   -1
100
AcDbLine
 10
125.2778472900391
 20
182.5970153808594
 11
125.2778472900391
 21
182.5970153808594
  0
LINE
  5
1B5
100
AcDbEntity
  8
0
  6
ByLayer
 62
  256
370
   -1
100
AcDbLine
 10
142.1448822021484
 20
171.1070251464844
 11
142.1448822021484
 21
171.1070251464844
  0
LINE
  5
1B6
100
AcDbEntity
  8
0
  6
ByLayer
 62
  256
370
   -1
100
AcDbLine
 10
72.78885650634766
 20
225.6606903076172
 11
69.27555084228516
 21
228.6169891357422
  0
LINE
  5
1B7
100
AcDbEntity
  8
0
  6
ByLayer
 62
  256
370
   -1
100
AcDbLine
 10
186.0588226318359
 20
241.8575286865234
 11
186.0588226318359
 21
241.8575286865234
  0
LINE
  5
1B8
100
AcDbEntity
  8
0
  6
ByLayer
 62
  256
370
   -1
100
AcDbLine
 10
183.0385284423828
 20
219.1964416503906
 11
176.1860046386719
 21
215.7142639160156
  0
LINE
  5
1B9
100
AcDbEntity
  8
0
  6
ByLayer
 62
  256
370
   -1
100
AcDbLine
 10
90.76289367675781
 20
145.9833984375
 11
84.57993316650391
 21
138.7063446044922
  0
LINE
  5
1BA
100
AcDbEntity
  8
0
  6
ByLayer
 62
  256
370
   -1
100
AcDbLine
 10
176.8156127929688
 20
174.2990264892578
 11
162.7901916503906
 21
152.1961212158203
  0
LINE
  5
1BB
100
AcDbEntity
  8
0
  6
ByLayer
 62
  256
370
   -1
100
AcDbLine
 10
214.4056549072266
 20
203.4966430664062
 11
214.4056549072266
 21
203.4966430664062
  0
LINE
  5
1BC
100
AcDbEntity
  8
0
  6
ByLayer
 62
  256
370
   -1
100
AcDbLine
 10
231.7711639404297
 20
207.4445343017578
 11
236.5990905761719
 21
206.1836700439453
  0
LINE
  5
1BD
100
AcDbEntity
  8
0
  6
ByLayer
 62
  256
370
   -1
100
AcDbLine
 10
192.5613708496094
 20
165.6478729248047
 11
192.5613708496094
 21
165.6478729248047
  0
LINE
  5
1BE
100
AcDbEntity
  8
0
  6
ByLayer
 62
  256
370
   -1
100
AcDbLine
 10
21.67223167419434
 20
150.6408233642578
 11
17.406982421875
 21
152.6979064941406
  0
LINE
  5
1BF
100
AcDbEntity
  8
0
  6
ByLayer
 62
  256
370
   -1
100
AcDbLine
 10
234.8997192382812
 20
200.8977355957031
 11
230.9069976806641
 21
201.8031158447266
  0
LINE
  5
1C0
100
AcDbEntity
  8
0
  6
ByLayer
 62
  256
370
   -1
100
AcDbLine
 10
189.9987945556641
 20
146.0800476074219
 11
189.9987945556641
 21
146.0800476074219
  0
LINE
  5
1C1
100
AcDbEntity
  8
0
  6
ByLayer
 62
  256
370
   -1
100
AcDbLine
 10
174.1569671630859
 20
128.2177429199219
 11
185.4837493896484
 21
130.5664367675781
  0
LINE
  5
1C2
100
AcDbEntity
  8
0
  6
ByLayer
 62
  256
370
   -1
100
AcDbLine
 10
241.9942932128906
 20
107.8105926513672
 11
248.2293853759766
 21
104.7253341674805
  0
LINE
  5
1C3
100
AcDbEntity
  8
0
  6
ByLayer
 62
  256
370
   -1
100
AcDbLine
 10
196.776123046875
 20
25.28435897827148
 11
195.7664794921875
 21
20.13052558898926
  0
LINE
  5
1C4
100
AcDbEntity
  8
0
  6
ByLayer
 62
  256
370
   -1
100
AcDbLine
 10
143.3536987304688
 20
83.51449584960938
 11
143.3536987304688
 21
83.51449584960938
  0
LINE
  5
1C5
100
AcDbEntity
  8
0
  6
ByLayer
 62
  256
370
   -1
100
AcDbLine
 10
105.2580642700195
 20
74.50461578369141
 11
100.5552139282227
 21
70.88314819335938
  0
LINE
  5
1C6
100
AcDbEntity
  8
0
  6
ByLayer
 62
  256
370
   -1
100
AcDbLine
 10
76.38653564453125
 20
12.59595108032227
 11
74.28556060791016
 21
17.12931632995605
  0
LINE
  5
1C7
100
AcDbEntity
  8
0
  6
ByLayer
 62
  256
370
   -1
100
AcDbLine
 10
218.8834991455078
 20
91.23934936523438
 11
221.6561889648438
 21
83.72435760498047
  0
LINE
  5
1C8
100
AcDbEntity
  8
0
  6
ByLayer
 62
  256
370
   -1
100
AcDbLine
 10
248.9997711181641
 20
95.05152130126953
 11
249.9617004394531
 21
90.41947937011719
  0
LINE
  5
1C9
100
AcDbEntity
  8
0
  6
ByLayer
 62
  256
370
   -1
100
AcDbLine
 10
107.8658828735352
 20
21.07078742980957
 11
107.8658828735352
 21
21.07078742980957
  0
LINE
  5
1CA
100
AcDbEntity
  8
0
  6
ByLayer
 62
  256
370
   -1
100
AcDbLine
 10
88.64024353027344
 20
77.95476531982422
 11
88.64024353027344
 21
77.95476531982422
  0
LINE
  5
1CB
100
AcDbEntity
  8
0
  6
ByLayer
 62
  256
370
   -1
100
AcDbLine
 10
79.16140747070312
 20
93.94252014160156
 11
70.81000518798828
 21
94.30828094482422
  0
LINE
  5
1CC
100
AcDbEntity
  8
0
  6
ByLayer
 62
  256
370
   -1
100
AcDbLine
 10
16.58887481689453
 20
76.80382537841797
 11
13.11742401123047
 21
79.26227569580078
  0
LINE
  5
1CD
100
AcDbEntity
  8
0
  6
ByLayer
 62
  256
370
   -1
100
AcDbLine
 10
65.82929992675781
 20
122.0914459228516
 11
91.79916381835938
 21
118.8021850585938
  0
LINE
  5
1CE
100
AcDbEntity
  8
0
  6
ByLayer
 62
  256
370
   -1
100
AcDbLine
 10
87.57630157470703
 20
55.17883682250977
 11
87.57630157470703
 21
55.17883682250977
  0
LINE
  5
1CF
100
AcDbEntity
  8
0
  6
ByLayer
 62
  256
370
   -1
100
AcDbLine
 10
176.1860046386719
 20
215.7142639160156
 11
176.1860046386719
 21
215.7142639160156
  0
LINE
  5
1D0
100
AcDbEntity
  8
0
  6
ByLayer
 62
  256
370
   -1
100
AcDbLine
 10
241.0928192138672
 20
102.9769134521484
 11
241.0928192138672
 21
102.9769134521484
  0
LINE
  5
1D1
100
AcDbEntity
  8
0
  6
ByLayer
 62
  256
370
   -1
100
AcDbLine
 10
243.4635162353516
 20
72.78054809570312
 11
243.4635162353516
 21
72.78054809570312
  0
LINE
  5
1D2
100
AcDbEntity
  8
0
  6
ByLayer
 62
  256
370
   -1
100
AcDbLine
 10
184.1140747070312
 20
231.1163482666016
 11
184.1140747070312
 21
231.1163482666016
  0
LINE
  5
1D3
100
AcDbEntity
  8
0
  6
ByLayer
 62
  256
370
   -1
100
AcDbLine
 10
92.21964263916016
 20
221.4565734863281
 11
88.16780090332031
 21
216.0571594238281
  0
LINE
  5
1D4
100
AcDbEntity
  8
0
  6
ByLayer
 62
  256
370
   -1
100
AcDbLine
 10
23.50461769104004
 20
75.24519348144531
 11
23.50461769104004
 21
75.24519348144531
  0
LINE
  5
1D5
100
AcDbEntity
  8
0
  6
ByLayer
 62
  256
370
   -1
100
AcDbLine
 10
219.3010101318359
 20
199.6762847900391
 11
223.9463500976562
 21
201.6061553955078
  0
LINE
  5
1D6
100
AcDbEntity
  8
0
  6
ByLayer
 62
  256
370
   -1
100
AcDbLine
 10
57.52236175537109
 20
106.0600280761719
 11
57.52236175537109
 21
106.0600280761719
  0
LINE
  5
1D7
100
AcDbEntity
  8
0
  6
ByLayer
 62
  256
370
   -1
100
AcDbLine
 10
178.3040924072266
 20
241.8395538330078
 11
178.3040924072266
 21
241.8395538330078
  0
LINE
  5
1D8
100
AcDbEntity
  8
0
  6
ByLayer
 62
  256
370
   -1
100
AcDbLine
 10
3.147310972213745
 20
96.36875152587891
 11
2.63633918762207
 21
89.10655212402344
  0
LINE
  5
1D9
100
AcDbEntity
  8
0
  6
ByLayer
 62
  256
370
   -1
100
AcDbLine
 10
57.52236175537109
 20
106.0600280761719
 11
62.45361328125
 21
104.4456176757812
  0
LINE
  5
1DA
100
AcDbEntity
  8
0
  6
ByLayer
 62
  256
370
   -1
100
AcDbLine
 10
38.14258193969727
 20
154.0906982421875
 11
34.32706832885742
 21
148.9842987060547
  0
LINE
  5
1DB
100
AcDbEntity
  8
0
  6
ByLayer
 62
  256
370
   -1
100
AcDbLine
 10
50.1119384765625
 20
164.3509826660156
 11
52.27018737792969
 21
155.4139404296875
  0
LINE
  5
1DC
100
AcDbEntity
  8
0
  6
ByLayer
 62
  256
370
   -1
100
AcDbLine
 10
92.21964263916016
 20
221.4565734863281
 11
95.34444427490234
 21
228.5740203857422
  0
LINE
  5
1DD
100
AcDbEntity
  8
0
  6
ByLayer
 62
  256
370
   -1
100
AcDbLine
 10
86.86090087890625
 20
223.8385467529297
 11
82.79618072509766
 21
221.2690887451172
  0
LINE
  5
1DE
100
AcDbEntity
  8
0
  6
ByLayer
 62
  256
370
   -1
100
AcDbLine
 10
102.7781143188477
 20
188.5584716796875
 11
107.9232788085938
 21
182.9507293701172
  0
LINE
  5
1DF
100
AcDbEntity
  8
0
  6
ByLayer
 62
  256
370
   -1
100
AcDbLine
 10
114.8537673950195
 20
184.2674713134766
 11
114.8537673950195
 21
184.2674713134766
  0
LINE
  5
1E0
100
AcDbEntity
  8
0
  6
ByLayer
 62
  256
370
   -1
100
AcDbLine
 10
159.7918395996094
 20
205.9917602539062
 11
159.7918395996094
 21
205.9917602539062
  0
LINE
  5
1E1
100
AcDbEntity
  8
0
  6
ByLayer
 62
  256
370
   -1
100
AcDbLine
 10
162.5532836914062
 20
248.2118377685547
 11
169.0158233642578
 21
249.950927734375
  0
LINE
  5
1E2
100
AcDbEntity
  8
0
  6
ByLayer
 62
  256
370
   -1
100
AcDbLine
 10
183.5203704833984
 20
234.1626586914062
 11
181.7664184570312
 21
238.3522033691406
  0
LINE
  5
1E3
100
AcDbEntity
  8
0
  6
ByLayer
 62
  256
370
   -1
100
AcDbLine
 10
74.04369354248047
 20
132.9598236083984
 11
79.12001800537109
 21
134.9770355224609
  0
LINE
  5
1E4
100
AcDbEntity
  8
0
  6
ByLayer
 62
  256
370
   -1
100
AcDbLine
 10
158.4684295654297
 20
237.3591613769531
 11
156.9873504638672
 21
233.0886077880859
  0
LINE
  5
1E5
100
AcDbEntity
  8
0
  6
ByLayer
 62
  256
370
   -1
100
AcDbLine
 10
161.4332733154297
 20
150.2709655761719
 11
161.4332733154297
 21
150.2709655761719
  0
LINE
  5
1E6
100
AcDbEntity
  8
0
  6
ByLayer
 62
  256
370
   -1
100
AcDbLine
 10
196.7537689208984
 20
177.0896453857422
 11
199.5329437255859
 21
184.0200347900391
  0
LINE
  5
1E7
100
AcDbEntity
  8
0
  6
ByLayer
 62
  256
370
   -1
100
AcDbLine
 10
202.8310089111328
 20
190.9846801757812
 11
202.8310089111328
 21
190.9846801757812
  0
LINE
  5
1E8
100
AcDbEntity
  8
0
  6
ByLayer
 62
  256
370
   -1
100
AcDbLine
 10
243.1682586669922
 20
173.5666046142578
 11
237.3169250488281
 21
169.8070526123047
  0
LINE
  5
1E9
100
AcDbEntity
  8
0
  6
ByLayer
 62
  256
370
   -1
100
AcDbLine
 10
223.4914245605469
 20
171.4619293212891
 11
223.4914245605469
 21
171.4619293212891
  0
LINE
  5
1EA
100
AcDbEntity
  8
0
  6
ByLayer
 62
  256
370
   -1
100
AcDbLine
 10
243.0998992919922
 20
183.3538360595703
 11
243.4195404052734
 21
187.5956115722656
  0
LINE
  5
1EB
100
AcDbEntity
  8
0
  6
ByLayer
 62
  256
370
   -1
100
AcDbLine
 10
219.3010101318359
 20
199.6762847900391
 11
216.8277893066406
 21
197.8344879150391
  0
LINE
  5
1EC
100
AcDbEntity
  8
0
  6
ByLayer
 62
  256
370
   -1
100
AcDbLine
 10
213.0511016845703
 20
194.2290496826172
 11
213.0511016845703
 21
194.2290496826172
  0
LINE
  5
1ED
100
AcDbEntity
  8
0
  6
ByLayer
 62
  256
370
   -1
100
AcDbLine
 10
213.0511016845703
 20
194.2290496826172
 11
210.0111541748047
 21
190.1204223632812
  0
LINE
  5
1EE
100
AcDbEntity
  8
0
  6
ByLayer
 62
  256
370
   -1
100
AcDbLine
 10
251.9818115234375
 20
80.1480712890625
 11
248.0225982666016
 21
75.89726257324219
  0
LINE
  5
1EF
100
AcDbEntity
  8
0
  6
ByLayer
 62
  256
370
   -1
100
AcDbLine
 10
230.1204528808594
 20
70.82271575927734
 11
224.6997985839844
 21
72.51115417480469
  0
LINE
  5
1F0
100
AcDbEntity
  8
0
  6
ByLayer
 62
  256
370
   -1
100
AcDbLine
 10
173.855224609375
 20
36.30581283569336
 11
172.7651672363281
 21
37.06943130493164
  0
LINE
  5
1F1
100
AcDbEntity
  8
0
  6
ByLayer
 62
  256
370
   -1
100
AcDbLine
 10
150.570068359375
 20
82.92254638671875
 11
143.3536987304688
 21
83.51449584960938
  0
LINE
  5
1F2
100
AcDbEntity
  8
0
  6
ByLayer
 62
  256
370
   -1
100
AcDbLine
 10
230.6259460449219
 20
101.3649215698242
 11
236.0865325927734
 21
102.9369354248047
  0
LINE
  5
1F3
100
AcDbEntity
  8
0
  6
ByLayer
 62
  256
370
   -1
100
AcDbLine
 10
112.815315246582
 20
32.08535766601562
 11
113.9449844360352
 21
26.12294769287109
  0
LINE
  5
1F4
100
AcDbEntity
  8
0
  6
ByLayer
 62
  256
370
   -1
100
AcDbLine
 10
92.94565582275391
 20
37.58671569824219
 11
92.94565582275391
 21
37.58671569824219
  0
LINE
  5
1F5
100
AcDbEntity
  8
0
  6
ByLayer
 62
  256
370
   -1
100
AcDbLine
 10
96.86489868164062
 20
33.96810150146484
 11
92.65605163574219
 21
34.83477783203125
  0
LINE
  5
1F6
100
AcDbEntity
  8
0
  6
ByLayer
 62
  256
370
   -1
100
AcDbLine
 10
168.0601654052734
 20
61.64971542358398
 11
170.2539672851562
 21
66.77657318115234
  0
LINE
  5
1F7
100
AcDbEntity
  8
0
  6
ByLayer
 62
  256
370
   -1
100
AcDbLine
 10
92.49296569824219
 20
49.52910232543945
 11
87.57630157470703
 21
55.17883682250977
  0
LINE
  5
1F8
100
AcDbEntity
  8
0
  6
ByLayer
 62
  256
370
   -1
100
AcDbLine
 10
103.1460266113281
 20
94.76198577880859
 11
95.59263610839844
 21
87.55110168457031
  0
LINE
  5
1F9
100
AcDbEntity
  8
0
  6
ByLayer
 62
  256
370
   -1
100
AcDbLine
 10
32.4748420715332
 20
106.6079406738281
 11
32.4748420715332
 21
106.6079406738281
  0
LINE
  5
1FA
100
AcDbEntity
  8
0
  6
ByLayer
 62
  256
370
   -1
100
AcDbLine
 10
23.50461769104004
 20
75.24519348144531
 11
20.41939163208008
 21
75.62630462646484
  0
LINE
  5
1FB
100
AcDbEntity
  8
0
  6
ByLayer
 62
  256
370
   -1
100
AcDbLine
 10
227.8316650390625
 20
77.50228118896484
 11
227.8316650390625
 21
77.50228118896484
  0
LINE
  5
1FC
100
AcDbEntity
  8
0
  6
ByLayer
 62
  256
370
   -1
100
AcDbLine
 10
224.4938354492188
 20
80.04106903076172
 11
221.6561889648438
 21
83.72435760498047
  0
LINE
  5
1FD
100
AcDbEntity
  8
0
  6
ByLayer
 62
  256
370
   -1
100
AcDbLine
 10
201.1893157958984
 20
113.8604125976562
 11
201.1893157958984
 21
113.8604125976562
  0
LINE
  5
1FE
100
AcDbEntity
  8
0
  6
ByLayer
 62
  256
370
   -1
100
AcDbLine
 10
181.2823333740234
 20
110.0668487548828
 11
188.5682067871094
 21
114.5606689453125
  0
LINE
  5
1FF
100
AcDbEntity
  8
0
  6
ByLayer
 62
  256
370
   -1
100
AcDbLine
 10
10.1513090133667
 20
97.96039581298828
 11
10.1513090133667
 21
97.96039581298828
  0
LINE
  5
200
100
AcDbEntity
  8
0
  6
ByLayer
 62
  256
370
   -1
100
AcDbLine
 10
32.4748420715332
 20
106.6079406738281
 11
27.37142181396484
 21
106.8859634399414
  0
LINE
  5
201
100
AcDbEntity
  8
0
  6
ByLayer
 62
  256
370
   -1
100
AcDbLine
 10
91.55043792724609
 20
112.5585556030273
 11
95.24037170410156
 21
115.9098739624023
  0
LINE
  5
202
100
AcDbEntity
  8
0
  6
ByLayer
 62
  256
370
   -1
100
AcDbLine
 10
74.04369354248047
 20
132.9598236083984
 11
68.91485595703125
 21
132.4145965576172
  0
LINE
  5
203
100
AcDbEntity
  8
0
  6
ByLayer
 62
  256
370
   -1
100
AcDbLine
 10
78.65232849121094
 20
22.4985179901123
 11
79.27469635009766
 21
19.4656982421875
  0
LINE
  5
204
100
AcDbEntity
  8
0
  6
ByLayer
 62
  256
370
   -1
100
AcDbLine
 10
103.1460266113281
 20
94.76198577880859
 11
105.0461044311523
 21
97.73294830322266
  0
LINE
  5
205
100
AcDbEntity
  8
0
  6
ByLayer
 62
  256
370
   -1
100
AcDbLine
 10
176.2755889892578
 20
248.9842376708984
 11
176.2755889892578
 21
248.9842376708984
  0
LINE
  5
206
100
AcDbEntity
  8
0
  6
ByLayer
 62
  256
370
   -1
100
AcDbLine
 10
218.8969268798828
 20
181.2811737060547
 11
218.8969268798828
 21
181.2811737060547
  0
LINE
  5
207
100
AcDbEntity
  8
0
  6
ByLayer
 62
  256
370
   -1
100
AcDbLine
 10
24.12510299682617
 20
176.4410247802734
 11
24.12510299682617
 21
176.4410247802734
  0
LINE
  5
208
100
AcDbEntity
  8
0
  6
ByLayer
 62
  256
370
   -1
100
AcDbLine
 10
36.38737869262695
 20
112.6901626586914
 11
36.38737869262695
 21
112.6901626586914
  0
LINE
  5
209
100
AcDbEntity
  8
0
  6
ByLayer
 62
  256
370
   -1
100
AcDbLine
 10
242.9577331542969
 20
191.0081939697266
 11
242.9577331542969
 21
191.0081939697266
  0
LINE
  5
20A
100
AcDbEntity
  8
0
  6
ByLayer
 62
  256
370
   -1
100
AcDbLine
 10
36.67207336425781
 20
172.2928924560547
 11
33.18466567993164
 21
174.8522491455078
  0
LINE
  5
20B
100
AcDbEntity
  8
0
  6
ByLayer
 62
  256
370
   -1
100
AcDbLine
 10
230.9069976806641
 20
201.8031158447266
 11
227.1795806884766
 21
202.1444244384766
  0
LINE
  5
20C
100
AcDbEntity
  8
0
  6
ByLayer
 62
  256
370
   -1
100
AcDbLine
 10
195.0421600341797
 20
152.7466735839844
 11
195.0421600341797
 21
152.7466735839844
  0
LINE
  5
20D
100
AcDbEntity
  8
0
  6
ByLayer
 62
  256
370
   -1
100
AcDbLine
 10
185.4837493896484
 20
130.5664367675781
 11
196.8467864990234
 21
130.0577087402344
  0
LINE
  5
20E
100
AcDbEntity
  8
0
  6
ByLayer
 62
  256
370
   -1
100
AcDbLine
 10
248.2293853759766
 20
104.7253341674805
 11
252.2799835205078
 21
100.8572845458984
  0
LINE
  5
20F
100
AcDbEntity
  8
0
  6
ByLayer
 62
  256
370
   -1
100
AcDbLine
 10
184.8113555908203
 20
84.02420043945312
 11
186.7327575683594
 21
73.70986175537109
  0
LINE
  5
210
100
AcDbEntity
  8
0
  6
ByLayer
 62
  256
370
   -1
100
AcDbLine
 10
195.7664794921875
 20
20.13052558898926
 11
193.2239227294922
 21
15.27672576904297
  0
LINE
  5
211
100
AcDbEntity
  8
0
  6
ByLayer
 62
  256
370
   -1
100
AcDbLine
 10
153.7341766357422
 20
29.30977249145508
 11
156.1109619140625
 21
22.04916381835938
  0
LINE
  5
212
100
AcDbEntity
  8
0
  6
ByLayer
 62
  256
370
   -1
100
AcDbLine
 10
96.22782897949219
 20
4.49351978302002
 11
96.22782897949219
 21
4.49351978302002
  0
LINE
  5
213
100
AcDbEntity
  8
0
  6
ByLayer
 62
  256
370
   -1
100
AcDbLine
 10
74.28556060791016
 20
17.12931632995605
 11
73.88860321044922
 21
22.71602249145508
  0
LINE
  5
214
100
AcDbEntity
  8
0
  6
ByLayer
 62
  256
370
   -1
100
AcDbLine
 10
165.7185363769531
 20
19.16901779174805
 11
162.9133758544922
 21
24.79788017272949
  0
LINE
  5
215
100
AcDbEntity
  8
0
  6
ByLayer
 62
  256
370
   -1
100
AcDbLine
 10
169.7130279541016
 20
71.19751739501953
 11
170.2539672851562
 21
66.77657318115234
  0
LINE
  5
216
100
AcDbEntity
  8
0
  6
ByLayer
 62
  256
370
   -1
100
AcDbLine
 10
241.0928192138672
 20
102.9769134521484
 11
236.0865325927734
 21
102.9369354248047
  0
LINE
  5
217
100
AcDbEntity
  8
0
  6
ByLayer
 62
  256
370
   -1
100
AcDbLine
 10
87.15518951416016
 20
10.61516952514648
 11
87.15518951416016
 21
10.61516952514648
  0
LINE
  5
218
100
AcDbEntity
  8
0
  6
ByLayer
 62
  256
370
   -1
100
AcDbLine
 10
106.6448745727539
 20
17.90520477294922
 11
106.6448745727539
 21
17.90520477294922
  0
LINE
  5
219
100
AcDbEntity
  8
0
  6
ByLayer
 62
  256
370
   -1
100
AcDbLine
 10
99.27393341064453
 20
95.97589874267578
 11
99.27393341064453
 21
95.97589874267578
  0
LINE
  5
21A
100
AcDbEntity
  8
0
  6
ByLayer
 62
  256
370
   -1
100
AcDbLine
 10
97.09968566894531
 20
64.08222198486328
 11
98.34442138671875
 21
68.05976104736328
  0
LINE
  5
21B
100
AcDbEntity
  8
0
  6
ByLayer
 62
  256
370
   -1
100
AcDbLine
 10
249.9617004394531
 20
90.41947937011719
 11
249.0919189453125
 21
86.78965759277344
  0
LINE
  5
21C
100
AcDbEntity
  8
0
  6
ByLayer
 62
  256
370
   -1
100
AcDbLine
 10
167.7584991455078
 20
148.4065704345703
 11
167.7584991455078
 21
148.4065704345703
  0
LINE
  5
21D
100
AcDbEntity
  8
0
  6
ByLayer
 62
  256
370
   -1
100
AcDbLine
 10
240.9349975585938
 20
77.96254730224609
 11
235.2160797119141
 21
76.59773254394531
  0
LINE
  5
21E
100
AcDbEntity
  8
0
  6
ByLayer
 62
  256
370
   -1
100
AcDbLine
 10
8.302806854248047
 20
94.30731201171875
 11
8.302806854248047
 21
94.30731201171875
  0
LINE
  5
21F
100
AcDbEntity
  8
0
  6
ByLayer
 62
  256
370
   -1
100
AcDbLine
 10
36.67207336425781
 20
172.2928924560547
 11
39.22617721557617
 21
169.0042724609375
  0
LINE
  5
220
100
AcDbEntity
  8
0
  6
ByLayer
 62
  256
370
   -1
100
AcDbLine
 10
179.7913665771484
 20
93.276123046875
 11
179.7913665771484
 21
93.276123046875
  0
LINE
  5
221
100
AcDbEntity
  8
0
  6
ByLayer
 62
  256
370
   -1
100
AcDbLine
 10
80.84951019287109
 20
15.95421600341797
 11
80.84951019287109
 21
15.95421600341797
  0
LINE
  5
222
100
AcDbEntity
  8
0
  6
ByLayer
 62
  256
370
   -1
100
AcDbLine
 10
18.48697853088379
 20
70.47901916503906
 11
18.48697853088379
 21
70.47901916503906
  0
LINE
  5
223
100
AcDbEntity
  8
0
  6
ByLayer
 62
  256
370
   -1
100
AcDbLine
 10
33.61814498901367
 20
94.12667083740234
 11
34.73313140869141
 21
90.15060424804688
  0
LINE
  5
224
100
AcDbEntity
  8
0
  6
ByLayer
 62
  256
370
   -1
100
AcDbLine
 10
91.79916381835938
 20
118.8021850585938
 11
94.14738464355469
 21
118.6199111938477
  0
LINE
  5
225
100
AcDbEntity
  8
0
  6
ByLayer
 62
  256
370
   -1
100
AcDbLine
 10
12.5251932144165
 20
176.3382720947266
 11
17.98563385009766
 21
180.2077026367188
  0
LINE
  5
226
100
AcDbEntity
  8
0
  6
ByLayer
 62
  256
370
   -1
100
AcDbLine
 10
81.80637359619141
 20
193.4959411621094
 11
82.4617919921875
 21
201.4100799560547
  0
LINE
  5
227
100
AcDbEntity
  8
0
  6
ByLayer
 62
  256
370
   -1
100
AcDbLine
 10
96.62733459472656
 20
249.1449584960938
 11
102.6120681762695
 21
240.1615142822266
  0
LINE
  5
228
100
AcDbEntity
  8
0
  6
ByLayer
 62
  256
370
   -1
100
AcDbLine
 10
130.1833038330078
 20
179.6324157714844
 11
130.1833038330078
 21
179.6324157714844
  0
LINE
  5
229
100
AcDbEntity
  8
0
  6
ByLayer
 62
  256
370
   -1
100
AcDbLine
 10
188.4865875244141
 20
236.4882659912109
 11
188.4865875244141
 21
236.4882659912109
  0
LINE
  5
22A
100
AcDbEntity
  8
0
  6
ByLayer
 62
  256
370
   -1
100
AcDbLine
 10
183.0385284423828
 20
219.1964416503906
 11
183.0385284423828
 21
219.1964416503906
  0
LINE
  5
22B
100
AcDbEntity
  8
0
  6
ByLayer
 62
  256
370
   -1
100
AcDbLine
 10
176.1860046386719
 20
215.7142639160156
 11
169.8194580078125
 21
216.0310516357422
  0
LINE
  5
22C
100
AcDbEntity
  8
0
  6
ByLayer
 62
  256
370
   -1
100
AcDbLine
 10
84.57993316650391
 20
138.7063446044922
 11
79.12001800537109
 21
134.9770355224609
  0
LINE
  5
22D
100
AcDbEntity
  8
0
  6
ByLayer
 62
  256
370
   -1
100
AcDbLine
 10
162.7901916503906
 20
152.1961212158203
 11
161.4332733154297
 21
150.2709655761719
  0
LINE
  5
22E
100
AcDbEntity
  8
0
  6
ByLayer
 62
  256
370
   -1
100
AcDbLine
 10
194.4620361328125
 20
170.4759826660156
 11
194.4620361328125
 21
170.4759826660156
  0
LINE
  5
22F
100
AcDbEntity
  8
0
  6
ByLayer
 62
  256
370
   -1
100
AcDbLine
 10
196.7537689208984
 20
177.0896453857422
 11
196.7537689208984
 21
177.0896453857422
  0
LINE
  5
230
100
AcDbEntity
  8
0
  6
ByLayer
 62
  256
370
   -1
100
AcDbLine
 10
226.2551422119141
 20
207.6333770751953
 11
226.2551422119141
 21
207.6333770751953
  0
LINE
  5
231
100
AcDbEntity
  8
0
  6
ByLayer
 62
  256
370
   -1
100
AcDbLine
 10
236.5990905761719
 20
206.1836700439453
 11
242.5192260742188
 21
201.9466552734375
  0
LINE
  5
232
100
AcDbEntity
  8
0
  6
ByLayer
 62
  256
370
   -1
100
AcDbLine
 10
17.406982421875
 20
152.6979064941406
 11
15.43886852264404
 21
155.0976867675781
  0
LINE
  5
233
100
AcDbEntity
  8
0
  6
ByLayer
 62
  256
370
   -1
100
AcDbLine
 10
86.8187255859375
 20
176.1869964599609
 11
86.8187255859375
 21
176.1869964599609
  0
LINE
  5
234
100
AcDbEntity
  8
0
  6
ByLayer
 62
  256
370
   -1
100
AcDbLine
 10
241.0928192138672
 20
102.9769134521484
 11
245.3594207763672
 21
100.9169692993164
  0
LINE
  5
235
100
AcDbEntity
  8
0
  6
ByLayer
 62
  256
370
   -1
100
AcDbLine
 10
182.9790496826172
 20
226.5190124511719
 11
182.9790496826172
 21
226.5190124511719
  0
LINE
  5
236
100
AcDbEntity
  8
0
  6
ByLayer
 62
  256
370
   -1
100
AcDbLine
 10
85.29839324951172
 20
5.433522701263428
 11
90.42876434326172
 21
4.154067993164062
  0
LINE
  5
237
100
AcDbEntity
  8
0
  6
ByLayer
 62
  256
370
   -1
100
AcDbLine
 10
243.4195404052734
 20
187.5956115722656
 11
242.9577331542969
 21
191.0081939697266
  0
LINE
  5
238
100
AcDbEntity
  8
0
  6
ByLayer
 62
  256
370
   -1
100
AcDbLine
 10
68.91485595703125
 20
132.4145965576172
 11
62.33874893188477
 21
133.5559844970703
  0
LINE
  5
239
100
AcDbEntity
  8
0
  6
ByLayer
 62
  256
370
   -1
100
AcDbLine
 10
223.9463500976562
 20
201.6061553955078
 11
227.1795806884766
 21
202.1444244384766
  0
LINE
  5
23A
100
AcDbEntity
  8
0
  6
ByLayer
 62
  256
370
   -1
100
AcDbLine
 10
216.8277893066406
 20
197.8344879150391
 11
216.8277893066406
 21
197.8344879150391
  0
LINE
  5
23B
100
AcDbEntity
  8
0
  6
ByLayer
 62
  256
370
   -1
100
AcDbLine
 10
248.0225982666016
 20
75.89726257324219
 11
248.0225982666016
 21
75.89726257324219
  0
LINE
  5
23C
100
AcDbEntity
  8
0
  6
ByLayer
 62
  256
370
   -1
100
AcDbLine
 10
224.6997985839844
 20
72.51115417480469
 11
220.0635986328125
 21
76.04077911376953
  0
LINE
  5
23D
100
AcDbEntity
  8
0
  6
ByLayer
 62
  256
370
   -1
100
AcDbLine
 10
172.7651672363281
 20
37.06943130493164
 11
172.3773498535156
 21
38.48860168457031
  0
LINE
  5
23E
100
AcDbEntity
  8
0
  6
ByLayer
 62
  256
370
   -1
100
AcDbLine
 10
181.3217926025391
 20
38.47524261474609
 11
185.982666015625
 21
36.4468994140625
  0
LINE
  5
23F
100
AcDbEntity
  8
0
  6
ByLayer
 62
  256
370
   -1
100
AcDbLine
 10
143.3536987304688
 20
83.51449584960938
 11
136.7407836914062
 21
84.12453460693359
  0
LINE
  5
240
100
AcDbEntity
  8
0
  6
ByLayer
 62
  256
370
   -1
100
AcDbLine
 10
113.9449844360352
 20
26.12294769287109
 11
113.7077713012695
 21
20.30088043212891
  0
LINE
  5
241
100
AcDbEntity
  8
0
  6
ByLayer
 62
  256
370
   -1
100
AcDbLine
 10
85.29839324951172
 20
5.433522701263428
 11
80.49542236328125
 21
7.734216690063477
  0
LINE
  5
242
100
AcDbEntity
  8
0
  6
ByLayer
 62
  256
370
   -1
100
AcDbLine
 10
92.65605163574219
 20
34.83477783203125
 11
87.70186614990234
 21
34.13391876220703
  0
LINE
  5
243
100
AcDbEntity
  8
0
  6
ByLayer
 62
  256
370
   -1
100
AcDbLine
 10
87.57630157470703
 20
55.17883682250977
 11
84.9937744140625
 21
61.7691764831543
  0
LINE
  5
244
100
AcDbEntity
  8
0
  6
ByLayer
 62
  256
370
   -1
100
AcDbLine
 10
184.2402496337891
 20
157.2960357666016
 11
177.9051818847656
 21
153.0186767578125
  0
LINE
  5
245
100
AcDbEntity
  8
0
  6
ByLayer
 62
  256
370
   -1
100
AcDbLine
 10
177.9051818847656
 20
153.0186767578125
 11
167.7584991455078
 21
148.4065704345703
  0
LINE
  5
246
100
AcDbEntity
  8
0
  6
ByLayer
 62
  256
370
   -1
100
AcDbLine
 10
239.8908081054688
 20
177.0325164794922
 11
239.8908081054688
 21
177.0325164794922
  0
LINE
  5
247
100
AcDbEntity
  8
0
  6
ByLayer
 62
  256
370
   -1
100
AcDbLine
 10
224.4938354492188
 20
80.04106903076172
 11
224.4938354492188
 21
80.04106903076172
  0
LINE
  5
248
100
AcDbEntity
  8
0
  6
ByLayer
 62
  256
370
   -1
100
AcDbLine
 10
32.13913345336914
 20
152.2528228759766
 11
32.13913345336914
 21
152.2528228759766
  0
LINE
  5
249
100
AcDbEntity
  8
0
  6
ByLayer
 62
  256
370
   -1
100
AcDbLine
 10
28.00183868408203
 20
76.72422790527344
 11
28.00183868408203
 21
76.72422790527344
  0
LINE
  5
24A
100
AcDbEntity
  8
0
  6
ByLayer
 62
  256
370
   -1
100
AcDbLine
 10
90.42876434326172
 20
4.154067993164062
 11
90.42876434326172
 21
4.154067993164062
  0
LINE
  5
24B
100
AcDbEntity
  8
0
  6
ByLayer
 62
  256
370
   -1
100
AcDbLine
 10
157.5850067138672
 20
245.6824493408203
 11
153.0806121826172
 21
240.1226043701172
  0
LINE
  5
24C
100
AcDbEntity
  8
0
  6
ByLayer
 62
  256
370
   -1
100
AcDbLine
 10
3.811431884765625
 20
83.91734313964844
 11
2.63633918762207
 21
89.10655212402344
  0
LINE
  5
24D
100
AcDbEntity
  8
0
  6
ByLayer
 62
  256
370
   -1
100
AcDbLine
 10
3.811431884765625
 20
83.91734313964844
 11
6.232596874237061
 21
79.15692901611328
  0
LINE
  5
24E
100
AcDbEntity
  8
0
  6
ByLayer
 62
  256
370
   -1
100
AcDbLine
 10
35.30524826049805
 20
77.22579956054688
 11
35.30524826049805
 21
77.22579956054688
  0
LINE
  5
24F
100
AcDbEntity
  8
0
  6
ByLayer
 62
  256
370
   -1
100
AcDbLine
 10
34.32706832885742
 20
148.9842987060547
 11
27.27518463134766
 21
145.9258880615234
  0
LINE
  5
250
100
AcDbEntity
  8
0
  6
ByLayer
 62
  256
370
   -1
100
AcDbLine
 10
52.27018737792969
 20
155.4139404296875
 11
53.81085586547852
 21
146.5780487060547
  0
LINE
  5
251
100
AcDbEntity
  8
0
  6
ByLayer
 62
  256
370
   -1
100
AcDbLine
 10
88.16780090332031
 20
216.0571594238281
 11
84.09876251220703
 21
208.7018737792969
  0
LINE
  5
252
100
AcDbEntity
  8
0
  6
ByLayer
 62
  256
370
   -1
100
AcDbLine
 10
82.79618072509766
 20
221.2690887451172
 11
77.14486694335938
 21
219.2401733398438
  0
LINE
  5
253
100
AcDbEntity
  8
0
  6
ByLayer
 62
  256
370
   -1
100
AcDbLine
 10
107.9232788085938
 20
182.9507293701172
 11
107.9232788085938
 21
182.9507293701172
  0
LINE
  5
254
100
AcDbEntity
  8
0
  6
ByLayer
 62
  256
370
   -1
100
AcDbLine
 10
107.9232788085938
 20
182.9507293701172
 11
114.8537673950195
 21
184.2674713134766
  0
LINE
  5
255
100
AcDbEntity
  8
0
  6
ByLayer
 62
  256
370
   -1
100
AcDbLine
 10
149.5481719970703
 20
227.2777709960938
 11
149.5481719970703
 21
227.2777709960938
  0
LINE
  5
256
100
AcDbEntity
  8
0
  6
ByLayer
 62
  256
370
   -1
100
AcDbLine
 10
157.5850067138672
 20
245.6824493408203
 11
162.5532836914062
 21
248.2118377685547
  0
LINE
  5
257
100
AcDbEntity
  8
0
  6
ByLayer
 62
  256
370
   -1
100
AcDbLine
 10
169.0158233642578
 20
249.950927734375
 11
176.2755889892578
 21
248.9842376708984
  0
LINE
  5
258
100
AcDbEntity
  8
0
  6
ByLayer
 62
  256
370
   -1
100
AcDbLine
 10
156.9873504638672
 20
233.0886077880859
 11
156.7351989746094
 21
228.7701873779297
  0
LINE
  5
259
100
AcDbEntity
  8
0
  6
ByLayer
 62
  256
370
   -1
100
AcDbLine
 10
176.8156127929688
 20
174.2990264892578
 11
174.2729949951172
 21
170.2920837402344
  0
LINE
  5
25A
100
AcDbEntity
  8
0
  6
ByLayer
 62
  256
370
   -1
100
AcDbLine
 10
162.7901916503906
 20
152.1961212158203
 11
162.7901916503906
 21
152.1961212158203
  0
LINE
  5
25B
100
AcDbEntity
  8
0
  6
ByLayer
 62
  256
370
   -1
100
AcDbLine
 10
199.5329437255859
 20
184.0200347900391
 11
199.5329437255859
 21
184.0200347900391
  0
LINE
  5
25C
100
AcDbEntity
  8
0
  6
ByLayer
 62
  256
370
   -1
100
AcDbLine
 10
199.5329437255859
 20
184.0200347900391
 11
202.8310089111328
 21
190.9846801757812
  0
LINE
  5
25D
100
AcDbEntity
  8
0
  6
ByLayer
 62
  256
370
   -1
100
AcDbLine
 10
237.3169250488281
 20
169.8070526123047
 11
230.8405456542969
 21
169.2049407958984
  0
LINE
  5
25E
100
AcDbEntity
  8
0
  6
ByLayer
 62
  256
370
   -1
100
AcDbLine
 10
252.2799835205078
 20
100.8572845458984
 11
252.2799835205078
 21
100.8572845458984
  0
LINE
  5
25F
100
AcDbEntity
  8
0
  6
ByLayer
 62
  256
370
   -1
100
AcDbLine
 10
19.36856460571289
 20
111.7518615722656
 11
19.36856460571289
 21
111.7518615722656
  0
LINE
  5
260
100
AcDbEntity
  8
0
  6
ByLayer
 62
  256
370
   -1
100
AcDbLine
 10
204.4541778564453
 20
176.3757019042969
 11
204.4541778564453
 21
176.3757019042969
  0
LINE
  5
261
100
AcDbEntity
  8
0
  6
ByLayer
 62
  256
370
   -1
100
AcDbLine
 10
83.80439758300781
 20
12.25964641571045
 11
83.80439758300781
 21
12.25964641571045
  0
LINE
  5
262
100
AcDbEntity
  8
0
  6
ByLayer
 62
  256
370
   -1
100
AcDbLine
 10
34.42927169799805
 20
95.30901336669922
 11
34.42927169799805
 21
95.30901336669922
  0
LINE
  5
263
100
AcDbEntity
  8
0
  6
ByLayer
 62
  256
370
   -1
100
AcDbLine
 10
9.46965217590332
 20
75.01110076904297
 11
9.46965217590332
 21
75.01110076904297
  0
LINE
  5
264
100
AcDbEntity
  8
0
  6
ByLayer
 62
  256
370
   -1
100
AcDbLine
 10
18.48697853088379
 20
70.47901916503906
 11
18.5095386505127
 21
70.47930908203125
  0
LINE
  5
265
100
AcDbEntity
  8
0
  6
ByLayer
 62
  256
370
   -1
100
AcDbLine
 10
34.42927169799805
 20
95.30901336669922
 11
33.61814498901367
 21
94.12667083740234
  0
LINE
  5
266
100
AcDbEntity
  8
0
  6
ByLayer
 62
  256
370
   -1
100
AcDbLine
 10
17.98563385009766
 20
180.2077026367188
 11
23.10207176208496
 21
182.4221343994141
  0
LINE
  5
267
100
AcDbEntity
  8
0
  6
ByLayer
 62
  256
370
   -1
100
AcDbLine
 10
90.96879577636719
 20
165.1789093017578
 11
90.96879577636719
 21
165.1789093017578
  0
LINE
  5
268
100
AcDbEntity
  8
0
  6
ByLayer
 62
  256
370
   -1
100
AcDbLine
 10
82.4617919921875
 20
201.4100799560547
 11
84.09876251220703
 21
208.7018737792969
  0
LINE
  5
269
100
AcDbEntity
  8
0
  6
ByLayer
 62
  256
370
   -1
100
AcDbLine
 10
102.6120681762695
 20
240.1615142822266
 11
104.9188079833984
 21
233.0497894287109
  0
LINE
  5
26A
100
AcDbEntity
  8
0
  6
ByLayer
 62
  256
370
   -1
100
AcDbLine
 10
165.6160430908203
 20
199.1708374023438
 11
159.7918395996094
 21
205.9917602539062
  0
LINE
  5
26B
100
AcDbEntity
  8
0
  6
ByLayer
 62
  256
370
   -1
100
AcDbLine
 10
179.7560729980469
 20
222.6879577636719
 11
179.7560729980469
 21
222.6879577636719
  0
LINE
  5
26C
100
AcDbEntity
  8
0
  6
ByLayer
 62
  256
370
   -1
100
AcDbLine
 10
184.1140747070312
 20
231.1163482666016
 11
183.5203704833984
 21
234.1626586914062
  0
LINE
  5
26D
100
AcDbEntity
  8
0
  6
ByLayer
 62
  256
370
   -1
100
AcDbLine
 10
170.5086517333984
 20
244.3167114257812
 11
170.5086517333984
 21
244.3167114257812
  0
LINE
  5
26E
100
AcDbEntity
  8
0
  6
ByLayer
 62
  256
370
   -1
100
AcDbLine
 10
152.0605010986328
 20
170.448974609375
 11
158.4147644042969
 21
172.2770080566406
  0
LINE
  5
26F
100
AcDbEntity
  8
0
  6
ByLayer
 62
  256
370
   -1
100
AcDbLine
 10
180.0149841308594
 20
195.1000671386719
 11
180.0149841308594
 21
195.1000671386719
  0
LINE
  5
270
100
AcDbEntity
  8
0
  6
ByLayer
 62
  256
370
   -1
100
AcDbLine
 10
165.6160430908203
 20
199.1708374023438
 11
170.1762237548828
 21
190.6957550048828
  0
LINE
  5
271
100
AcDbEntity
  8
0
  6
ByLayer
 62
  256
370
   -1
100
AcDbLine
 10
161.4332733154297
 20
150.2709655761719
 11
161.2335510253906
 21
148.316650390625
  0
LINE
  5
272
100
AcDbEntity
  8
0
  6
ByLayer
 62
  256
370
   -1
100
AcDbLine
 10
242.5192260742188
 20
201.9466552734375
 11
245.7673645019531
 21
197.7326049804688
  0
LINE
  5
273
100
AcDbEntity
  8
0
  6
ByLayer
 62
  256
370
   -1
100
AcDbLine
 10
235.8838958740234
 20
174.5112457275391
 11
239.8908081054688
 21
177.0325164794922
  0
LINE
  5
274
100
AcDbEntity
  8
0
  6
ByLayer
 62
  256
370
   -1
100
AcDbLine
 10
196.8467864990234
 20
130.0577087402344
 11
204.2369995117188
 21
127.6836624145508
  0
LINE
  5
275
100
AcDbEntity
  8
0
  6
ByLayer
 62
  256
370
   -1
100
AcDbLine
 10
252.2799835205078
 20
100.8572845458984
 11
254.4325256347656
 21
96.34817504882812
  0
LINE
  5
276
100
AcDbEntity
  8
0
  6
ByLayer
 62
  256
370
   -1
100
AcDbLine
 10
204.3504943847656
 20
110.2104263305664
 11
204.3504943847656
 21
110.2104263305664
  0
LINE
  5
277
100
AcDbEntity
  8
0
  6
ByLayer
 62
  256
370
   -1
100
AcDbLine
 10
179.7913665771484
 20
93.276123046875
 11
184.8113555908203
 21
84.02420043945312
  0
LINE
  5
278
100
AcDbEntity
  8
0
  6
ByLayer
 62
  256
370
   -1
100
AcDbLine
 10
186.7327575683594
 20
73.70986175537109
 11
183.6514587402344
 21
63.68245315551758
  0
LINE
  5
279
100
AcDbEntity
  8
0
  6
ByLayer
 62
  256
370
   -1
100
AcDbLine
 10
193.2239227294922
 20
15.27672576904297
 11
186.3223114013672
 21
9.334103584289551
  0
LINE
  5
27A
100
AcDbEntity
  8
0
  6
ByLayer
 62
  256
370
   -1
100
AcDbLine
 10
156.1109619140625
 20
22.04916381835938
 11
156.1109619140625
 21
22.04916381835938
  0
LINE
  5
27B
100
AcDbEntity
  8
0
  6
ByLayer
 62
  256
370
   -1
100
AcDbLine
 10
189.4959411621094
 20
33.49058151245117
 11
191.2801971435547
 21
29.26633071899414
  0
LINE
  5
27C
100
AcDbEntity
  8
0
  6
ByLayer
 62
  256
370
   -1
100
AcDbLine
 10
107.4311676025391
 20
10.01882076263428
 11
107.4311676025391
 21
10.01882076263428
  0
LINE
  5
27D
100
AcDbEntity
  8
0
  6
ByLayer
 62
  256
370
   -1
100
AcDbLine
 10
101.5358428955078
 20
6.018252849578857
 11
101.5358428955078
 21
6.018252849578857
  0
LINE
  5
27E
100
AcDbEntity
  8
0
  6
ByLayer
 62
  256
370
   -1
100
AcDbLine
 10
73.88860321044922
 20
22.71602249145508
 11
75.48766326904297
 21
29.48643493652344
  0
LINE
  5
27F
100
AcDbEntity
  8
0
  6
ByLayer
 62
  256
370
   -1
100
AcDbLine
 10
79.27469635009766
 20
19.4656982421875
 11
79.27469635009766
 21
19.4656982421875
  0
LINE
  5
280
100
AcDbEntity
  8
0
  6
ByLayer
 62
  256
370
   -1
100
AcDbLine
 10
162.9133758544922
 20
24.79788017272949
 11
162.1849060058594
 21
28.77742195129395
  0
LINE
  5
281
100
AcDbEntity
  8
0
  6
ByLayer
 62
  256
370
   -1
100
AcDbLine
 10
245.3594207763672
 20
100.9169692993164
 11
247.2989349365234
 21
98.50373077392578
  0
LINE
  5
282
100
AcDbEntity
  8
0
  6
ByLayer
 62
  256
370
   -1
100
AcDbLine
 10
106.6448745727539
 20
17.90520477294922
 11
107.8658828735352
 21
21.07078742980957
  0
LINE
  5
283
100
AcDbEntity
  8
0
  6
ByLayer
 62
  256
370
   -1
100
AcDbLine
 10
100.5552139282227
 20
70.88314819335938
 11
98.34442138671875
 21
68.05976104736328
  0
LINE
  5
284
100
AcDbEntity
  8
0
  6
ByLayer
 62
  256
370
   -1
100
AcDbLine
 10
70.81000518798828
 20
94.30828094482422
 11
62.32339477539062
 21
95.64553070068359
  0
LINE
  5
285
100
AcDbEntity
  8
0
  6
ByLayer
 62
  256
370
   -1
100
AcDbLine
 10
249.0919189453125
 20
86.78965759277344
 11
249.0919189453125
 21
86.78965759277344
  0
LINE
  5
286
100
AcDbEntity
  8
0
  6
ByLayer
 62
  256
370
   -1
100
AcDbLine
 10
13.11742401123047
 20
79.26227569580078
 11
10.78301811218262
 21
81.79399871826172
  0
LINE
  5
287
100
AcDbEntity
  8
0
  6
ByLayer
 62
  256
370
   -1
100
AcDbLine
 10
8.169954299926758
 20
88.11470031738281
 11
8.169954299926758
 21
88.11470031738281
  0
LINE
  5
288
100
AcDbEntity
  8
0
  6
ByLayer
 62
  256
370
   -1
100
AcDbLine
 10
74.19316101074219
 20
105.5302581787109
 11
74.19316101074219
 21
105.5302581787109
  0
LINE
  5
289
100
AcDbEntity
  8
0
  6
ByLayer
 62
  256
370
   -1
100
AcDbLine
 10
184.1140747070312
 20
231.1163482666016
 11
182.9790496826172
 21
226.5190124511719
  0
LINE
  5
28A
100
AcDbEntity
  8
0
  6
ByLayer
 62
  256
370
   -1
100
AcDbLine
 10
156.326416015625
 20
44.85958099365234
 11
156.326416015625
 21
44.85958099365234
  0
LINE
  5
28B
100
AcDbEntity
  8
0
  6
ByLayer
 62
  256
370
   -1
100
AcDbLine
 10
30.25721549987793
 20
182.3468933105469
 11
30.25721549987793
 21
182.3468933105469
  0
LINE
  5
28C
100
AcDbEntity
  8
0
  6
ByLayer
 62
  256
370
   -1
100
AcDbLine
 10
181.0650939941406
 20
246.5932922363281
 11
181.0650939941406
 21
246.5932922363281
  0
LINE
  5
28D
100
AcDbEntity
  8
0
  6
ByLayer
 62
  256
370
   -1
100
AcDbLine
 10
95.78024291992188
 20
117.5276260375977
 11
95.78024291992188
 21
117.5276260375977
  0
LINE
  5
28E
100
AcDbEntity
  8
0
  6
ByLayer
 62
  256
370
   -1
100
AcDbLine
 10
105.0461044311523
 20
97.73294830322266
 11
105.0461044311523
 21
97.73294830322266
  0
LINE
  5
28F
100
AcDbEntity
  8
0
  6
ByLayer
 62
  256
370
   -1
100
AcDbLine
 10
35.83799362182617
 20
155.6223297119141
 11
35.83799362182617
 21
155.6223297119141
  0
LINE
  5
290
100
AcDbEntity
  8
0
  6
ByLayer
 62
  256
370
   -1
100
AcDbLine
 10
8.626235008239746
 20
105.261474609375
 11
8.626235008239746
 21
105.261474609375
  0
LINE
  5
291
100
AcDbEntity
  8
0
  6
ByLayer
 62
  256
370
   -1
100
AcDbLine
 10
31.57521438598633
 20
80.23402404785156
 11
31.57521438598633
 21
80.23402404785156
  0
LINE
  5
292
100
AcDbEntity
  8
0
  6
ByLayer
 62
  256
370
   -1
100
AcDbLine
 10
34.4109992980957
 20
85.15582275390625
 11
34.73313140869141
 21
90.15060424804688
  0
LINE
  5
293
100
AcDbEntity
  8
0
  6
ByLayer
 62
  256
370
   -1
100
AcDbLine
 10
27.27518463134766
 20
145.9258880615234
 11
20.77078628540039
 21
145.8071594238281
  0
LINE
  5
294
100
AcDbEntity
  8
0
  6
ByLayer
 62
  256
370
   -1
100
AcDbLine
 10
46.36373519897461
 20
172.8023681640625
 11
46.36373519897461
 21
172.8023681640625
  0
LINE
  5
295
100
AcDbEntity
  8
0
  6
ByLayer
 62
  256
370
   -1
100
AcDbLine
 10
77.14486694335938
 20
219.2401733398438
 11
70.26127624511719
 21
220.9013519287109
  0
LINE
  5
296
100
AcDbEntity
  8
0
  6
ByLayer
 62
  256
370
   -1
100
AcDbLine
 10
114.8537673950195
 20
184.2674713134766
 11
117.917236328125
 21
184.7503509521484
  0
LINE
  5
297
100
AcDbEntity
  8
0
  6
ByLayer
 62
  256
370
   -1
100
AcDbLine
 10
153.0806121826172
 20
240.1226043701172
 11
150.043701171875
 21
233.0709991455078
  0
LINE
  5
298
100
AcDbEntity
  8
0
  6
ByLayer
 62
  256
370
   -1
100
AcDbLine
 10
176.2755889892578
 20
248.9842376708984
 11
181.0650939941406
 21
246.5932922363281
  0
LINE
  5
299
100
AcDbEntity
  8
0
  6
ByLayer
 62
  256
370
   -1
100
AcDbLine
 10
81.27558135986328
 20
248.4837951660156
 11
87.70046997070312
 21
247.4111328125
  0
LINE
  5
29A
100
AcDbEntity
  8
0
  6
ByLayer
 62
  256
370
   -1
100
AcDbLine
 10
202.8310089111328
 20
190.9846801757812
 11
206.0226745605469
 21
195.7521667480469
  0
LINE
  5
29B
100
AcDbEntity
  8
0
  6
ByLayer
 62
  256
370
   -1
100
AcDbLine
 10
246.7617950439453
 20
177.8587188720703
 11
246.7617950439453
 21
177.8587188720703
  0
LINE
  5
29C
100
AcDbEntity
  8
0
  6
ByLayer
 62
  256
370
   -1
100
AcDbLine
 10
230.8405456542969
 20
169.2049407958984
 11
230.8405456542969
 21
169.2049407958984
  0
LINE
  5
29D
100
AcDbEntity
  8
0
  6
ByLayer
 62
  256
370
   -1
100
AcDbLine
 10
230.8405456542969
 20
169.2049407958984
 11
223.4914245605469
 21
171.4619293212891
  0
LINE
  5
29E
100
AcDbEntity
  8
0
  6
ByLayer
 62
  256
370
   -1
100
AcDbLine
 10
230.9016265869141
 20
173.9964904785156
 11
235.8838958740234
 21
174.5112457275391
  0
LINE
  5
29F
100
AcDbEntity
  8
0
  6
ByLayer
 62
  256
370
   -1
100
AcDbLine
 10
13.71872615814209
 20
167.5489044189453
 11
15.91356182098389
 21
171.595703125
  0
LINE
  5
2A0
100
AcDbEntity
  8
0
  6
ByLayer
 62
  256
370
   -1
100
AcDbLine
 10
234.8997192382812
 20
200.8977355957031
 11
234.8997192382812
 21
200.8977355957031
  0
LINE
  5
2A1
100
AcDbEntity
  8
0
  6
ByLayer
 62
  256
370
   -1
100
AcDbLine
 10
53.81085586547852
 20
146.5780487060547
 11
57.43180465698242
 21
137.6611633300781
  0
LINE
  5
2A2
100
AcDbEntity
  8
0
  6
ByLayer
 62
  256
370
   -1
100
AcDbLine
 10
202.5972290039062
 20
168.3544769287109
 11
199.4234313964844
 21
160.1369171142578
  0
LINE
  5
2A3
100
AcDbEntity
  8
0
  6
ByLayer
 62
  256
370
   -1
100
AcDbLine
 10
226.9270935058594
 20
97.99542236328125
 11
224.9110107421875
 21
94.2005615234375
  0
LINE
  5
2A4
100
AcDbEntity
  8
0
  6
ByLayer
 62
  256
370
   -1
100
AcDbLine
 10
220.0635986328125
 20
76.04077911376953
 11
216.1908416748047
 21
80.71285247802734
  0
LINE
  5
2A5
100
AcDbEntity
  8
0
  6
ByLayer
 62
  256
370
   -1
100
AcDbLine
 10
226.9270935058594
 20
97.99542236328125
 11
230.6259460449219
 21
101.3649215698242
  0
LINE
  5
2A6
100
AcDbEntity
  8
0
  6
ByLayer
 62
  256
370
   -1
100
AcDbLine
 10
172.3773498535156
 20
38.48860168457031
 11
175.975341796875
 21
40.83850860595703
  0
LINE
  5
2A7
100
AcDbEntity
  8
0
  6
ByLayer
 62
  256
370
   -1
100
AcDbLine
 10
185.982666015625
 20
36.4468994140625
 11
189.4959411621094
 21
33.49058151245117
  0
LINE
  5
2A8
100
AcDbEntity
  8
0
  6
ByLayer
 62
  256
370
   -1
100
AcDbLine
 10
136.7407836914062
 20
84.12453460693359
 11
129.1258392333984
 21
84.21076965332031
  0
LINE
  5
2A9
100
AcDbEntity
  8
0
  6
ByLayer
 62
  256
370
   -1
100
AcDbLine
 10
113.1708374023438
 20
78.16381072998047
 11
113.1708374023438
 21
78.16381072998047
  0
LINE
  5
2AA
100
AcDbEntity
  8
0
  6
ByLayer
 62
  256
370
   -1
100
AcDbLine
 10
97.87030792236328
 20
59.38116073608398
 11
97.87030792236328
 21
59.38116073608398
  0
LINE
  5
2AB
100
AcDbEntity
  8
0
  6
ByLayer
 62
  256
370
   -1
100
AcDbLine
 10
113.7077713012695
 20
20.30088043212891
 11
111.5520172119141
 21
15.04853057861328
  0
LINE
  5
2AC
100
AcDbEntity
  8
0
  6
ByLayer
 62
  256
370
   -1
100
AcDbLine
 10
90.42876434326172
 20
4.154067993164062
 11
96.22782897949219
 21
4.49351978302002
  0
LINE
  5
2AD
100
AcDbEntity
  8
0
  6
ByLayer
 62
  256
370
   -1
100
AcDbLine
 10
87.70186614990234
 20
34.13391876220703
 11
83.00901794433594
 21
30.92978858947754
  0
LINE
  5
2AE
100
AcDbEntity
  8
0
  6
ByLayer
 62
  256
370
   -1
100
AcDbLine
 10
84.9937744140625
 20
61.7691764831543
 11
84.66018676757812
 21
70.52943420410156
  0
LINE
  5
2AF
100
AcDbEntity
  8
0
  6
ByLayer
 62
  256
370
   -1
100
AcDbLine
 10
105.0461044311523
 20
97.73294830322266
 11
99.27393341064453
 21
95.97589874267578
  0
LINE
  5
2B0
100
AcDbEntity
  8
0
  6
ByLayer
 62
  256
370
   -1
100
AcDbLine
 10
53.9693603515625
 20
98.44042205810547
 11
53.9693603515625
 21
98.44042205810547
  0
LINE
  5
2B1
100
AcDbEntity
  8
0
  6
ByLayer
 62
  256
370
   -1
100
AcDbLine
 10
249.0919189453125
 20
86.78965759277344
 11
247.5811767578125
 21
83.46680450439453
  0
LINE
  5
2B2
100
AcDbEntity
  8
0
  6
ByLayer
 62
  256
370
   -1
100
AcDbLine
 10
201.1893157958984
 20
113.8604125976562
 11
197.3329162597656
 21
115.4349060058594
  0
LINE
  5
2B3
100
AcDbEntity
  8
0
  6
ByLayer
 62
  256
370
   -1
100
AcDbLine
 10
27.37142181396484
 20
106.8859634399414
 11
27.37142181396484
 21
106.8859634399414
  0
LINE
  5
2B4
100
AcDbEntity
  8
0
  6
ByLayer
 62
  256
370
   -1
100
AcDbLine
 10
20.17055130004883
 20
174.8640747070312
 11
15.91356182098389
 21
171.595703125
  0
LINE
  5
2B5
100
AcDbEntity
  8
0
  6
ByLayer
 62
  256
370
   -1
100
AcDbLine
 10
34.4109992980957
 20
85.15582275390625
 11
31.57521438598633
 21
80.23402404785156
  0
LINE
  5
2B6
100
AcDbEntity
  8
0
  6
ByLayer
 62
  256
370
   -1
100
AcDbLine
 10
30.7119026184082
 20
72.62075042724609
 11
30.7119026184082
 21
72.62075042724609
  0
LINE
  5
2B7
100
AcDbEntity
  8
0
  6
ByLayer
 62
  256
370
   -1
100
AcDbLine
 10
20.17055130004883
 20
174.8640747070312
 11
24.12510299682617
 21
176.4410247802734
  0
LINE
  5
2B8
100
AcDbEntity
  8
0
  6
ByLayer
 62
  256
370
   -1
100
AcDbLine
 10
230.9016265869141
 20
173.9964904785156
 11
225.3019714355469
 21
174.9502868652344
  0
LINE
  5
2B9
100
AcDbEntity
  8
0
  6
ByLayer
 62
  256
370
   -1
100
AcDbLine
 10
17.98563385009766
 20
180.2077026367188
 11
17.98563385009766
 21
180.2077026367188
  0
LINE
  5
2BA
100
AcDbEntity
  8
0
  6
ByLayer
 62
  256
370
   -1
100
AcDbLine
 10
103.8541793823242
 20
14.80553722381592
 11
103.8541793823242
 21
14.80553722381592
  0
LINE
  5
2BB
100
AcDbEntity
  8
0
  6
ByLayer
 62
  256
370
   -1
100
AcDbLine
 10
57.43180465698242
 20
137.6611633300781
 11
62.33874893188477
 21
133.5559844970703
  0
LINE
  5
2BC
100
AcDbEntity
  8
0
  6
ByLayer
 62
  256
370
   -1
100
AcDbLine
 10
199.4234313964844
 20
160.1369171142578
 11
199.4234313964844
 21
160.1369171142578
  0
LINE
  5
2BD
100
AcDbEntity
  8
0
  6
ByLayer
 62
  256
370
   -1
100
AcDbLine
 10
174.1569671630859
 20
128.2177429199219
 11
174.1569671630859
 21
128.2177429199219
  0
LINE
  5
2BE
100
AcDbEntity
  8
0
  6
ByLayer
 62
  256
370
   -1
100
AcDbLine
 10
204.2369995117188
 20
127.6836624145508
 11
210.6931304931641
 21
121.712516784668
  0
LINE
  5
2BF
100
AcDbEntity
  8
0
  6
ByLayer
 62
  256
370
   -1
100
AcDbLine
 10
254.4325256347656
 20
96.34817504882812
 11
255.5577697753906
 21
90.08295440673828
  0
LINE
  5
2C0
100
AcDbEntity
  8
0
  6
ByLayer
 62
  256
370
   -1
100
AcDbLine
 10
183.6514587402344
 20
63.68245315551758
 11
179.493408203125
 21
56.62799453735352
  0
LINE
  5
2C1
100
AcDbEntity
  8
0
  6
ByLayer
 62
  256
370
   -1
100
AcDbLine
 10
186.3223114013672
 20
9.334103584289551
 11
178.5977783203125
 21
7.38602876663208
  0
LINE
  5
2C2
100
AcDbEntity
  8
0
  6
ByLayer
 62
  256
370
   -1
100
AcDbLine
 10
191.2801971435547
 20
29.26633071899414
 11
191.1897583007812
 21
26.08354377746582
  0
LINE
  5
2C3
100
AcDbEntity
  8
0
  6
ByLayer
 62
  256
370
   -1
100
AcDbLine
 10
100.1529922485352
 20
54.57308959960938
 11
97.87030792236328
 21
59.38116073608398
  0
LINE
  5
2C4
100
AcDbEntity
  8
0
  6
ByLayer
 62
  256
370
   -1
100
AcDbLine
 10
111.5520172119141
 20
15.04853057861328
 11
111.5520172119141
 21
15.04853057861328
  0
LINE
  5
2C5
100
AcDbEntity
  8
0
  6
ByLayer
 62
  256
370
   -1
100
AcDbLine
 10
75.48766326904297
 20
29.48643493652344
 11
79.72655487060547
 21
34.42131805419922
  0
LINE
  5
2C6
100
AcDbEntity
  8
0
  6
ByLayer
 62
  256
370
   -1
100
AcDbLine
 10
80.84951019287109
 20
15.95421600341797
 11
79.27469635009766
 21
19.4656982421875
  0
LINE
  5
2C7
100
AcDbEntity
  8
0
  6
ByLayer
 62
  256
370
   -1
100
AcDbLine
 10
107.8658828735352
 20
21.07078742980957
 11
108.0385284423828
 21
25.26089286804199
  0
LINE
  5
2C8
100
AcDbEntity
  8
0
  6
ByLayer
 62
  256
370
   -1
100
AcDbLine
 10
88.12542724609375
 20
94.33352661132812
 11
88.12542724609375
 21
94.33352661132812
  0
LINE
  5
2C9
100
AcDbEntity
  8
0
  6
ByLayer
 62
  256
370
   -1
100
AcDbLine
 10
240.9349975585938
 20
77.96254730224609
 11
240.9349975585938
 21
77.96254730224609
  0
LINE
  5
2CA
100
AcDbEntity
  8
0
  6
ByLayer
 62
  256
370
   -1
100
AcDbLine
 10
235.2160797119141
 20
76.59773254394531
 11
231.0488128662109
 21
76.42439270019531
  0
LINE
  5
2CB
100
AcDbEntity
  8
0
  6
ByLayer
 62
  256
370
   -1
100
AcDbLine
 10
9.058524131774902
 20
84.79095458984375
 11
9.058524131774902
 21
84.79095458984375
  0
LINE
  5
2CC
100
AcDbEntity
  8
0
  6
ByLayer
 62
  256
370
   -1
100
AcDbLine
 10
62.45361328125
 20
104.4456176757812
 11
67.11713409423828
 21
104.4187698364258
  0
LINE
  5
2CD
100
AcDbEntity
  8
0
  6
ByLayer
 62
  256
370
   -1
100
AcDbLine
 10
161.4249572753906
 20
217.67041015625
 11
161.4249572753906
 21
217.67041015625
  0
LINE
  5
2CE
100
AcDbEntity
  8
0
  6
ByLayer
 62
  256
370
   -1
100
AcDbLine
 10
100.1529922485352
 20
54.57308959960938
 11
103.3459701538086
 21
47.52505493164062
  0
LINE
  5
2CF
100
AcDbEntity
  8
0
  6
ByLayer
 62
  256
370
   -1
100
AcDbLine
 10
80.84951019287109
 20
15.95421600341797
 11
83.80439758300781
 21
12.25964641571045
  0
LINE
  5
2D0
100
AcDbEntity
  8
0
  6
ByLayer
 62
  256
370
   -1
100
AcDbLine
 10
35.80086517333984
 20
95.06948089599609
 11
35.80086517333984
 21
95.06948089599609
  0
LINE
  5
2D1
100
AcDbEntity
  8
0
  6
ByLayer
 62
  256
370
   -1
100
AcDbLine
 10
175.0255432128906
 20
243.4270935058594
 11
178.3040924072266
 21
241.8395538330078
  0
LINE
  5
2D2
100
AcDbEntity
  8
0
  6
ByLayer
 62
  256
370
   -1
100
AcDbLine
 10
8.626235008239746
 20
105.261474609375
 11
5.254449367523193
 21
100.8918380737305
  0
LINE
  5
2D3
100
AcDbEntity
  8
0
  6
ByLayer
 62
  256
370
   -1
100
AcDbLine
 10
6.232596874237061
 20
79.15692901611328
 11
6.232596874237061
 21
79.15692901611328
  0
LINE
  5
2D4
100
AcDbEntity
  8
0
  6
ByLayer
 62
  256
370
   -1
100
AcDbLine
 10
23.10207176208496
 20
182.4221343994141
 11
23.10207176208496
 21
182.4221343994141
  0
LINE
  5
2D5
100
AcDbEntity
  8
0
  6
ByLayer
 62
  256
370
   -1
100
AcDbLine
 10
23.10207176208496
 20
182.4221343994141
 11
30.25721549987793
 21
182.3468933105469
  0
LINE
  5
2D6
100
AcDbEntity
  8
0
  6
ByLayer
 62
  256
370
   -1
100
AcDbLine
 10
90.51348114013672
 20
158.0363464355469
 11
90.51348114013672
 21
158.0363464355469
  0
LINE
  5
2D7
100
AcDbEntity
  8
0
  6
ByLayer
 62
  256
370
   -1
100
AcDbLine
 10
104.9188079833984
 20
233.0497894287109
 11
104.8576278686523
 21
225.2403411865234
  0
LINE
  5
2D8
100
AcDbEntity
  8
0
  6
ByLayer
 62
  256
370
   -1
100
AcDbLine
 10
159.7918395996094
 20
205.9917602539062
 11
154.2834777832031
 21
213.3529205322266
  0
LINE
  5
2D9
100
AcDbEntity
  8
0
  6
ByLayer
 62
  256
370
   -1
100
AcDbLine
 10
169.8194580078125
 20
216.0310516357422
 11
169.8194580078125
 21
216.0310516357422
  0
LINE
  5
2DA
100
AcDbEntity
  8
0
  6
ByLayer
 62
  256
370
   -1
100
AcDbLine
 10
175.0632171630859
 20
219.4838256835938
 11
175.0632171630859
 21
219.4838256835938
  0
LINE
  5
2DB
100
AcDbEntity
  8
0
  6
ByLayer
 62
  256
370
   -1
100
AcDbLine
 10
175.0632171630859
 20
219.4838256835938
 11
179.7560729980469
 21
222.6879577636719
  0
LINE
  5
2DC
100
AcDbEntity
  8
0
  6
ByLayer
 62
  256
370
   -1
100
AcDbLine
 10
175.0255432128906
 20
243.4270935058594
 11
170.5086517333984
 21
244.3167114257812
  0
LINE
  5
2DD
100
AcDbEntity
  8
0
  6
ByLayer
 62
  256
370
   -1
100
AcDbLine
 10
174.4157409667969
 20
204.8698120117188
 11
174.4157409667969
 21
204.8698120117188
  0
LINE
  5
2DE
100
AcDbEntity
  8
0
  6
ByLayer
 62
  256
370
   -1
100
AcDbLine
 10
170.2097473144531
 20
184.2981414794922
 11
166.8958587646484
 21
178.5045166015625
  0
LINE
  5
2DF
100
AcDbEntity
  8
0
  6
ByLayer
 62
  256
370
   -1
100
AcDbLine
 10
221.7029113769531
 20
206.6949615478516
 11
221.7029113769531
 21
206.6949615478516
  0
LINE
  5
2E0
100
AcDbEntity
  8
0
  6
ByLayer
 62
  256
370
   -1
100
AcDbLine
 10
245.7673645019531
 20
197.7326049804688
 11
247.8907470703125
 21
192.8320922851562
  0
LINE
  5
2E1
100
AcDbEntity
  8
0
  6
ByLayer
 62
  256
370
   -1
100
AcDbLine
 10
217.4689025878906
 20
181.4102325439453
 11
217.4689025878906
 21
181.4102325439453
  0
LINE
  5
2E2
100
AcDbEntity
  8
0
  6
ByLayer
 62
  256
370
   -1
100
AcDbLine
 10
239.8908081054688
 20
177.0325164794922
 11
241.5644989013672
 21
179.6522064208984
  0
LINE
  5
2E3
100
AcDbEntity
  8
0
  6
ByLayer
 62
  256
370
   -1
100
AcDbLine
 10
243.4195404052734
 20
187.5956115722656
 11
243.4195404052734
 21
187.5956115722656
  0
LINE
  5
2E4
100
AcDbEntity
  8
0
  6
ByLayer
 62
  256
370
   -1
100
AcDbLine
 10
221.2489166259766
 20
177.8869934082031
 11
218.8969268798828
 21
181.2811737060547
  0
LINE
  5
2E5
100
AcDbEntity
  8
0
  6
ByLayer
 62
  256
370
   -1
100
AcDbLine
 10
221.2489166259766
 20
177.8869934082031
 11
225.3019714355469
 21
174.9502868652344
  0
LINE
  5
2E6
100
AcDbEntity
  8
0
  6
ByLayer
 62
  256
370
   -1
100
AcDbLine
 10
42.23231887817383
 20
161.6025848388672
 11
42.23231887817383
 21
161.6025848388672
  0
LINE
  5
2E7
100
AcDbEntity
  8
0
  6
ByLayer
 62
  256
370
   -1
100
AcDbLine
 10
161.4243469238281
 20
51.55886459350586
 11
161.4243469238281
 21
51.55886459350586
  0
LINE
  5
2E8
100
AcDbEntity
  8
0
  6
ByLayer
 62
  256
370
   -1
100
AcDbLine
 10
182.9790496826172
 20
226.5190124511719
 11
179.7560729980469
 21
222.6879577636719
  0
LINE
  5
2E9
100
AcDbEntity
  8
0
  6
ByLayer
 62
  256
370
   -1
100
AcDbLine
 10
239.7548675537109
 20
197.0514526367188
 11
239.7548675537109
 21
197.0514526367188
  0
LINE
  5
2EA
100
AcDbEntity
  8
0
  6
ByLayer
 62
  256
370
   -1
100
AcDbLine
 10
24.12510299682617
 20
176.4410247802734
 11
28.95052909851074
 21
176.4343872070312
  0
LINE
  5
2EB
100
AcDbEntity
  8
0
  6
ByLayer
 62
  256
370
   -1
100
AcDbLine
 10
189.6083831787109
 20
162.0382385253906
 11
189.6083831787109
 21
162.0382385253906
  0
LINE
  5
2EC
100
AcDbEntity
  8
0
  6
ByLayer
 62
  256
370
   -1
100
AcDbLine
 10
199.4234313964844
 20
160.1369171142578
 11
195.0421600341797
 21
152.7466735839844
  0
LINE
  5
2ED
100
AcDbEntity
  8
0
  6
ByLayer
 62
  256
370
   -1
100
AcDbLine
 10
224.9110107421875
 20
94.2005615234375
 11
222.5254516601562
 21
94.893310546875
  0
LINE
  5
2EE
100
AcDbEntity
  8
0
  6
ByLayer
 62
  256
370
   -1
100
AcDbLine
 10
216.1908416748047
 20
80.71285247802734
 11
212.6287536621094
 21
89.25180053710938
  0
LINE
  5
2EF
100
AcDbEntity
  8
0
  6
ByLayer
 62
  256
370
   -1
100
AcDbLine
 10
175.975341796875
 20
40.83850860595703
 11
181.6266479492188
 21
42.86741256713867
  0
LINE
  5
2F0
100
AcDbEntity
  8
0
  6
ByLayer
 62
  256
370
   -1
100
AcDbLine
 10
167.5738067626953
 20
76.91233825683594
 11
160.7897338867188
 21
81.48432159423828
  0
LINE
  5
2F1
100
AcDbEntity
  8
0
  6
ByLayer
 62
  256
370
   -1
100
AcDbLine
 10
167.5738067626953
 20
76.91233825683594
 11
169.7130279541016
 21
71.19751739501953
  0
LINE
  5
2F2
100
AcDbEntity
  8
0
  6
ByLayer
 62
  256
370
   -1
100
AcDbLine
 10
129.1258392333984
 20
84.21076965332031
 11
129.1258392333984
 21
84.21076965332031
  0
LINE
  5
2F3
100
AcDbEntity
  8
0
  6
ByLayer
 62
  256
370
   -1
100
AcDbLine
 10
129.1258392333984
 20
84.21076965332031
 11
122.9750518798828
 21
82.36653900146484
  0
LINE
  5
2F4
100
AcDbEntity
  8
0
  6
ByLayer
 62
  256
370
   -1
100
AcDbLine
 10
111.5520172119141
 20
15.04853057861328
 11
107.4311676025391
 21
10.01882076263428
  0
LINE
  5
2F5
100
AcDbEntity
  8
0
  6
ByLayer
 62
  256
370
   -1
100
AcDbLine
 10
183.3379821777344
 20
15.16544151306152
 11
177.4959411621094
 21
13.62379360198975
  0
LINE
  5
2F6
100
AcDbEntity
  8
0
  6
ByLayer
 62
  256
370
   -1
100
AcDbLine
 10
103.8541793823242
 20
14.80553722381592
 11
106.6448745727539
 21
17.90520477294922
  0
LINE
  5
2F7
100
AcDbEntity
  8
0
  6
ByLayer
 62
  256
370
   -1
100
AcDbLine
 10
84.66018676757812
 20
70.52943420410156
 11
88.64024353027344
 21
77.95476531982422
  0
LINE
  5
2F8
100
AcDbEntity
  8
0
  6
ByLayer
 62
  256
370
   -1
100
AcDbLine
 10
97.09968566894531
 20
64.08222198486328
 11
97.09968566894531
 21
64.08222198486328
  0
LINE
  5
2F9
100
AcDbEntity
  8
0
  6
ByLayer
 62
  256
370
   -1
100
AcDbLine
 10
62.32339477539062
 20
95.64553070068359
 11
62.32339477539062
 21
95.64553070068359
  0
LINE
  5
2FA
100
AcDbEntity
  8
0
  6
ByLayer
 62
  256
370
   -1
100
AcDbLine
 10
167.7584991455078
 20
148.4065704345703
 11
162.8240203857422
 21
147.7009887695312
  0
LINE
  5
2FB
100
AcDbEntity
  8
0
  6
ByLayer
 62
  256
370
   -1
100
AcDbLine
 10
244.7304229736328
 20
80.69557952880859
 11
244.7304229736328
 21
80.69557952880859
  0
LINE
  5
2FC
100
AcDbEntity
  8
0
  6
ByLayer
 62
  256
370
   -1
100
AcDbLine
 10
197.3329162597656
 20
115.4349060058594
 11
193.9157104492188
 21
115.6668472290039
  0
LINE
  5
2FD
100
AcDbEntity
  8
0
  6
ByLayer
 62
  256
370
   -1
100
AcDbLine
 10
95.24037170410156
 20
115.9098739624023
 11
95.24037170410156
 21
115.9098739624023
  0
LINE
  5
2FE
100
AcDbEntity
  8
0
  6
ByLayer
 62
  256
370
   -1
100
AcDbLine
 10
35.83799362182617
 20
155.6223297119141
 11
32.13913345336914
 21
152.2528228759766
  0
LINE
  5
2FF
100
AcDbEntity
  8
0
  6
ByLayer
 62
  256
370
   -1
100
AcDbLine
 10
12.25175666809082
 20
108.1698455810547
 11
12.25175666809082
 21
108.1698455810547
  0
LINE
  5
300
100
AcDbEntity
  8
0
  6
ByLayer
 62
  256
370
   -1
100
AcDbLine
 10
67.58175659179688
 20
236.0240478515625
 11
67.48845672607422
 21
232.8399200439453
  0
LINE
  5
301
100
AcDbEntity
  8
0
  6
ByLayer
 62
  256
370
   -1
100
AcDbLine
 10
165.8212890625
 20
57.94937515258789
 11
165.8212890625
 21
57.94937515258789
  0
LINE
  5
302
100
AcDbEntity
  8
0
  6
ByLayer
 62
  256
370
   -1
100
AcDbLine
 10
36.38737869262695
 20
112.6901626586914
 11
43.85546493530273
 21
110.7898712158203
  0
LINE
  5
303
100
AcDbEntity
  8
0
  6
ByLayer
 62
  256
370
   -1
100
AcDbLine
 10
9.46965217590332
 20
75.01110076904297
 11
6.232596874237061
 21
79.15692901611328
  0
LINE
  5
304
100
AcDbEntity
  8
0
  6
ByLayer
 62
  256
370
   -1
100
AcDbLine
 10
9.46965217590332
 20
75.01110076904297
 11
13.77316951751709
 21
72.12926483154297
  0
LINE
  5
305
100
AcDbEntity
  8
0
  6
ByLayer
 62
  256
370
   -1
100
AcDbLine
 10
35.83799362182617
 20
155.6223297119141
 11
37.49808502197266
 21
158.6797332763672
  0
LINE
  5
306
100
AcDbEntity
  8
0
  6
ByLayer
 62
  256
370
   -1
100
AcDbLine
 10
20.77078628540039
 20
145.8071594238281
 11
14.53566455841064
 21
148.8923950195312
  0
LINE
  5
307
100
AcDbEntity
  8
0
  6
ByLayer
 62
  256
370
   -1
100
AcDbLine
 10
92.54672241210938
 20
152.0074920654297
 11
90.51348114013672
 21
158.0363464355469
  0
LINE
  5
308
100
AcDbEntity
  8
0
  6
ByLayer
 62
  256
370
   -1
100
AcDbLine
 10
117.917236328125
 20
184.7503509521484
 11
125.2778472900391
 21
182.5970153808594
  0
LINE
  5
309
100
AcDbEntity
  8
0
  6
ByLayer
 62
  256
370
   -1
100
AcDbLine
 10
154.2834777832031
 20
213.3529205322266
 11
154.2834777832031
 21
213.3529205322266
  0
LINE
  5
30A
100
AcDbEntity
  8
0
  6
ByLayer
 62
  256
370
   -1
100
AcDbLine
 10
181.0650939941406
 20
246.5932922363281
 11
186.0588226318359
 21
241.8575286865234
  0
LINE
  5
30B
100
AcDbEntity
  8
0
  6
ByLayer
 62
  256
370
   -1
100
AcDbLine
 10
67.58175659179688
 20
236.0240478515625
 11
68.56797790527344
 21
240.0233612060547
  0
LINE
  5
30C
100
AcDbEntity
  8
0
  6
ByLayer
 62
  256
370
   -1
100
AcDbLine
 10
87.70046997070312
 20
247.4111328125
 11
93.05299377441406
 21
242.9385833740234
  0
LINE
  5
30D
100
AcDbEntity
  8
0
  6
ByLayer
 62
  256
370
   -1
100
AcDbLine
 10
92.54672241210938
 20
152.0074920654297
 11
90.76289367675781
 21
145.9833984375
  0
LINE
  5
30E
100
AcDbEntity
  8
0
  6
ByLayer
 62
  256
370
   -1
100
AcDbLine
 10
161.5401306152344
 20
241.0805816650391
 11
161.5401306152344
 21
241.0805816650391
  0
LINE
  5
30F
100
AcDbEntity
  8
0
  6
ByLayer
 62
  256
370
   -1
100
AcDbLine
 10
167.7595825195312
 20
211.2958984375
 11
174.4157409667969
 21
204.8698120117188
  0
LINE
  5
310
100
AcDbEntity
  8
0
  6
ByLayer
 62
  256
370
   -1
100
AcDbLine
 10
206.0226745605469
 20
195.7521667480469
 11
211.0687866210938
 21
200.7625274658203
  0
LINE
  5
311
100
AcDbEntity
  8
0
  6
ByLayer
 62
  256
370
   -1
100
AcDbLine
 10
236.5990905761719
 20
206.1836700439453
 11
236.5990905761719
 21
206.1836700439453
  0
LINE
  5
312
100
AcDbEntity
  8
0
  6
ByLayer
 62
  256
370
   -1
100
AcDbLine
 10
248.4962768554688
 20
182.5422210693359
 11
248.4962768554688
 21
182.5422210693359
  0
LINE
  5
313
100
AcDbEntity
  8
0
  6
ByLayer
 62
  256
370
   -1
100
AcDbLine
 10
223.4914245605469
 20
171.4619293212891
 11
219.1297454833984
 21
176.1103210449219
  0
LINE
  5
314
100
AcDbEntity
  8
0
  6
ByLayer
 62
  256
370
   -1
100
AcDbLine
 10
235.8838958740234
 20
174.5112457275391
 11
235.8838958740234
 21
174.5112457275391
  0
LINE
  5
315
100
AcDbEntity
  8
0
  6
ByLayer
 62
  256
370
   -1
100
AcDbLine
 10
24.0847339630127
 20
70.51046752929688
 11
24.0847339630127
 21
70.51046752929688
  0
LINE
  5
316
100
AcDbEntity
  8
0
  6
ByLayer
 62
  256
370
   -1
100
AcDbLine
 10
122.9750518798828
 20
82.36653900146484
 11
122.9750518798828
 21
82.36653900146484
  0
LINE
  5
317
100
AcDbEntity
  8
0
  6
ByLayer
 62
  256
370
   -1
100
AcDbLine
 10
36.38737869262695
 20
112.6901626586914
 11
30.67971801757812
 21
113.2714309692383
  0
LINE
  5
318
100
AcDbEntity
  8
0
  6
ByLayer
 62
  256
370
   -1
100
AcDbLine
 10
67.11713409423828
 20
104.4187698364258
 11
67.11713409423828
 21
104.4187698364258
  0
LINE
  5
319
100
AcDbEntity
  8
0
  6
ByLayer
 62
  256
370
   -1
100
AcDbLine
 10
103.8541793823242
 20
14.80553722381592
 11
99.15619659423828
 21
11.27028465270996
  0
LINE
  5
31A
100
AcDbEntity
  8
0
  6
ByLayer
 62
  256
370
   -1
100
AcDbLine
 10
162.1849060058594
 20
28.77742195129395
 11
162.1849060058594
 21
28.77742195129395
  0
LINE
  5
31B
100
AcDbEntity
  8
0
  6
ByLayer
 62
  256
370
   -1
100
AcDbLine
 10
179.493408203125
 20
56.62799453735352
 11
179.493408203125
 21
56.62799453735352
  0
LINE
  5
31C
100
AcDbEntity
  8
0
  6
ByLayer
 62
  256
370
   -1
100
AcDbLine
 10
190.2035369873047
 20
22.0842342376709
 11
190.2035369873047
 21
22.0842342376709
  0
LINE
  5
31D
100
AcDbEntity
  8
0
  6
ByLayer
 62
  256
370
   -1
100
AcDbLine
 10
96.46630859375
 20
198.6015014648438
 11
96.46630859375
 21
198.6015014648438
  0
LINE
  5
31E
100
AcDbEntity
  8
0
  6
ByLayer
 62
  256
370
   -1
100
AcDbLine
 10
104.8576278686523
 20
225.2403411865234
 11
104.8576278686523
 21
225.2403411865234
  0
LINE
  5
31F
100
AcDbEntity
  8
0
  6
ByLayer
 62
  256
370
   -1
100
AcDbLine
 10
158.4147644042969
 20
172.2770080566406
 11
158.4147644042969
 21
172.2770080566406
  0
LINE
  5
320
100
AcDbEntity
  8
0
  6
ByLayer
 62
  256
370
   -1
100
AcDbLine
 10
166.8958587646484
 20
178.5045166015625
 11
166.8958587646484
 21
178.5045166015625
  0
LINE
  5
321
100
AcDbEntity
  8
0
  6
ByLayer
 62
  256
370
   -1
100
AcDbLine
 10
93.05299377441406
 20
242.9385833740234
 11
93.05299377441406
 21
242.9385833740234
  0
LINE
  5
322
100
AcDbEntity
  8
0
  6
ByLayer
 62
  256
370
   -1
100
AcDbLine
 10
63.00503921508789
 20
241.9770660400391
 11
63.00503921508789
 21
241.9770660400391
  0
LINE
  5
323
100
AcDbEntity
  8
0
  6
ByLayer
 62
  256
370
   -1
100
AcDbLine
 10
14.53566455841064
 20
148.8923950195312
 11
14.53566455841064
 21
148.8923950195312
  0
LINE
  5
324
100
AcDbEntity
  8
0
  6
ByLayer
 62
  256
370
   -1
100
AcDbLine
 10
160.7897338867188
 20
81.48432159423828
 11
160.7897338867188
 21
81.48432159423828
  0
LINE
  5
325
100
AcDbEntity
  8
0
  6
ByLayer
 62
  256
370
   -1
100
AcDbLine
 10
181.6266479492188
 20
42.86741256713867
 11
181.6266479492188
 21
42.86741256713867
  0
LINE
  5
326
100
AcDbEntity
  8
0
  6
ByLayer
 62
  256
370
   -1
100
AcDbLine
 10
178.5977783203125
 20
7.38602876663208
 11
178.5977783203125
 21
7.38602876663208
  0
LINE
  5
327
100
AcDbEntity
  8
0
  6
ByLayer
 62
  256
370
   -1
100
AcDbLine
 10
193.9157104492188
 20
115.6668472290039
 11
193.9157104492188
 21
115.6668472290039
  0
LINE
  5
328
100
AcDbEntity
  8
0
  6
ByLayer
 62
  256
370
   -1
100
AcDbLine
 10
83.00901794433594
 20
30.92978858947754
 11
83.00901794433594
 21
30.92978858947754
  0
LINE
  5
329
100
AcDbEntity
  8
0
  6
ByLayer
 62
  256
370
   -1
100
AcDbLine
 10
212.6287536621094
 20
89.25180053710938
 11
212.6287536621094
 21
89.25180053710938
  0
LINE
  5
32A
100
AcDbEntity
  8
0
  6
ByLayer
 62
  256
370
   -1
100
AcDbLine
 10
62.33874893188477
 20
133.5559844970703
 11
62.33874893188477
 21
133.5559844970703
  0
LINE
  5
32B
100
AcDbEntity
  8
0
  6
ByLayer
 62
  256
370
   -1
100
AcDbLine
 10
15.43886852264404
 20
155.0976867675781
 11
15.43886852264404
 21
155.0976867675781
  0
LINE
  5
32C
100
AcDbEntity
  8
0
  6
ByLayer
 62
  256
370
   -1
100
AcDbLine
 10
95.34444427490234
 20
228.5740203857422
 11
95.34444427490234
 21
228.5740203857422
  0
LINE
  5
32D
100
AcDbEntity
  8
0
  6
ByLayer
 62
  256
370
   -1
100
AcDbLine
 10
79.72655487060547
 20
34.42131805419922
 11
79.72655487060547
 21
34.42131805419922
  0
LINE
  5
32E
100
AcDbEntity
  8
0
  6
ByLayer
 62
  256
370
   -1
100
AcDbLine
 10
68.56797790527344
 20
240.0233612060547
 11
68.56797790527344
 21
240.0233612060547
  0
LINE
  5
32F
100
AcDbEntity
  8
0
  6
ByLayer
 62
  256
370
   -1
100
AcDbLine
 10
37.49808502197266
 20
158.6797332763672
 11
37.49808502197266
 21
158.6797332763672
  0
LINE
  5
330
100
AcDbEntity
  8
0
  6
ByLayer
 62
  256
370
   -1
100
AcDbLine
 10
231.0488128662109
 20
76.42439270019531
 11
231.0488128662109
 21
76.42439270019531
  0
LINE
  5
331
100
AcDbEntity
  8
0
  6
ByLayer
 62
  256
370
   -1
100
AcDbLine
 10
107.0105056762695
 20
29.79541206359863
 11
107.0105056762695
 21
29.79541206359863
  0
LINE
  5
332
100
AcDbEntity
  8
0
  6
ByLayer
 62
  256
370
   -1
100
AcDbLine
 10
96.53543090820312
 20
233.4389801025391
 11
96.53543090820312
 21
233.4389801025391
  0
LINE
  5
333
100
AcDbEntity
  8
0
  6
ByLayer
 62
  256
370
   -1
100
AcDbLine
 10
170.8703460693359
 20
8.625791549682617
 11
170.8703460693359
 21
8.625791549682617
  0
LINE
  5
334
100
AcDbEntity
  8
0
  6
ByLayer
 62
  256
370
   -1
100
AcDbLine
 10
163.2224426269531
 20
33.55971908569336
 11
163.2224426269531
 21
33.55971908569336
  0
LINE
  5
335
100
AcDbEntity
  8
0
  6
ByLayer
 62
  256
370
   -1
100
AcDbLine
 10
191.1897583007812
 20
26.08354377746582
 11
191.1897583007812
 21
26.08354377746582
  0
LINE
  5
336
100
AcDbEntity
  8
0
  6
ByLayer
 62
  256
370
   -1
100
AcDbLine
 10
163.2055358886719
 20
174.9012603759766
 11
163.2055358886719
 21
174.9012603759766
  0
LINE
  5
337
100
AcDbEntity
  8
0
  6
ByLayer
 62
  256
370
   -1
100
AcDbLine
 10
187.6441650390625
 20
18.41846656799316
 11
187.6441650390625
 21
18.41846656799316
  0
LINE
  5
338
100
AcDbEntity
  8
0
  6
ByLayer
 62
  256
370
   -1
100
AcDbLine
 10
101.3232727050781
 20
217.3357696533203
 11
101.3232727050781
 21
217.3357696533203
  0
LINE
  5
339
100
AcDbEntity
  8
0
  6
ByLayer
 62
  256
370
   -1
100
AcDbLine
 10
65.54756927490234
 20
246.8308563232422
 11
65.54756927490234
 21
246.8308563232422
  0
LINE
  5
33A
100
AcDbEntity
  8
0
  6
ByLayer
 62
  256
370
   -1
100
AcDbLine
 10
224.6225280761719
 20
99.52706909179688
 11
224.6225280761719
 21
99.52706909179688
  0
LINE
  5
33B
100
AcDbEntity
  8
0
  6
ByLayer
 62
  256
370
   -1
100
AcDbLine
 10
188.5682067871094
 20
114.5606689453125
 11
188.5682067871094
 21
114.5606689453125
  0
LINE
  5
33C
100
AcDbEntity
  8
0
  6
ByLayer
 62
  256
370
   -1
100
AcDbLine
 10
210.2201843261719
 20
97.90323638916016
 11
210.2201843261719
 21
97.90323638916016
  0
LINE
  5
33D
100
AcDbEntity
  8
0
  6
ByLayer
 62
  256
370
   -1
100
AcDbLine
 10
10.48074436187744
 20
152.7549133300781
 11
10.48074436187744
 21
152.7549133300781
  0
LINE
  5
33E
100
AcDbEntity
  8
0
  6
ByLayer
 62
  256
370
   -1
100
AcDbLine
 10
188.5102081298828
 20
41.20621871948242
 11
188.5102081298828
 21
41.20621871948242
  0
LINE
  5
33F
100
AcDbEntity
  8
0
  6
ByLayer
 62
  256
370
   -1
100
AcDbLine
 10
79.7860107421875
 20
27.09873199462891
 11
79.7860107421875
 21
27.09873199462891
  0
LINE
  5
340
100
AcDbEntity
  8
0
  6
ByLayer
 62
  256
370
   -1
100
AcDbLine
 10
254.2675018310547
 20
84.91602325439453
 11
254.2675018310547
 21
84.91602325439453
  0
LINE
  5
341
100
AcDbEntity
  8
0
  6
ByLayer
 62
  256
370
   -1
100
AcDbLine
 10
37.62575149536133
 20
180.1899719238281
 11
37.62575149536133
 21
180.1899719238281
  0
LINE
  5
342
100
AcDbEntity
  8
0
  6
ByLayer
 62
  256
370
   -1
100
AcDbLine
 10
86.57909393310547
 20
37.90349960327148
 11
86.57909393310547
 21
37.90349960327148
  0
LINE
  5
343
100
AcDbEntity
  8
0
  6
ByLayer
 62
  256
370
   -1
100
AcDbLine
 10
175.5542297363281
 20
51.26409912109375
 11
175.5542297363281
 21
51.26409912109375
  0
LINE
  5
344
100
AcDbEntity
  8
0
  6
ByLayer
 62
  256
370
   -1
100
AcDbLine
 10
170.2539672851562
 20
66.77657318115234
 11
170.2539672851562
 21
66.77657318115234
  0
LINE
  5
345
100
AcDbEntity
  8
0
  6
ByLayer
 62
  256
370
   -1
100
AcDbLine
 10
193.3210296630859
 20
37.40203475952148
 11
193.3210296630859
 21
37.40203475952148
  0
LINE
  5
346
100
AcDbEntity
  8
0
  6
ByLayer
 62
  256
370
   -1
100
AcDbLine
 10
162.1455383300781
 20
12.95976543426514
 11
162.1455383300781
 21
12.95976543426514
  0
LINE
  5
347
100
AcDbEntity
  8
0
  6
ByLayer
 62
  256
370
   -1
100
AcDbLine
 10
38.95897674560547
 20
158.8004302978516
 11
38.95897674560547
 21
158.8004302978516
  0
LINE
  5
348
100
AcDbEntity
  8
0
  6
ByLayer
 62
  256
370
   -1
100
AcDbLine
 10
71.12735748291016
 20
243.6891326904297
 11
71.12735748291016
 21
243.6891326904297
  0
LINE
  5
349
100
AcDbEntity
  8
0
  6
ByLayer
 62
  256
370
   -1
100
AcDbLine
 10
97.06624603271484
 20
210.5809478759766
 11
97.06624603271484
 21
210.5809478759766
  0
LINE
  5
34A
100
AcDbEntity
  8
0
  6
ByLayer
 62
  256
370
   -1
100
AcDbLine
 10
102.9894104003906
 20
36.72316360473633
 11
102.9894104003906
 21
36.72316360473633
  0
LINE
  5
34B
100
AcDbEntity
  8
0
  6
ByLayer
 62
  256
370
   -1
100
AcDbLine
 10
81.86662292480469
 20
224.1224365234375
 11
81.86662292480469
 21
224.1224365234375
  0
LINE
  5
34C
100
AcDbEntity
  8
0
  6
ByLayer
 62
  256
370
   -1
100
AcDbLine
 10
137.9080657958984
 20
174.4363708496094
 11
137.9080657958984
 21
174.4363708496094
  0
LINE
  5
34D
100
AcDbEntity
  8
0
  6
ByLayer
 62
  256
370
   -1
100
AcDbLine
 10
170.1762237548828
 20
190.6957550048828
 11
170.1762237548828
 21
190.6957550048828
  0
LINE
  5
34E
100
AcDbEntity
  8
0
  6
ByLayer
 62
  256
370
   -1
100
AcDbLine
 10
7.892623424530029
 20
158.0487670898438
 11
7.892623424530029
 21
158.0487670898438
  0
LINE
  5
34F
100
AcDbEntity
  8
0
  6
ByLayer
 62
  256
370
   -1
100
AcDbLine
 10
95.83929443359375
 20
237.3498077392578
 11
95.83929443359375
 21
237.3498077392578
  0
LINE
  5
350
100
AcDbEntity
  8
0
  6
ByLayer
 62
  256
370
   -1
100
AcDbLine
 10
177.4959411621094
 20
13.62379360198975
 11
177.4959411621094
 21
13.62379360198975
  0
LINE
  5
351
100
AcDbEntity
  8
0
  6
ByLayer
 62
  256
370
   -1
100
AcDbLine
 10
215.4609527587891
 20
107.8449096679688
 11
215.4609527587891
 21
107.8449096679688
  0
LINE
  5
352
100
AcDbEntity
  8
0
  6
ByLayer
 62
  256
370
   -1
100
AcDbLine
 10
72.44920349121094
 20
252.7734832763672
 11
72.44920349121094
 21
252.7734832763672
  0
LINE
  5
353
100
AcDbEntity
  8
0
  6
ByLayer
 62
  256
370
   -1
100
AcDbLine
 10
228.4380340576172
 20
104.6334686279297
 11
228.4380340576172
 21
104.6334686279297
  0
LINE
  5
354
100
AcDbEntity
  8
0
  6
ByLayer
 62
  256
370
   -1
100
AcDbLine
 10
53.98992156982422
 20
126.4675140380859
 11
53.98992156982422
 21
126.4675140380859
  0
LINE
  5
355
100
AcDbEntity
  8
0
  6
ByLayer
 62
  256
370
   -1
100
AcDbLine
 10
13.32987308502197
 20
159.1202239990234
 11
13.32987308502197
 21
159.1202239990234
  0
LINE
  5
356
100
AcDbEntity
  8
0
  6
ByLayer
 62
  256
370
   -1
100
AcDbLine
 10
165.7756500244141
 20
39.68440628051758
 11
165.7756500244141
 21
39.68440628051758
  0
LINE
  5
357
100
AcDbEntity
  8
0
  6
ByLayer
 62
  256
370
   -1
100
AcDbLine
 10
85.32288360595703
 20
225.9930419921875
 11
85.32288360595703
 21
225.9930419921875
  0
LINE
  5
358
100
AcDbEntity
  8
0
  6
ByLayer
 62
  256
370
   -1
100
AcDbLine
 10
176.9048919677734
 20
37.98514938354492
 11
176.9048919677734
 21
37.98514938354492
  0
LINE
  5
359
100
AcDbEntity
  8
0
  6
ByLayer
 62
  256
370
   -1
100
AcDbLine
 10
75.43352508544922
 20
246.9421539306641
 11
75.43352508544922
 21
246.9421539306641
  0
LINE
  5
35A
100
AcDbEntity
  8
0
  6
ByLayer
 62
  256
370
   -1
100
AcDbLine
 10
77.44972991943359
 20
223.6323547363281
 11
77.44972991943359
 21
223.6323547363281
  0
LINE
  5
35B
100
AcDbEntity
  8
0
  6
ByLayer
 62
  256
370
   -1
100
AcDbLine
 10
217.3324737548828
 20
99.70318603515625
 11
217.3324737548828
 21
99.70318603515625
  0
LINE
  5
35C
100
AcDbEntity
  8
0
  6
ByLayer
 62
  256
370
   -1
100
AcDbLine
 10
108.5087509155273
 20
40.27410507202148
 11
108.5087509155273
 21
40.27410507202148
  0
LINE
  5
35D
100
AcDbEntity
  8
0
  6
ByLayer
 62
  256
370
   -1
100
AcDbLine
 10
12.85117149353027
 20
164.0110626220703
 11
12.85117149353027
 21
164.0110626220703
  0
LINE
  5
35E
100
AcDbEntity
  8
0
  6
ByLayer
 62
  256
370
   -1
100
AcDbLine
 10
39.88516235351562
 20
157.9911956787109
 11
39.88516235351562
 21
157.9911956787109
  0
LINE
  5
35F
100
AcDbEntity
  8
0
  6
ByLayer
 62
  256
370
   -1
100
AcDbLine
 10
174.8827362060547
 20
99.49613189697266
 11
174.8827362060547
 21
99.49613189697266
  0
LINE
  5
360
100
AcDbEntity
  8
0
  6
ByLayer
 62
  256
370
   -1
100
AcDbLine
 10
43.10366821289062
 20
152.6581726074219
 11
43.10366821289062
 21
152.6581726074219
  0
LINE
  5
361
100
AcDbEntity
  8
0
  6
ByLayer
 62
  256
370
   -1
100
AcDbLine
 10
7.428668975830078
 20
164.9152984619141
 11
7.428668975830078
 21
164.9152984619141
  0
LINE
  5
362
100
AcDbEntity
  8
0
  6
ByLayer
 62
  256
370
   -1
100
AcDbLine
 10
96.23905181884766
 20
205.7752075195312
 11
96.23905181884766
 21
205.7752075195312
  0
LINE
  5
363
100
AcDbEntity
  8
0
  6
ByLayer
 62
  256
370
   -1
100
AcDbLine
 10
165.7035980224609
 20
217.1757507324219
 11
165.7035980224609
 21
217.1757507324219
  0
LINE
  5
364
100
AcDbEntity
  8
0
  6
ByLayer
 62
  256
370
   -1
100
AcDbLine
 10
180.9938049316406
 20
186.209716796875
 11
180.9938049316406
 21
186.209716796875
  0
LINE
  5
365
100
AcDbEntity
  8
0
  6
ByLayer
 62
  256
370
   -1
100
AcDbLine
 10
171.0724029541016
 20
14.69360446929932
 11
171.0724029541016
 21
14.69360446929932
  0
LINE
  5
366
100
AcDbEntity
  8
0
  6
ByLayer
 62
  256
370
   -1
100
AcDbLine
 10
80.17375183105469
 20
254.7215728759766
 11
80.17375183105469
 21
254.7215728759766
  0
LINE
  5
367
100
AcDbEntity
  8
0
  6
ByLayer
 62
  256
370
   -1
100
AcDbLine
 10
174.7011260986328
 20
102.4320602416992
 11
174.7011260986328
 21
102.4320602416992
  0
LINE
  5
368
100
AcDbEntity
  8
0
  6
ByLayer
 62
  256
370
   -1
100
AcDbLine
 10
97.43863677978516
 20
43.20062255859375
 11
97.43863677978516
 21
43.20062255859375
  0
LINE
  5
369
100
AcDbEntity
  8
0
  6
ByLayer
 62
  256
370
   -1
100
AcDbLine
 10
26.67854499816895
 20
150.6808166503906
 11
26.67854499816895
 21
150.6808166503906
  0
LINE
  5
36A
100
AcDbEntity
  8
0
  6
ByLayer
 62
  256
370
   -1
100
AcDbLine
 10
43.80975723266602
 20
143.4332122802734
 11
43.80975723266602
 21
143.4332122802734
  0
LINE
  5
36B
100
AcDbEntity
  8
0
  6
ByLayer
 62
  256
370
   -1
100
AcDbLine
 10
196.0506134033203
 20
30.9822883605957
 11
196.0506134033203
 21
30.9822883605957
  0
LINE
  5
36C
100
AcDbEntity
  8
0
  6
ByLayer
 62
  256
370
   -1
100
AcDbLine
 10
235.4898986816406
 20
107.6918640136719
 11
235.4898986816406
 21
107.6918640136719
  0
LINE
  5
36D
100
AcDbEntity
  8
0
  6
ByLayer
 62
  256
370
   -1
100
AcDbLine
 10
150.570068359375
 20
82.92254638671875
 11
150.570068359375
 21
82.92254638671875
  0
LINE
  5
36E
100
AcDbEntity
  8
0
  6
ByLayer
 62
  256
370
   -1
100
AcDbLine
 10
65.45047760009766
 20
224.7055511474609
 11
65.45047760009766
 21
224.7055511474609
  0
LINE
  5
36F
100
AcDbEntity
  8
0
  6
ByLayer
 62
  256
370
   -1
100
AcDbLine
 10
21.67223167419434
 20
150.6408233642578
 11
21.67223167419434
 21
150.6408233642578
  0
LINE
  5
370
100
AcDbEntity
  8
0
  6
ByLayer
 62
  256
370
   -1
100
AcDbLine
 10
8.640767097473145
 20
170.12939453125
 11
8.640767097473145
 21
170.12939453125
  0
LINE
  5
371
100
AcDbEntity
  8
0
  6
ByLayer
 62
  256
370
   -1
100
AcDbLine
 10
78.65232849121094
 20
22.4985179901123
 11
78.65232849121094
 21
22.4985179901123
  0
LINE
  5
372
100
AcDbEntity
  8
0
  6
ByLayer
 62
  256
370
   -1
100
AcDbLine
 10
82.84368133544922
 20
186.0423583984375
 11
82.84368133544922
 21
186.0423583984375
  0
LINE
  5
373
100
AcDbEntity
  8
0
  6
ByLayer
 62
  256
370
   -1
100
AcDbLine
 10
50.1119384765625
 20
164.3509826660156
 11
50.1119384765625
 21
164.3509826660156
  0
LINE
  5
374
100
AcDbEntity
  8
0
  6
ByLayer
 62
  256
370
   -1
100
AcDbLine
 10
173.855224609375
 20
36.30581283569336
 11
173.855224609375
 21
36.30581283569336
  0
LINE
  5
375
100
AcDbEntity
  8
0
  6
ByLayer
 62
  256
370
   -1
100
AcDbLine
 10
38.14258193969727
 20
154.0906982421875
 11
38.14258193969727
 21
154.0906982421875
  0
LINE
  5
376
100
AcDbEntity
  8
0
  6
ByLayer
 62
  256
370
   -1
100
AcDbLine
 10
218.8834991455078
 20
91.23934936523438
 11
218.8834991455078
 21
91.23934936523438
  0
LINE
  5
377
100
AcDbEntity
  8
0
  6
ByLayer
 62
  256
370
   -1
100
AcDbLine
 10
112.815315246582
 20
32.08535766601562
 11
112.815315246582
 21
32.08535766601562
  0
LINE
  5
378
100
AcDbEntity
  8
0
  6
ByLayer
 62
  256
370
   -1
100
AcDbLine
 10
96.86489868164062
 20
33.96810150146484
 11
96.86489868164062
 21
33.96810150146484
  0
LINE
  5
379
100
AcDbEntity
  8
0
  6
ByLayer
 62
  256
370
   -1
100
AcDbLine
 10
230.1204528808594
 20
70.82271575927734
 11
230.1204528808594
 21
70.82271575927734
  0
LINE
  5
37A
100
AcDbEntity
  8
0
  6
ByLayer
 62
  256
370
   -1
100
AcDbLine
 10
176.8156127929688
 20
174.2990264892578
 11
175.9750061035156
 21
172.9634704589844
  0
LINE
  5
37B
100
AcDbEntity
  8
0
  6
ByLayer
 62
  256
370
   -1
100
AcDbLine
 10
181.2823333740234
 20
110.0668487548828
 11
181.2823333740234
 21
110.0668487548828
  0
LINE
  5
37C
100
AcDbEntity
  8
0
  6
ByLayer
 62
  256
370
   -1
100
AcDbLine
 10
168.0601654052734
 20
61.64971542358398
 11
168.0601654052734
 21
61.64971542358398
  0
LINE
  5
37D
100
AcDbEntity
  8
0
  6
ByLayer
 62
  256
370
   -1
100
AcDbLine
 10
92.49296569824219
 20
49.52910232543945
 11
92.49296569824219
 21
49.52910232543945
  0
LINE
  5
37E
100
AcDbEntity
  8
0
  6
ByLayer
 62
  256
370
   -1
100
AcDbLine
 10
176.8156127929688
 20
174.2990264892578
 11
176.8156127929688
 21
174.2990264892578
  0
LINE
  5
37F
100
AcDbEntity
  8
0
  6
ByLayer
 62
  256
370
   -1
100
AcDbLine
 10
87.90251159667969
 20
253.4789276123047
 11
87.90251159667969
 21
253.4789276123047
  0
LINE
  5
380
100
AcDbEntity
  8
0
  6
ByLayer
 62
  256
370
   -1
100
AcDbLine
 10
196.776123046875
 20
25.28435897827148
 11
196.776123046875
 21
25.28435897827148
  0
LINE
  5
381
100
AcDbEntity
  8
0
  6
ByLayer
 62
  256
370
   -1
100
AcDbLine
 10
72.78885650634766
 20
225.6606903076172
 11
72.78885650634766
 21
225.6606903076172
  0
LINE
  5
382
100
AcDbEntity
  8
0
  6
ByLayer
 62
  256
370
   -1
100
AcDbLine
 10
230.6259460449219
 20
101.3649215698242
 11
230.6259460449219
 21
101.3649215698242
  0
LINE
  5
383
100
AcDbEntity
  8
0
  6
ByLayer
 62
  256
370
   -1
100
AcDbLine
 10
241.9942932128906
 20
107.8105926513672
 11
241.9942932128906
 21
107.8105926513672
  0
LINE
  5
384
100
AcDbEntity
  8
0
  6
ByLayer
 62
  256
370
   -1
100
AcDbLine
 10
105.2580642700195
 20
74.50461578369141
 11
105.2580642700195
 21
74.50461578369141
  0
LINE
  5
385
100
AcDbEntity
  8
0
  6
ByLayer
 62
  256
370
   -1
100
AcDbLine
 10
103.1460266113281
 20
94.76198577880859
 11
103.1460266113281
 21
94.76198577880859
  0
LINE
  5
386
100
AcDbEntity
  8
0
  6
ByLayer
 62
  256
370
   -1
100
AcDbLine
 10
90.76289367675781
 20
145.9833984375
 11
90.76289367675781
 21
145.9833984375
  0
LINE
  5
387
100
AcDbEntity
  8
0
  6
ByLayer
 62
  256
370
   -1
100
AcDbLine
 10
86.86090087890625
 20
223.8385467529297
 11
86.86090087890625
 21
223.8385467529297
  0
LINE
  5
388
100
AcDbEntity
  8
0
  6
ByLayer
 62
  256
370
   -1
100
AcDbLine
 10
17.406982421875
 20
152.6979064941406
 11
17.406982421875
 21
152.6979064941406
  0
LINE
  5
389
100
AcDbEntity
  8
0
  6
ByLayer
 62
  256
370
   -1
100
AcDbLine
 10
12.5251932144165
 20
176.3382720947266
 11
12.5251932144165
 21
176.3382720947266
  0
LINE
  5
38A
100
AcDbEntity
  8
0
  6
ByLayer
 62
  256
370
   -1
100
AcDbLine
 10
165.7185363769531
 20
19.16901779174805
 11
165.7185363769531
 21
19.16901779174805
  0
LINE
  5
38B
100
AcDbEntity
  8
0
  6
ByLayer
 62
  256
370
   -1
100
AcDbLine
 10
113.9449844360352
 20
26.12294769287109
 11
113.9449844360352
 21
26.12294769287109
  0
LINE
  5
38C
100
AcDbEntity
  8
0
  6
ByLayer
 62
  256
370
   -1
100
AcDbLine
 10
82.79618072509766
 20
221.2690887451172
 11
82.79618072509766
 21
221.2690887451172
  0
LINE
  5
38D
100
AcDbEntity
  8
0
  6
ByLayer
 62
  256
370
   -1
100
AcDbLine
 10
224.6997985839844
 20
72.51115417480469
 11
224.6997985839844
 21
72.51115417480469
  0
LINE
  5
38E
100
AcDbEntity
  8
0
  6
ByLayer
 62
  256
370
   -1
100
AcDbLine
 10
91.79916381835938
 20
118.8021850585938
 11
91.79916381835938
 21
118.8021850585938
  0
LINE
  5
38F
100
AcDbEntity
  8
0
  6
ByLayer
 62
  256
370
   -1
100
AcDbLine
 10
92.65605163574219
 20
34.83477783203125
 11
92.65605163574219
 21
34.83477783203125
  0
LINE
  5
390
100
AcDbEntity
  8
0
  6
ByLayer
 62
  256
370
   -1
100
AcDbLine
 10
248.2293853759766
 20
104.7253341674805
 11
248.2293853759766
 21
104.7253341674805
  0
LINE
  5
391
100
AcDbEntity
  8
0
  6
ByLayer
 62
  256
370
   -1
100
AcDbLine
 10
172.7651672363281
 20
37.06943130493164
 11
172.7651672363281
 21
37.06943130493164
  0
LINE
  5
392
100
AcDbEntity
  8
0
  6
ByLayer
 62
  256
370
   -1
100
AcDbLine
 10
52.27018737792969
 20
155.4139404296875
 11
52.27018737792969
 21
155.4139404296875
  0
LINE
  5
393
100
AcDbEntity
  8
0
  6
ByLayer
 62
  256
370
   -1
100
AcDbLine
 10
34.32706832885742
 20
148.9842987060547
 11
34.32706832885742
 21
148.9842987060547
  0
LINE
  5
394
100
AcDbEntity
  8
0
  6
ByLayer
 62
  256
370
   -1
100
AcDbLine
 10
195.7664794921875
 20
20.13052558898926
 11
195.7664794921875
 21
20.13052558898926
  0
LINE
  5
395
100
AcDbEntity
  8
0
  6
ByLayer
 62
  256
370
   -1
100
AcDbLine
 10
69.27555084228516
 20
228.6169891357422
 11
69.27555084228516
 21
228.6169891357422
  0
LINE
  5
396
100
AcDbEntity
  8
0
  6
ByLayer
 62
  256
370
   -1
100
AcDbLine
 10
96.62733459472656
 20
249.1449584960938
 11
96.62733459472656
 21
249.1449584960938
  0
LINE
  5
397
100
AcDbEntity
  8
0
  6
ByLayer
 62
  256
370
   -1
100
AcDbLine
 10
185.4837493896484
 20
130.5664367675781
 11
185.4837493896484
 21
130.5664367675781
  0
LINE
  5
398
100
AcDbEntity
  8
0
  6
ByLayer
 62
  256
370
   -1
100
AcDbLine
 10
81.80637359619141
 20
193.4959411621094
 11
81.80637359619141
 21
193.4959411621094
  0
LINE
  5
399
100
AcDbEntity
  8
0
  6
ByLayer
 62
  256
370
   -1
100
AcDbLine
 10
169.7130279541016
 20
71.19751739501953
 11
169.7130279541016
 21
71.19751739501953
  0
LINE
  5
39A
100
AcDbEntity
  8
0
  6
ByLayer
 62
  256
370
   -1
100
AcDbLine
 10
84.57993316650391
 20
138.7063446044922
 11
84.57993316650391
 21
138.7063446044922
  0
LINE
  5
39B
100
AcDbEntity
  8
0
  6
ByLayer
 62
  256
370
   -1
100
AcDbLine
 10
181.3217926025391
 20
38.47524261474609
 11
181.3217926025391
 21
38.47524261474609
  0
LINE
  5
39C
100
AcDbEntity
  8
0
  6
ByLayer
 62
  256
370
   -1
100
AcDbLine
 10
184.8113555908203
 20
84.02420043945312
 11
184.8113555908203
 21
84.02420043945312
  0
LINE
  5
39D
100
AcDbEntity
  8
0
  6
ByLayer
 62
  256
370
   -1
100
AcDbLine
 10
102.6120681762695
 20
240.1615142822266
 11
102.6120681762695
 21
240.1615142822266
  0
LINE
  5
39E
100
AcDbEntity
  8
0
  6
ByLayer
 62
  256
370
   -1
100
AcDbLine
 10
73.88860321044922
 20
22.71602249145508
 11
73.88860321044922
 21
22.71602249145508
  0
LINE
  5
39F
100
AcDbEntity
  8
0
  6
ByLayer
 62
  256
370
   -1
100
AcDbLine
 10
100.5552139282227
 20
70.88314819335938
 11
100.5552139282227
 21
70.88314819335938
  0
LINE
  5
3A0
100
AcDbEntity
  8
0
  6
ByLayer
 62
  256
370
   -1
100
AcDbLine
 10
162.9133758544922
 20
24.79788017272949
 11
162.9133758544922
 21
24.79788017272949
  0
LINE
  5
3A1
100
AcDbEntity
  8
0
  6
ByLayer
 62
  256
370
   -1
100
AcDbLine
 10
82.4617919921875
 20
201.4100799560547
 11
82.4617919921875
 21
201.4100799560547
  0
LINE
  5
3A2
100
AcDbEntity
  8
0
  6
ByLayer
 62
  256
370
   -1
100
AcDbLine
 10
27.27518463134766
 20
145.9258880615234
 11
27.27518463134766
 21
145.9258880615234
  0
LINE
  5
3A3
100
AcDbEntity
  8
0
  6
ByLayer
 62
  256
370
   -1
100
AcDbLine
 10
245.3594207763672
 20
100.9169692993164
 11
245.3594207763672
 21
100.9169692993164
  0
LINE
  5
3A4
100
AcDbEntity
  8
0
  6
ByLayer
 62
  256
370
   -1
100
AcDbLine
 10
220.0635986328125
 20
76.04077911376953
 11
220.0635986328125
 21
76.04077911376953
  0
LINE
  5
3A5
100
AcDbEntity
  8
0
  6
ByLayer
 62
  256
370
   -1
100
AcDbLine
 10
172.3773498535156
 20
38.48860168457031
 11
172.3773498535156
 21
38.48860168457031
  0
LINE
  5
3A6
100
AcDbEntity
  8
0
  6
ByLayer
 62
  256
370
   -1
100
AcDbLine
 10
77.14486694335938
 20
219.2401733398438
 11
77.14486694335938
 21
219.2401733398438
  0
LINE
  5
3A7
100
AcDbEntity
  8
0
  6
ByLayer
 62
  256
370
   -1
100
AcDbLine
 10
196.8467864990234
 20
130.0577087402344
 11
196.8467864990234
 21
130.0577087402344
  0
LINE
  5
3A8
100
AcDbEntity
  8
0
  6
ByLayer
 62
  256
370
   -1
100
AcDbLine
 10
87.70186614990234
 20
34.13391876220703
 11
87.70186614990234
 21
34.13391876220703
  0
LINE
  5
3A9
100
AcDbEntity
  8
0
  6
ByLayer
 62
  256
370
   -1
100
AcDbLine
 10
113.7077713012695
 20
20.30088043212891
 11
113.7077713012695
 21
20.30088043212891
  0
LINE
  5
3AA
100
AcDbEntity
  8
0
  6
ByLayer
 62
  256
370
   -1
100
AcDbLine
 10
53.81085586547852
 20
146.5780487060547
 11
53.81085586547852
 21
146.5780487060547
  0
LINE
  5
3AB
100
AcDbEntity
  8
0
  6
ByLayer
 62
  256
370
   -1
100
AcDbLine
 10
226.9270935058594
 20
97.99542236328125
 11
226.9270935058594
 21
97.99542236328125
  0
LINE
  5
3AC
100
AcDbEntity
  8
0
  6
ByLayer
 62
  256
370
   -1
100
AcDbLine
 10
81.27558135986328
 20
248.4837951660156
 11
81.27558135986328
 21
248.4837951660156
  0
LINE
  5
3AD
100
AcDbEntity
  8
0
  6
ByLayer
 62
  256
370
   -1
100
AcDbLine
 10
13.71872615814209
 20
167.5489044189453
 11
13.71872615814209
 21
167.5489044189453
  0
LINE
  5
3AE
100
AcDbEntity
  8
0
  6
ByLayer
 62
  256
370
   -1
100
AcDbLine
 10
185.982666015625
 20
36.4468994140625
 11
185.982666015625
 21
36.4468994140625
  0
LINE
  5
3AF
100
AcDbEntity
  8
0
  6
ByLayer
 62
  256
370
   -1
100
AcDbLine
 10
186.7327575683594
 20
73.70986175537109
 11
186.7327575683594
 21
73.70986175537109
  0
LINE
  5
3B0
100
AcDbEntity
  8
0
  6
ByLayer
 62
  256
370
   -1
100
AcDbLine
 10
189.4959411621094
 20
33.49058151245117
 11
189.4959411621094
 21
33.49058151245117
  0
LINE
  5
3B1
100
AcDbEntity
  8
0
  6
ByLayer
 62
  256
370
   -1
100
AcDbLine
 10
33.18466567993164
 20
174.8522491455078
 11
33.18466567993164
 21
174.8522491455078
  0
LINE
  5
3B2
100
AcDbEntity
  8
0
  6
ByLayer
 62
  256
370
   -1
100
AcDbLine
 10
193.2239227294922
 20
15.27672576904297
 11
193.2239227294922
 21
15.27672576904297
  0
LINE
  5
3B3
100
AcDbEntity
  8
0
  6
ByLayer
 62
  256
370
   -1
100
AcDbLine
 10
104.9188079833984
 20
233.0497894287109
 11
104.9188079833984
 21
233.0497894287109
  0
LINE
  5
3B4
100
AcDbEntity
  8
0
  6
ByLayer
 62
  256
370
   -1
100
AcDbLine
 10
98.34442138671875
 20
68.05976104736328
 11
98.34442138671875
 21
68.05976104736328
  0
LINE
  5
3B5
100
AcDbEntity
  8
0
  6
ByLayer
 62
  256
370
   -1
100
AcDbLine
 10
79.12001800537109
 20
134.9770355224609
 11
79.12001800537109
 21
134.9770355224609
  0
LINE
  5
3B6
100
AcDbEntity
  8
0
  6
ByLayer
 62
  256
370
   -1
100
AcDbLine
 10
75.48766326904297
 20
29.48643493652344
 11
75.48766326904297
 21
29.48643493652344
  0
LINE
  5
3B7
100
AcDbEntity
  8
0
  6
ByLayer
 62
  256
370
   -1
100
AcDbLine
 10
100.1529922485352
 20
54.57308959960938
 11
100.1529922485352
 21
54.57308959960938
  0
LINE
  5
3B8
100
AcDbEntity
  8
0
  6
ByLayer
 62
  256
370
   -1
100
AcDbLine
 10
84.09876251220703
 20
208.7018737792969
 11
84.09876251220703
 21
208.7018737792969
  0
LINE
  5
3B9
100
AcDbEntity
  8
0
  6
ByLayer
 62
  256
370
   -1
100
AcDbLine
 10
204.2369995117188
 20
127.6836624145508
 11
204.2369995117188
 21
127.6836624145508
  0
LINE
  5
3BA
100
AcDbEntity
  8
0
  6
ByLayer
 62
  256
370
   -1
100
AcDbLine
 10
70.26127624511719
 20
220.9013519287109
 11
70.26127624511719
 21
220.9013519287109
  0
LINE
  5
3BB
100
AcDbEntity
  8
0
  6
ByLayer
 62
  256
370
   -1
100
AcDbLine
 10
236.0865325927734
 20
102.9369354248047
 11
236.0865325927734
 21
102.9369354248047
  0
LINE
  5
3BC
100
AcDbEntity
  8
0
  6
ByLayer
 62
  256
370
   -1
100
AcDbLine
 10
216.1908416748047
 20
80.71285247802734
 11
216.1908416748047
 21
80.71285247802734
  0
LINE
  5
3BD
100
AcDbEntity
  8
0
  6
ByLayer
 62
  256
370
   -1
100
AcDbLine
 10
191.2801971435547
 20
29.26633071899414
 11
191.2801971435547
 21
29.26633071899414
  0
LINE
  5
3BE
100
AcDbEntity
  8
0
  6
ByLayer
 62
  256
370
   -1
100
AcDbLine
 10
84.66018676757812
 20
70.52943420410156
 11
84.66018676757812
 21
70.52943420410156
  0
LINE
  5
3BF
100
AcDbEntity
  8
0
  6
ByLayer
 62
  256
370
   -1
100
AcDbLine
 10
92.54672241210938
 20
152.0074920654297
 11
92.54672241210938
 21
152.0074920654297
  0
LINE
  5
3C0
100
AcDbEntity
  8
0
  6
ByLayer
 62
  256
370
   -1
100
AcDbLine
 10
167.5738067626953
 20
76.91233825683594
 11
167.5738067626953
 21
76.91233825683594
  0
LINE
  5
3C1
100
AcDbEntity
  8
0
  6
ByLayer
 62
  256
370
   -1
100
AcDbLine
 10
183.3379821777344
 20
15.16544151306152
 11
183.3379821777344
 21
15.16544151306152
  0
LINE
  5
3C2
100
AcDbEntity
  8
0
  6
ByLayer
 62
  256
370
   -1
100
AcDbLine
 10
175.975341796875
 20
40.83850860595703
 11
175.975341796875
 21
40.83850860595703
  0
LINE
  5
3C3
100
AcDbEntity
  8
0
  6
ByLayer
 62
  256
370
   -1
100
AcDbLine
 10
224.9110107421875
 20
94.2005615234375
 11
224.9110107421875
 21
94.2005615234375
  0
LINE
  5
3C4
100
AcDbEntity
  8
0
  6
ByLayer
 62
  256
370
   -1
100
AcDbLine
 10
87.70046997070312
 20
247.4111328125
 11
87.70046997070312
 21
247.4111328125
  0
LINE
  5
3C5
100
AcDbEntity
  8
0
  6
ByLayer
 62
  256
370
   -1
100
AcDbLine
 10
15.91356182098389
 20
171.595703125
 11
15.91356182098389
 21
171.595703125
  0
LINE
  5
3C6
100
AcDbEntity
  8
0
  6
ByLayer
 62
  256
370
   -1
100
AcDbLine
 10
20.77078628540039
 20
145.8071594238281
 11
20.77078628540039
 21
145.8071594238281
  0
LINE
  5
3C7
100
AcDbEntity
  8
0
  6
ByLayer
 62
  256
370
   -1
100
AcDbLine
 10
197.3329162597656
 20
115.4349060058594
 11
197.3329162597656
 21
115.4349060058594
  0
LINE
  5
3C8
100
AcDbEntity
  8
0
  6
ByLayer
 62
  256
370
   -1
100
AcDbLine
 10
67.58175659179688
 20
236.0240478515625
 11
67.58175659179688
 21
236.0240478515625
  0
LINE
  5
3C9
100
AcDbEntity
  8
0
  6
ByLayer
 62
  256
370
   -1
100
AcDbLine
 10
186.3223114013672
 20
9.334103584289551
 11
186.3223114013672
 21
9.334103584289551
  0
LINE
  5
3CA
100
AcDbEntity
  8
0
  6
ByLayer
 62
  256
370
   -1
100
AcDbLine
 10
170.2097473144531
 20
184.2981414794922
 11
170.2097473144531
 21
184.2981414794922
  0
LINE
  5
3CB
100
AcDbEntity
  8
0
  6
ByLayer
 62
  256
370
   -1
100
AcDbLine
 10
57.43180465698242
 20
137.6611633300781
 11
57.43180465698242
 21
137.6611633300781
  0
LINE
  5
3CC
100
AcDbEntity
  8
0
  6
ByLayer
 62
  256
370
   -1
100
AcDbLine
 10
183.6514587402344
 20
63.68245315551758
 11
183.6514587402344
 21
63.68245315551758
  0
LINE
  5
3CD
100
AcDbEntity
  8
0
  6
ByLayer
 62
  256
370
   -1
100
AcDbLine
 10
129.1258392333984
 20
84.21076965332031
 11
122.9750518798828
 21
82.36653900146484
  0
LINE
  5
3CE
100
AcDbEntity
  8
0
  6
ByLayer
 62
  256
370
   -1
100
AcDbLine
 10
90.51348114013672
 20
158.0363464355469
 11
92.54672241210938
 21
152.0074920654297
  0
LINE
  5
3CF
100
AcDbEntity
  8
0
  6
ByLayer
 62
  256
370
   -1
100
AcDbLine
 10
161.4243469238281
 20
51.55886459350586
 11
165.8212890625
 21
57.94937515258789
  0
LINE
  5
3D0
100
AcDbEntity
  8
0
  6
ByLayer
 62
  256
370
   -1
100
AcDbLine
 10
98.34442138671875
 20
68.05976104736328
 11
97.09968566894531
 21
64.08222198486328
  0
LINE
  5
3D1
100
AcDbEntity
  8
0
  6
ByLayer
 62
  256
370
   -1
100
AcDbLine
 10
240.9349975585938
 20
77.96254730224609
 11
244.7304229736328
 21
80.69557952880859
  0
LINE
  5
3D2
100
AcDbEntity
  8
0
  6
ByLayer
 62
  256
370
   -1
100
AcDbLine
 10
193.2239227294922
 20
15.27672576904297
 11
186.3223114013672
 21
9.334103584289551
  0
LINE
  5
3D3
100
AcDbEntity
  8
0
  6
ByLayer
 62
  256
370
   -1
100
AcDbLine
 10
189.4959411621094
 20
33.49058151245117
 11
191.2801971435547
 21
29.26633071899414
  0
LINE
  5
3D4
100
AcDbEntity
  8
0
  6
ByLayer
 62
  256
370
   -1
100
AcDbLine
 10
186.7327575683594
 20
73.70986175537109
 11
183.6514587402344
 21
63.68245315551758
  0
LINE
  5
3D5
100
AcDbEntity
  8
0
  6
ByLayer
 62
  256
370
   -1
100
AcDbLine
 10
185.982666015625
 20
36.4468994140625
 11
189.4959411621094
 21
33.49058151245117
  0
LINE
  5
3D6
100
AcDbEntity
  8
0
  6
ByLayer
 62
  256
370
   -1
100
AcDbLine
 10
30.7119026184082
 20
72.62075042724609
 11
24.0847339630127
 21
70.51046752929688
  0
LINE
  5
3D7
100
AcDbEntity
  8
0
  6
ByLayer
 62
  256
370
   -1
100
AcDbLine
 10
13.71872615814209
 20
167.5489044189453
 11
15.91356182098389
 21
171.595703125
  0
LINE
  5
3D8
100
AcDbEntity
  8
0
  6
ByLayer
 62
  256
370
   -1
100
AcDbLine
 10
81.27558135986328
 20
248.4837951660156
 11
87.70046997070312
 21
247.4111328125
  0
LINE
  5
3D9
100
AcDbEntity
  8
0
  6
ByLayer
 62
  256
370
   -1
100
AcDbLine
 10
226.9270935058594
 20
97.99542236328125
 11
224.9110107421875
 21
94.2005615234375
  0
LINE
  5
3DA
100
AcDbEntity
  8
0
  6
ByLayer
 62
  256
370
   -1
100
AcDbLine
 10
113.7077713012695
 20
20.30088043212891
 11
111.5520172119141
 21
15.04853057861328
  0
LINE
  5
3DB
100
AcDbEntity
  8
0
  6
ByLayer
 62
  256
370
   -1
100
AcDbLine
 10
53.9693603515625
 20
98.44042205810547
 11
62.32339477539062
 21
95.64553070068359
  0
LINE
  5
3DC
100
AcDbEntity
  8
0
  6
ByLayer
 62
  256
370
   -1
100
AcDbLine
 10
113.1708374023438
 20
78.16381072998047
 11
122.9750518798828
 21
82.36653900146484
  0
LINE
  5
3DD
100
AcDbEntity
  8
0
  6
ByLayer
 62
  256
370
   -1
100
AcDbLine
 10
234.8997192382812
 20
200.8977355957031
 11
239.7548675537109
 21
197.0514526367188
  0
LINE
  5
3DE
100
AcDbEntity
  8
0
  6
ByLayer
 62
  256
370
   -1
100
AcDbLine
 10
246.7617950439453
 20
177.8587188720703
 11
248.4962768554688
 21
182.5422210693359
  0
LINE
  5
3DF
100
AcDbEntity
  8
0
  6
ByLayer
 62
  256
370
   -1
100
AcDbLine
 10
17.98563385009766
 20
180.2077026367188
 11
23.10207176208496
 21
182.4221343994141
  0
LINE
  5
3E0
100
AcDbEntity
  8
0
  6
ByLayer
 62
  256
370
   -1
100
AcDbLine
 10
53.81085586547852
 20
146.5780487060547
 11
57.43180465698242
 21
137.6611633300781
  0
LINE
  5
3E1
100
AcDbEntity
  8
0
  6
ByLayer
 62
  256
370
   -1
100
AcDbLine
 10
8.626235008239746
 20
105.261474609375
 11
12.25175666809082
 21
108.1698455810547
  0
LINE
  5
3E2
100
AcDbEntity
  8
0
  6
ByLayer
 62
  256
370
   -1
100
AcDbLine
 10
196.8467864990234
 20
130.0577087402344
 11
204.2369995117188
 21
127.6836624145508
  0
LINE
  5
3E3
100
AcDbEntity
  8
0
  6
ByLayer
 62
  256
370
   -1
100
AcDbLine
 10
77.14486694335938
 20
219.2401733398438
 11
70.26127624511719
 21
220.9013519287109
  0
LINE
  5
3E4
100
AcDbEntity
  8
0
  6
ByLayer
 62
  256
370
   -1
100
AcDbLine
 10
172.3773498535156
 20
38.48860168457031
 11
175.975341796875
 21
40.83850860595703
  0
LINE
  5
3E5
100
AcDbEntity
  8
0
  6
ByLayer
 62
  256
370
   -1
100
AcDbLine
 10
95.78024291992188
 20
117.5276260375977
 11
95.24037170410156
 21
115.9098739624023
  0
LINE
  5
3E6
100
AcDbEntity
  8
0
  6
ByLayer
 62
  256
370
   -1
100
AcDbLine
 10
220.0635986328125
 20
76.04077911376953
 11
216.1908416748047
 21
80.71285247802734
  0
LINE
  5
3E7
100
AcDbEntity
  8
0
  6
ByLayer
 62
  256
370
   -1
100
AcDbLine
 10
27.27518463134766
 20
145.9258880615234
 11
20.77078628540039
 21
145.8071594238281
  0
LINE
  5
3E8
100
AcDbEntity
  8
0
  6
ByLayer
 62
  256
370
   -1
100
AcDbLine
 10
156.326416015625
 20
44.85958099365234
 11
161.4243469238281
 21
51.55886459350586
  0
LINE
  5
3E9
100
AcDbEntity
  8
0
  6
ByLayer
 62
  256
370
   -1
100
AcDbLine
 10
30.25721549987793
 20
182.3468933105469
 11
23.10207176208496
 21
182.4221343994141
  0
LINE
  5
3EA
100
AcDbEntity
  8
0
  6
ByLayer
 62
  256
370
   -1
100
AcDbLine
 10
97.87030792236328
 20
59.38116073608398
 11
97.09968566894531
 21
64.08222198486328
  0
LINE
  5
3EB
100
AcDbEntity
  8
0
  6
ByLayer
 62
  256
370
   -1
100
AcDbLine
 10
82.4617919921875
 20
201.4100799560547
 11
84.09876251220703
 21
208.7018737792969
  0
LINE
  5
3EC
100
AcDbEntity
  8
0
  6
ByLayer
 62
  256
370
   -1
100
AcDbLine
 10
100.5552139282227
 20
70.88314819335938
 11
98.34442138671875
 21
68.05976104736328
  0
LINE
  5
3ED
100
AcDbEntity
  8
0
  6
ByLayer
 62
  256
370
   -1
100
AcDbLine
 10
73.88860321044922
 20
22.71602249145508
 11
75.48766326904297
 21
29.48643493652344
  0
LINE
  5
3EE
100
AcDbEntity
  8
0
  6
ByLayer
 62
  256
370
   -1
100
AcDbLine
 10
102.6120681762695
 20
240.1615142822266
 11
104.9188079833984
 21
233.0497894287109
  0
LINE
  5
3EF
100
AcDbEntity
  8
0
  6
ByLayer
 62
  256
370
   -1
100
AcDbLine
 10
74.19316101074219
 20
105.5302581787109
 11
67.11713409423828
 21
104.4187698364258
  0
LINE
  5
3F0
100
AcDbEntity
  8
0
  6
ByLayer
 62
  256
370
   -1
100
AcDbLine
 10
8.169954299926758
 20
88.11470031738281
 11
9.058524131774902
 21
84.79095458984375
  0
LINE
  5
3F1
100
AcDbEntity
  8
0
  6
ByLayer
 62
  256
370
   -1
100
AcDbLine
 10
107.4311676025391
 20
10.01882076263428
 11
111.5520172119141
 21
15.04853057861328
  0
LINE
  5
3F2
100
AcDbEntity
  8
0
  6
ByLayer
 62
  256
370
   -1
100
AcDbLine
 10
107.4311676025391
 20
10.01882076263428
 11
101.5358428955078
 21
6.018252849578857
  0
LINE
  5
3F3
100
AcDbEntity
  8
0
  6
ByLayer
 62
  256
370
   -1
100
AcDbLine
 10
180.0149841308594
 20
195.1000671386719
 11
174.4157409667969
 21
204.8698120117188
  0
LINE
  5
3F4
100
AcDbEntity
  8
0
  6
ByLayer
 62
  256
370
   -1
100
AcDbLine
 10
179.7560729980469
 20
222.6879577636719
 11
175.0632171630859
 21
219.4838256835938
  0
LINE
  5
3F5
100
AcDbEntity
  8
0
  6
ByLayer
 62
  256
370
   -1
100
AcDbLine
 10
90.96879577636719
 20
165.1789093017578
 11
90.51348114013672
 21
158.0363464355469
  0
LINE
  5
3F6
100
AcDbEntity
  8
0
  6
ByLayer
 62
  256
370
   -1
100
AcDbLine
 10
18.5095386505127
 20
70.47930908203125
 11
24.0847339630127
 21
70.51046752929688
  0
LINE
  5
3F7
100
AcDbEntity
  8
0
  6
ByLayer
 62
  256
370
   -1
100
AcDbLine
 10
9.46965217590332
 20
75.01110076904297
 11
6.232596874237061
 21
79.15692901611328
  0
LINE
  5
3F8
100
AcDbEntity
  8
0
  6
ByLayer
 62
  256
370
   -1
100
AcDbLine
 10
34.42927169799805
 20
95.30901336669922
 11
35.80086517333984
 21
95.06948089599609
  0
LINE
  5
3F9
100
AcDbEntity
  8
0
  6
ByLayer
 62
  256
370
   -1
100
AcDbLine
 10
19.36856460571289
 20
111.7518615722656
 11
12.25175666809082
 21
108.1698455810547
  0
LINE
  5
3FA
100
AcDbEntity
  8
0
  6
ByLayer
 62
  256
370
   -1
100
AcDbLine
 10
181.3217926025391
 20
38.47524261474609
 11
185.982666015625
 21
36.4468994140625
  0
LINE
  5
3FB
100
AcDbEntity
  8
0
  6
ByLayer
 62
  256
370
   -1
100
AcDbLine
 10
169.7130279541016
 20
71.19751739501953
 11
167.5738067626953
 21
76.91233825683594
  0
LINE
  5
3FC
100
AcDbEntity
  8
0
  6
ByLayer
 62
  256
370
   -1
100
AcDbLine
 10
184.8113555908203
 20
84.02420043945312
 11
186.7327575683594
 21
73.70986175537109
  0
LINE
  5
3FD
100
AcDbEntity
  8
0
  6
ByLayer
 62
  256
370
   -1
100
AcDbLine
 10
185.4837493896484
 20
130.5664367675781
 11
196.8467864990234
 21
130.0577087402344
  0
LINE
  5
3FE
100
AcDbEntity
  8
0
  6
ByLayer
 62
  256
370
   -1
100
AcDbLine
 10
185.4837493896484
 20
130.5664367675781
 11
174.1569671630859
 21
128.2177429199219
  0
LINE
  5
3FF
100
AcDbEntity
  8
0
  6
ByLayer
 62
  256
370
   -1
100
AcDbLine
 10
195.7664794921875
 20
20.13052558898926
 11
193.2239227294922
 21
15.27672576904297
  0
LINE
  5
400
100
AcDbEntity
  8
0
  6
ByLayer
 62
  256
370
   -1
100
AcDbLine
 10
174.2729949951172
 20
170.2920837402344
 11
162.7901916503906
 21
152.1961212158203
  0
LINE
  5
401
100
AcDbEntity
  8
0
  6
ByLayer
 62
  256
370
   -1
100
AcDbLine
 10
28.00183868408203
 20
76.72422790527344
 11
31.57521438598633
 21
80.23402404785156
  0
LINE
  5
402
100
AcDbEntity
  8
0
  6
ByLayer
 62
  256
370
   -1
100
AcDbLine
 10
32.13913345336914
 20
152.2528228759766
 11
35.83799362182617
 21
155.6223297119141
  0
LINE
  5
403
100
AcDbEntity
  8
0
  6
ByLayer
 62
  256
370
   -1
100
AcDbLine
 10
34.32706832885742
 20
148.9842987060547
 11
27.27518463134766
 21
145.9258880615234
  0
LINE
  5
404
100
AcDbEntity
  8
0
  6
ByLayer
 62
  256
370
   -1
100
AcDbLine
 10
52.27018737792969
 20
155.4139404296875
 11
53.81085586547852
 21
146.5780487060547
  0
LINE
  5
405
100
AcDbEntity
  8
0
  6
ByLayer
 62
  256
370
   -1
100
AcDbLine
 10
239.8908081054688
 20
177.0325164794922
 11
235.8838958740234
 21
174.5112457275391
  0
LINE
  5
406
100
AcDbEntity
  8
0
  6
ByLayer
 62
  256
370
   -1
100
AcDbLine
 10
182.9790496826172
 20
226.5190124511719
 11
179.7560729980469
 21
222.6879577636719
  0
LINE
  5
407
100
AcDbEntity
  8
0
  6
ByLayer
 62
  256
370
   -1
100
AcDbLine
 10
35.30524826049805
 20
77.22579956054688
 11
30.7119026184082
 21
72.62075042724609
  0
LINE
  5
408
100
AcDbEntity
  8
0
  6
ByLayer
 62
  256
370
   -1
100
AcDbLine
 10
92.65605163574219
 20
34.83477783203125
 11
87.70186614990234
 21
34.13391876220703
  0
LINE
  5
409
100
AcDbEntity
  8
0
  6
ByLayer
 62
  256
370
   -1
100
AcDbLine
 10
224.6997985839844
 20
72.51115417480469
 11
220.0635986328125
 21
76.04077911376953
  0
LINE
  5
40A
100
AcDbEntity
  8
0
  6
ByLayer
 62
  256
370
   -1
100
AcDbLine
 10
82.79618072509766
 20
221.2690887451172
 11
77.14486694335938
 21
219.2401733398438
  0
LINE
  5
40B
100
AcDbEntity
  8
0
  6
ByLayer
 62
  256
370
   -1
100
AcDbLine
 10
113.9449844360352
 20
26.12294769287109
 11
113.7077713012695
 21
20.30088043212891
  0
LINE
  5
40C
100
AcDbEntity
  8
0
  6
ByLayer
 62
  256
370
   -1
100
AcDbLine
 10
172.7651672363281
 20
37.06943130493164
 11
172.3773498535156
 21
38.48860168457031
  0
LINE
  5
40D
100
AcDbEntity
  8
0
  6
ByLayer
 62
  256
370
   -1
100
AcDbLine
 10
226.2551422119141
 20
207.6333770751953
 11
221.7029113769531
 21
206.6949615478516
  0
LINE
  5
40E
100
AcDbEntity
  8
0
  6
ByLayer
 62
  256
370
   -1
100
AcDbLine
 10
196.7537689208984
 20
177.0896453857422
 11
199.5329437255859
 21
184.0200347900391
  0
LINE
  5
40F
100
AcDbEntity
  8
0
  6
ByLayer
 62
  256
370
   -1
100
AcDbLine
 10
18.48697853088379
 20
70.47901916503906
 11
18.5095386505127
 21
70.47930908203125
  0
LINE
  5
410
100
AcDbEntity
  8
0
  6
ByLayer
 62
  256
370
   -1
100
AcDbLine
 10
80.84951019287109
 20
15.95421600341797
 11
83.80439758300781
 21
12.25964641571045
  0
LINE
  5
411
100
AcDbEntity
  8
0
  6
ByLayer
 62
  256
370
   -1
100
AcDbLine
 10
179.7913665771484
 20
93.276123046875
 11
184.8113555908203
 21
84.02420043945312
  0
LINE
  5
412
100
AcDbEntity
  8
0
  6
ByLayer
 62
  256
370
   -1
100
AcDbLine
 10
81.80637359619141
 20
193.4959411621094
 11
82.4617919921875
 21
201.4100799560547
  0
LINE
  5
413
100
AcDbEntity
  8
0
  6
ByLayer
 62
  256
370
   -1
100
AcDbLine
 10
84.57993316650391
 20
138.7063446044922
 11
79.12001800537109
 21
134.9770355224609
  0
LINE
  5
414
100
AcDbEntity
  8
0
  6
ByLayer
 62
  256
370
   -1
100
AcDbLine
 10
165.7185363769531
 20
19.16901779174805
 11
162.9133758544922
 21
24.79788017272949
  0
LINE
  5
415
100
AcDbEntity
  8
0
  6
ByLayer
 62
  256
370
   -1
100
AcDbLine
 10
12.5251932144165
 20
176.3382720947266
 11
17.98563385009766
 21
180.2077026367188
  0
LINE
  5
416
100
AcDbEntity
  8
0
  6
ByLayer
 62
  256
370
   -1
100
AcDbLine
 10
96.62733459472656
 20
249.1449584960938
 11
102.6120681762695
 21
240.1615142822266
  0
LINE
  5
417
100
AcDbEntity
  8
0
  6
ByLayer
 62
  256
370
   -1
100
AcDbLine
 10
8.302806854248047
 20
94.30731201171875
 11
8.169954299926758
 21
88.11470031738281
  0
LINE
  5
418
100
AcDbEntity
  8
0
  6
ByLayer
 62
  256
370
   -1
100
AcDbLine
 10
99.27393341064453
 20
95.97589874267578
 11
88.12542724609375
 21
94.33352661132812
  0
LINE
  5
419
100
AcDbEntity
  8
0
  6
ByLayer
 62
  256
370
   -1
100
AcDbLine
 10
99.27393341064453
 20
95.97589874267578
 11
105.0461044311523
 21
97.73294830322266
  0
LINE
  5
41A
100
AcDbEntity
  8
0
  6
ByLayer
 62
  256
370
   -1
100
AcDbLine
 10
106.6448745727539
 20
17.90520477294922
 11
103.8541793823242
 21
14.80553722381592
  0
LINE
  5
41B
100
AcDbEntity
  8
0
  6
ByLayer
 62
  256
370
   -1
100
AcDbLine
 10
87.15518951416016
 20
10.61516952514648
 11
83.80439758300781
 21
12.25964641571045
  0
LINE
  5
41C
100
AcDbEntity
  8
0
  6
ByLayer
 62
  256
370
   -1
100
AcDbLine
 10
80.84951019287109
 20
15.95421600341797
 11
79.27469635009766
 21
19.4656982421875
  0
LINE
  5
41D
100
AcDbEntity
  8
0
  6
ByLayer
 62
  256
370
   -1
100
AcDbLine
 10
96.22782897949219
 20
4.49351978302002
 11
90.42876434326172
 21
4.154067993164062
  0
LINE
  5
41E
100
AcDbEntity
  8
0
  6
ByLayer
 62
  256
370
   -1
100
AcDbLine
 10
96.22782897949219
 20
4.49351978302002
 11
101.5358428955078
 21
6.018252849578857
  0
LINE
  5
41F
100
AcDbEntity
  8
0
  6
ByLayer
 62
  256
370
   -1
100
AcDbLine
 10
248.2293853759766
 20
104.7253341674805
 11
252.2799835205078
 21
100.8572845458984
  0
LINE
  5
420
100
AcDbEntity
  8
0
  6
ByLayer
 62
  256
370
   -1
100
AcDbLine
 10
195.0421600341797
 20
152.7466735839844
 11
199.4234313964844
 21
160.1369171142578
  0
LINE
  5
421
100
AcDbEntity
  8
0
  6
ByLayer
 62
  256
370
   -1
100
AcDbLine
 10
242.9577331542969
 20
191.0081939697266
 11
243.4195404052734
 21
187.5956115722656
  0
LINE
  5
422
100
AcDbEntity
  8
0
  6
ByLayer
 62
  256
370
   -1
100
AcDbLine
 10
218.8969268798828
 20
181.2811737060547
 11
217.4689025878906
 21
181.4102325439453
  0
LINE
  5
423
100
AcDbEntity
  8
0
  6
ByLayer
 62
  256
370
   -1
100
AcDbLine
 10
194.4620361328125
 20
170.4759826660156
 11
196.7537689208984
 21
177.0896453857422
  0
LINE
  5
424
100
AcDbEntity
  8
0
  6
ByLayer
 62
  256
370
   -1
100
AcDbLine
 10
176.2755889892578
 20
248.9842376708984
 11
181.0650939941406
 21
246.5932922363281
  0
LINE
  5
425
100
AcDbEntity
  8
0
  6
ByLayer
 62
  256
370
   -1
100
AcDbLine
 10
86.86090087890625
 20
223.8385467529297
 11
82.79618072509766
 21
221.2690887451172
  0
LINE
  5
426
100
AcDbEntity
  8
0
  6
ByLayer
 62
  256
370
   -1
100
AcDbLine
 10
90.76289367675781
 20
145.9833984375
 11
92.54672241210938
 21
152.0074920654297
  0
LINE
  5
427
100
AcDbEntity
  8
0
  6
ByLayer
 62
  256
370
   -1
100
AcDbLine
 10
103.1460266113281
 20
94.76198577880859
 11
105.0461044311523
 21
97.73294830322266
  0
LINE
  5
428
100
AcDbEntity
  8
0
  6
ByLayer
 62
  256
370
   -1
100
AcDbLine
 10
105.2580642700195
 20
74.50461578369141
 11
113.1708374023438
 21
78.16381072998047
  0
LINE
  5
429
100
AcDbEntity
  8
0
  6
ByLayer
 62
  256
370
   -1
100
AcDbLine
 10
241.9942932128906
 20
107.8105926513672
 11
248.2293853759766
 21
104.7253341674805
  0
LINE
  5
42A
100
AcDbEntity
  8
0
  6
ByLayer
 62
  256
370
   -1
100
AcDbLine
 10
230.6259460449219
 20
101.3649215698242
 11
226.9270935058594
 21
97.99542236328125
  0
LINE
  5
42B
100
AcDbEntity
  8
0
  6
ByLayer
 62
  256
370
   -1
100
AcDbLine
 10
72.78885650634766
 20
225.6606903076172
 11
69.27555084228516
 21
228.6169891357422
  0
LINE
  5
42C
100
AcDbEntity
  8
0
  6
ByLayer
 62
  256
370
   -1
100
AcDbLine
 10
196.776123046875
 20
25.28435897827148
 11
195.7664794921875
 21
20.13052558898926
  0
LINE
  5
42D
100
AcDbEntity
  8
0
  6
ByLayer
 62
  256
370
   -1
100
AcDbLine
 10
90.76289367675781
 20
145.9833984375
 11
84.57993316650391
 21
138.7063446044922
  0
LINE
  5
42E
100
AcDbEntity
  8
0
  6
ByLayer
 62
  256
370
   -1
100
AcDbLine
 10
87.90251159667969
 20
253.4789276123047
 11
96.62733459472656
 21
249.1449584960938
  0
LINE
  5
42F
100
AcDbEntity
  8
0
  6
ByLayer
 62
  256
370
   -1
100
AcDbLine
 10
168.0601654052734
 20
61.64971542358398
 11
165.8212890625
 21
57.94937515258789
  0
LINE
  5
430
100
AcDbEntity
  8
0
  6
ByLayer
 62
  256
370
   -1
100
AcDbLine
 10
201.1893157958984
 20
113.8604125976562
 11
204.3504943847656
 21
110.2104263305664
  0
LINE
  5
431
100
AcDbEntity
  8
0
  6
ByLayer
 62
  256
370
   -1
100
AcDbLine
 10
201.1893157958984
 20
113.8604125976562
 11
197.3329162597656
 21
115.4349060058594
  0
LINE
  5
432
100
AcDbEntity
  8
0
  6
ByLayer
 62
  256
370
   -1
100
AcDbLine
 10
227.8316650390625
 20
77.50228118896484
 11
224.4938354492188
 21
80.04106903076172
  0
LINE
  5
433
100
AcDbEntity
  8
0
  6
ByLayer
 62
  256
370
   -1
100
AcDbLine
 10
175.9750061035156
 20
172.9634704589844
 11
176.8156127929688
 21
174.2990264892578
  0
LINE
  5
434
100
AcDbEntity
  8
0
  6
ByLayer
 62
  256
370
   -1
100
AcDbLine
 10
175.9750061035156
 20
172.9634704589844
 11
174.2729949951172
 21
170.2920837402344
  0
LINE
  5
435
100
AcDbEntity
  8
0
  6
ByLayer
 62
  256
370
   -1
100
AcDbLine
 10
32.4748420715332
 20
106.6079406738281
 11
27.37142181396484
 21
106.8859634399414
  0
LINE
  5
436
100
AcDbEntity
  8
0
  6
ByLayer
 62
  256
370
   -1
100
AcDbLine
 10
213.0511016845703
 20
194.2290496826172
 11
216.8277893066406
 21
197.8344879150391
  0
LINE
  5
437
100
AcDbEntity
  8
0
  6
ByLayer
 62
  256
370
   -1
100
AcDbLine
 10
223.4914245605469
 20
171.4619293212891
 11
230.8405456542969
 21
169.2049407958984
  0
LINE
  5
438
100
AcDbEntity
  8
0
  6
ByLayer
 62
  256
370
   -1
100
AcDbLine
 10
202.8310089111328
 20
190.9846801757812
 11
199.5329437255859
 21
184.0200347900391
  0
LINE
  5
439
100
AcDbEntity
  8
0
  6
ByLayer
 62
  256
370
   -1
100
AcDbLine
 10
161.4332733154297
 20
150.2709655761719
 11
162.7901916503906
 21
152.1961212158203
  0
LINE
  5
43A
100
AcDbEntity
  8
0
  6
ByLayer
 62
  256
370
   -1
100
AcDbLine
 10
159.7918395996094
 20
205.9917602539062
 11
154.2834777832031
 21
213.3529205322266
  0
LINE
  5
43B
100
AcDbEntity
  8
0
  6
ByLayer
 62
  256
370
   -1
100
AcDbLine
 10
114.8537673950195
 20
184.2674713134766
 11
107.9232788085938
 21
182.9507293701172
  0
LINE
  5
43C
100
AcDbEntity
  8
0
  6
ByLayer
 62
  256
370
   -1
100
AcDbLine
 10
23.50461769104004
 20
75.24519348144531
 11
28.00183868408203
 21
76.72422790527344
  0
LINE
  5
43D
100
AcDbEntity
  8
0
  6
ByLayer
 62
  256
370
   -1
100
AcDbLine
 10
184.1140747070312
 20
231.1163482666016
 11
182.9790496826172
 21
226.5190124511719
  0
LINE
  5
43E
100
AcDbEntity
  8
0
  6
ByLayer
 62
  256
370
   -1
100
AcDbLine
 10
243.4635162353516
 20
72.78054809570312
 11
248.0225982666016
 21
75.89726257324219
  0
LINE
  5
43F
100
AcDbEntity
  8
0
  6
ByLayer
 62
  256
370
   -1
100
AcDbLine
 10
10.1513090133667
 20
97.96039581298828
 11
8.302806854248047
 21
94.30731201171875
  0
LINE
  5
440
100
AcDbEntity
  8
0
  6
ByLayer
 62
  256
370
   -1
100
AcDbLine
 10
230.1204528808594
 20
70.82271575927734
 11
224.6997985839844
 21
72.51115417480469
  0
LINE
  5
441
100
AcDbEntity
  8
0
  6
ByLayer
 62
  256
370
   -1
100
AcDbLine
 10
241.0928192138672
 20
102.9769134521484
 11
245.3594207763672
 21
100.9169692993164
  0
LINE
  5
442
100
AcDbEntity
  8
0
  6
ByLayer
 62
  256
370
   -1
100
AcDbLine
 10
241.0928192138672
 20
102.9769134521484
 11
236.0865325927734
 21
102.9369354248047
  0
LINE
  5
443
100
AcDbEntity
  8
0
  6
ByLayer
 62
  256
370
   -1
100
AcDbLine
 10
176.1860046386719
 20
215.7142639160156
 11
183.0385284423828
 21
219.1964416503906
  0
LINE
  5
444
100
AcDbEntity
  8
0
  6
ByLayer
 62
  256
370
   -1
100
AcDbLine
 10
176.1860046386719
 20
215.7142639160156
 11
169.8194580078125
 21
216.0310516357422
  0
LINE
  5
445
100
AcDbEntity
  8
0
  6
ByLayer
 62
  256
370
   -1
100
AcDbLine
 10
230.6259460449219
 20
101.3649215698242
 11
236.0865325927734
 21
102.9369354248047
  0
LINE
  5
446
100
AcDbEntity
  8
0
  6
ByLayer
 62
  256
370
   -1
100
AcDbLine
 10
96.86489868164062
 20
33.96810150146484
 11
92.65605163574219
 21
34.83477783203125
  0
LINE
  5
447
100
AcDbEntity
  8
0
  6
ByLayer
 62
  256
370
   -1
100
AcDbLine
 10
38.14258193969727
 20
154.0906982421875
 11
34.32706832885742
 21
148.9842987060547
  0
LINE
  5
448
100
AcDbEntity
  8
0
  6
ByLayer
 62
  256
370
   -1
100
AcDbLine
 10
112.815315246582
 20
32.08535766601562
 11
113.9449844360352
 21
26.12294769287109
  0
LINE
  5
449
100
AcDbEntity
  8
0
  6
ByLayer
 62
  256
370
   -1
100
AcDbLine
 10
173.855224609375
 20
36.30581283569336
 11
172.7651672363281
 21
37.06943130493164
  0
LINE
  5
44A
100
AcDbEntity
  8
0
  6
ByLayer
 62
  256
370
   -1
100
AcDbLine
 10
50.1119384765625
 20
164.3509826660156
 11
52.27018737792969
 21
155.4139404296875
  0
LINE
  5
44B
100
AcDbEntity
  8
0
  6
ByLayer
 62
  256
370
   -1
100
AcDbLine
 10
87.57630157470703
 20
55.17883682250977
 11
92.49296569824219
 21
49.52910232543945
  0
LINE
  5
44C
100
AcDbEntity
  8
0
  6
ByLayer
 62
  256
370
   -1
100
AcDbLine
 10
82.84368133544922
 20
186.0423583984375
 11
81.80637359619141
 21
193.4959411621094
  0
LINE
  5
44D
100
AcDbEntity
  8
0
  6
ByLayer
 62
  256
370
   -1
100
AcDbLine
 10
78.65232849121094
 20
22.4985179901123
 11
79.27469635009766
 21
19.4656982421875
  0
LINE
  5
44E
100
AcDbEntity
  8
0
  6
ByLayer
 62
  256
370
   -1
100
AcDbLine
 10
8.640767097473145
 20
170.12939453125
 11
12.5251932144165
 21
176.3382720947266
  0
LINE
  5
44F
100
AcDbEntity
  8
0
  6
ByLayer
 62
  256
370
   -1
100
AcDbLine
 10
105.2580642700195
 20
74.50461578369141
 11
100.5552139282227
 21
70.88314819335938
  0
LINE
  5
450
100
AcDbEntity
  8
0
  6
ByLayer
 62
  256
370
   -1
100
AcDbLine
 10
21.67223167419434
 20
150.6408233642578
 11
17.406982421875
 21
152.6979064941406
  0
LINE
  5
451
100
AcDbEntity
  8
0
  6
ByLayer
 62
  256
370
   -1
100
AcDbLine
 10
107.8658828735352
 20
21.07078742980957
 11
106.6448745727539
 21
17.90520477294922
  0
LINE
  5
452
100
AcDbEntity
  8
0
  6
ByLayer
 62
  256
370
   -1
100
AcDbLine
 10
189.9987945556641
 20
146.0800476074219
 11
195.0421600341797
 21
152.7466735839844
  0
LINE
  5
453
100
AcDbEntity
  8
0
  6
ByLayer
 62
  256
370
   -1
100
AcDbLine
 10
192.5613708496094
 20
165.6478729248047
 11
189.6083831787109
 21
162.0382385253906
  0
LINE
  5
454
100
AcDbEntity
  8
0
  6
ByLayer
 62
  256
370
   -1
100
AcDbLine
 10
214.4056549072266
 20
203.4966430664062
 11
221.7029113769531
 21
206.6949615478516
  0
LINE
  5
455
100
AcDbEntity
  8
0
  6
ByLayer
 62
  256
370
   -1
100
AcDbLine
 10
192.5613708496094
 20
165.6478729248047
 11
194.4620361328125
 21
170.4759826660156
  0
LINE
  5
456
100
AcDbEntity
  8
0
  6
ByLayer
 62
  256
370
   -1
100
AcDbLine
 10
186.0588226318359
 20
241.8575286865234
 11
188.4865875244141
 21
236.4882659912109
  0
LINE
  5
457
100
AcDbEntity
  8
0
  6
ByLayer
 62
  256
370
   -1
100
AcDbLine
 10
186.0588226318359
 20
241.8575286865234
 11
181.0650939941406
 21
246.5932922363281
  0
LINE
  5
458
100
AcDbEntity
  8
0
  6
ByLayer
 62
  256
370
   -1
100
AcDbLine
 10
125.2778472900391
 20
182.5970153808594
 11
130.1833038330078
 21
179.6324157714844
  0
LINE
  5
459
100
AcDbEntity
  8
0
  6
ByLayer
 62
  256
370
   -1
100
AcDbLine
 10
13.77316951751709
 20
72.12926483154297
 11
9.46965217590332
 21
75.01110076904297
  0
LINE
  5
45A
100
AcDbEntity
  8
0
  6
ByLayer
 62
  256
370
   -1
100
AcDbLine
 10
13.77316951751709
 20
72.12926483154297
 11
18.48697853088379
 21
70.47901916503906
  0
LINE
  5
45B
100
AcDbEntity
  8
0
  6
ByLayer
 62
  256
370
   -1
100
AcDbLine
 10
43.85546493530273
 20
110.7898712158203
 11
36.38737869262695
 21
112.6901626586914
  0
LINE
  5
45C
100
AcDbEntity
  8
0
  6
ByLayer
 62
  256
370
   -1
100
AcDbLine
 10
33.61814498901367
 20
94.12667083740234
 11
34.42927169799805
 21
95.30901336669922
  0
LINE
  5
45D
100
AcDbEntity
  8
0
  6
ByLayer
 62
  256
370
   -1
100
AcDbLine
 10
65.45047760009766
 20
224.7055511474609
 11
70.26127624511719
 21
220.9013519287109
  0
LINE
  5
45E
100
AcDbEntity
  8
0
  6
ByLayer
 62
  256
370
   -1
100
AcDbLine
 10
65.44315338134766
 20
224.7211303710938
 11
65.45047760009766
 21
224.7055511474609
  0
LINE
  5
45F
100
AcDbEntity
  8
0
  6
ByLayer
 62
  256
370
   -1
100
AcDbLine
 10
254.4325256347656
 20
96.34817504882812
 11
252.2799835205078
 21
100.8572845458984
  0
LINE
  5
460
100
AcDbEntity
  8
0
  6
ByLayer
 62
  256
370
   -1
100
AcDbLine
 10
221.2489166259766
 20
177.8869934082031
 11
218.8969268798828
 21
181.2811737060547
  0
LINE
  5
461
100
AcDbEntity
  8
0
  6
ByLayer
 62
  256
370
   -1
100
AcDbLine
 10
255.5577697753906
 20
90.08295440673828
 11
254.4325256347656
 21
96.34817504882812
  0
LINE
  5
462
100
AcDbEntity
  8
0
  6
ByLayer
 62
  256
370
   -1
100
AcDbLine
 10
150.570068359375
 20
82.92254638671875
 11
143.3536987304688
 21
83.51449584960938
  0
LINE
  5
463
100
AcDbEntity
  8
0
  6
ByLayer
 62
  256
370
   -1
100
AcDbLine
 10
235.4898986816406
 20
107.6918640136719
 11
241.9942932128906
 21
107.8105926513672
  0
LINE
  5
464
100
AcDbEntity
  8
0
  6
ByLayer
 62
  256
370
   -1
100
AcDbLine
 10
241.5644989013672
 20
179.6522064208984
 11
239.8908081054688
 21
177.0325164794922
  0
LINE
  5
465
100
AcDbEntity
  8
0
  6
ByLayer
 62
  256
370
   -1
100
AcDbLine
 10
216.7788696289062
 20
180.200927734375
 11
217.4689025878906
 21
181.4102325439453
  0
LINE
  5
466
100
AcDbEntity
  8
0
  6
ByLayer
 62
  256
370
   -1
100
AcDbLine
 10
165.6160430908203
 20
199.1708374023438
 11
159.7918395996094
 21
205.9917602539062
  0
LINE
  5
467
100
AcDbEntity
  8
0
  6
ByLayer
 62
  256
370
   -1
100
AcDbLine
 10
91.32882690429688
 20
169.6396331787109
 11
86.8187255859375
 21
176.1869964599609
  0
LINE
  5
468
100
AcDbEntity
  8
0
  6
ByLayer
 62
  256
370
   -1
100
AcDbLine
 10
91.32882690429688
 20
169.6396331787109
 11
90.96879577636719
 21
165.1789093017578
  0
LINE
  5
469
100
AcDbEntity
  8
0
  6
ByLayer
 62
  256
370
   -1
100
AcDbLine
 10
42.40448379516602
 20
176.8777465820312
 11
46.36373519897461
 21
172.8023681640625
  0
LINE
  5
46A
100
AcDbEntity
  8
0
  6
ByLayer
 62
  256
370
   -1
100
AcDbLine
 10
62.45361328125
 20
104.4456176757812
 11
57.52236175537109
 21
106.0600280761719
  0
LINE
  5
46B
100
AcDbEntity
  8
0
  6
ByLayer
 62
  256
370
   -1
100
AcDbLine
 10
62.45361328125
 20
104.4456176757812
 11
67.11713409423828
 21
104.4187698364258
  0
LINE
  5
46C
100
AcDbEntity
  8
0
  6
ByLayer
 62
  256
370
   -1
100
AcDbLine
 10
38.25270080566406
 20
84.32625579833984
 11
35.30524826049805
 21
77.22579956054688
  0
LINE
  5
46D
100
AcDbEntity
  8
0
  6
ByLayer
 62
  256
370
   -1
100
AcDbLine
 10
175.0255432128906
 20
243.4270935058594
 11
178.3040924072266
 21
241.8395538330078
  0
LINE
  5
46E
100
AcDbEntity
  8
0
  6
ByLayer
 62
  256
370
   -1
100
AcDbLine
 10
175.0255432128906
 20
243.4270935058594
 11
170.5086517333984
 21
244.3167114257812
  0
LINE
  5
46F
100
AcDbEntity
  8
0
  6
ByLayer
 62
  256
370
   -1
100
AcDbLine
 10
97.43863677978516
 20
43.20062255859375
 11
92.49296569824219
 21
49.52910232543945
  0
LINE
  5
470
100
AcDbEntity
  8
0
  6
ByLayer
 62
  256
370
   -1
100
AcDbLine
 10
26.67854499816895
 20
150.6808166503906
 11
21.67223167419434
 21
150.6408233642578
  0
LINE
  5
471
100
AcDbEntity
  8
0
  6
ByLayer
 62
  256
370
   -1
100
AcDbLine
 10
174.7011260986328
 20
102.4320602416992
 11
181.2823333740234
 21
110.0668487548828
  0
LINE
  5
472
100
AcDbEntity
  8
0
  6
ByLayer
 62
  256
370
   -1
100
AcDbLine
 10
97.85236358642578
 20
36.24750900268555
 11
92.94565582275391
 21
37.58671569824219
  0
LINE
  5
473
100
AcDbEntity
  8
0
  6
ByLayer
 62
  256
370
   -1
100
AcDbLine
 10
236.6226348876953
 20
70.79004669189453
 11
230.1204528808594
 21
70.82271575927734
  0
LINE
  5
474
100
AcDbEntity
  8
0
  6
ByLayer
 62
  256
370
   -1
100
AcDbLine
 10
236.6226348876953
 20
70.79004669189453
 11
243.4635162353516
 21
72.78054809570312
  0
LINE
  5
475
100
AcDbEntity
  8
0
  6
ByLayer
 62
  256
370
   -1
100
AcDbLine
 10
80.17375183105469
 20
254.7215728759766
 11
87.90251159667969
 21
253.4789276123047
  0
LINE
  5
476
100
AcDbEntity
  8
0
  6
ByLayer
 62
  256
370
   -1
100
AcDbLine
 10
74.04369354248047
 20
132.9598236083984
 11
79.12001800537109
 21
134.9770355224609
  0
LINE
  5
477
100
AcDbEntity
  8
0
  6
ByLayer
 62
  256
370
   -1
100
AcDbLine
 10
171.0724029541016
 20
14.69360446929932
 11
165.7185363769531
 21
19.16901779174805
  0
LINE
  5
478
100
AcDbEntity
  8
0
  6
ByLayer
 62
  256
370
   -1
100
AcDbLine
 10
180.9938049316406
 20
186.209716796875
 11
176.8156127929688
 21
174.2990264892578
  0
LINE
  5
479
100
AcDbEntity
  8
0
  6
ByLayer
 62
  256
370
   -1
100
AcDbLine
 10
196.0506134033203
 20
30.9822883605957
 11
196.776123046875
 21
25.28435897827148
  0
LINE
  5
47A
100
AcDbEntity
  8
0
  6
ByLayer
 62
  256
370
   -1
100
AcDbLine
 10
20.41939163208008
 20
75.62630462646484
 11
23.50461769104004
 21
75.24519348144531
  0
LINE
  5
47B
100
AcDbEntity
  8
0
  6
ByLayer
 62
  256
370
   -1
100
AcDbLine
 10
102.7781143188477
 20
188.5584716796875
 11
107.9232788085938
 21
182.9507293701172
  0
LINE
  5
47C
100
AcDbEntity
  8
0
  6
ByLayer
 62
  256
370
   -1
100
AcDbLine
 10
251.9818115234375
 20
80.1480712890625
 11
248.0225982666016
 21
75.89726257324219
  0
LINE
  5
47D
100
AcDbEntity
  8
0
  6
ByLayer
 62
  256
370
   -1
100
AcDbLine
 10
91.55043792724609
 20
112.5585556030273
 11
95.24037170410156
 21
115.9098739624023
  0
LINE
  5
47E
100
AcDbEntity
  8
0
  6
ByLayer
 62
  256
370
   -1
100
AcDbLine
 10
221.6561889648438
 20
83.72435760498047
 11
224.4938354492188
 21
80.04106903076172
  0
LINE
  5
47F
100
AcDbEntity
  8
0
  6
ByLayer
 62
  256
370
   -1
100
AcDbLine
 10
165.7035980224609
 20
217.1757507324219
 11
169.8194580078125
 21
216.0310516357422
  0
LINE
  5
480
100
AcDbEntity
  8
0
  6
ByLayer
 62
  256
370
   -1
100
AcDbLine
 10
177.9051818847656
 20
153.0186767578125
 11
167.7584991455078
 21
148.4065704345703
  0
LINE
  5
481
100
AcDbEntity
  8
0
  6
ByLayer
 62
  256
370
   -1
100
AcDbLine
 10
43.10366821289062
 20
152.6581726074219
 11
42.23231887817383
 21
161.6025848388672
  0
LINE
  5
482
100
AcDbEntity
  8
0
  6
ByLayer
 62
  256
370
   -1
100
AcDbLine
 10
43.10366821289062
 20
152.6581726074219
 11
43.80975723266602
 21
143.4332122802734
  0
LINE
  5
483
100
AcDbEntity
  8
0
  6
ByLayer
 62
  256
370
   -1
100
AcDbLine
 10
183.9818115234375
 20
139.4240417480469
 11
189.9987945556641
 21
146.0800476074219
  0
LINE
  5
484
100
AcDbEntity
  8
0
  6
ByLayer
 62
  256
370
   -1
100
AcDbLine
 10
225.3019714355469
 20
174.9502868652344
 11
221.2489166259766
 21
177.8869934082031
  0
LINE
  5
485
100
AcDbEntity
  8
0
  6
ByLayer
 62
  256
370
   -1
100
AcDbLine
 10
39.79230117797852
 20
105.0354461669922
 11
32.4748420715332
 21
106.6079406738281
  0
LINE
  5
486
100
AcDbEntity
  8
0
  6
ByLayer
 62
  256
370
   -1
100
AcDbLine
 10
243.1682586669922
 20
173.5666046142578
 11
246.7617950439453
 21
177.8587188720703
  0
LINE
  5
487
100
AcDbEntity
  8
0
  6
ByLayer
 62
  256
370
   -1
100
AcDbLine
 10
150.043701171875
 20
233.0709991455078
 11
149.5481719970703
 21
227.2777709960938
  0
LINE
  5
488
100
AcDbEntity
  8
0
  6
ByLayer
 62
  256
370
   -1
100
AcDbLine
 10
94.14738464355469
 20
118.6199111938477
 11
91.79916381835938
 21
118.8021850585938
  0
LINE
  5
489
100
AcDbEntity
  8
0
  6
ByLayer
 62
  256
370
   -1
100
AcDbLine
 10
174.8827362060547
 20
99.49613189697266
 11
179.7913665771484
 21
93.276123046875
  0
LINE
  5
48A
100
AcDbEntity
  8
0
  6
ByLayer
 62
  256
370
   -1
100
AcDbLine
 10
174.8827362060547
 20
99.49613189697266
 11
174.7011260986328
 21
102.4320602416992
  0
LINE
  5
48B
100
AcDbEntity
  8
0
  6
ByLayer
 62
  256
370
   -1
100
AcDbLine
 10
82.84368133544922
 20
186.0423583984375
 11
86.8187255859375
 21
176.1869964599609
  0
LINE
  5
48C
100
AcDbEntity
  8
0
  6
ByLayer
 62
  256
370
   -1
100
AcDbLine
 10
7.428668975830078
 20
164.9152984619141
 11
8.640767097473145
 21
170.12939453125
  0
LINE
  5
48D
100
AcDbEntity
  8
0
  6
ByLayer
 62
  256
370
   -1
100
AcDbLine
 10
95.59263610839844
 20
87.55110168457031
 11
103.1460266113281
 21
94.76198577880859
  0
LINE
  5
48E
100
AcDbEntity
  8
0
  6
ByLayer
 62
  256
370
   -1
100
AcDbLine
 10
95.59263610839844
 20
87.55110168457031
 11
88.64024353027344
 21
77.95476531982422
  0
LINE
  5
48F
100
AcDbEntity
  8
0
  6
ByLayer
 62
  256
370
   -1
100
AcDbLine
 10
108.0385284423828
 20
25.26089286804199
 11
107.8658828735352
 21
21.07078742980957
  0
LINE
  5
490
100
AcDbEntity
  8
0
  6
ByLayer
 62
  256
370
   -1
100
AcDbLine
 10
221.6561889648438
 20
83.72435760498047
 11
218.8834991455078
 21
91.23934936523438
  0
LINE
  5
491
100
AcDbEntity
  8
0
  6
ByLayer
 62
  256
370
   -1
100
AcDbLine
 10
219.3010101318359
 20
199.6762847900391
 11
216.8277893066406
 21
197.8344879150391
  0
LINE
  5
492
100
AcDbEntity
  8
0
  6
ByLayer
 62
  256
370
   -1
100
AcDbLine
 10
94.14738464355469
 20
118.6199111938477
 11
95.78024291992188
 21
117.5276260375977
  0
LINE
  5
493
100
AcDbEntity
  8
0
  6
ByLayer
 62
  256
370
   -1
100
AcDbLine
 10
230.9069976806641
 20
201.8031158447266
 11
234.8997192382812
 21
200.8977355957031
  0
LINE
  5
494
100
AcDbEntity
  8
0
  6
ByLayer
 62
  256
370
   -1
100
AcDbLine
 10
230.9069976806641
 20
201.8031158447266
 11
227.1795806884766
 21
202.1444244384766
  0
LINE
  5
495
100
AcDbEntity
  8
0
  6
ByLayer
 62
  256
370
   -1
100
AcDbLine
 10
241.7486572265625
 20
194.2476043701172
 11
239.7548675537109
 21
197.0514526367188
  0
LINE
  5
496
100
AcDbEntity
  8
0
  6
ByLayer
 62
  256
370
   -1
100
AcDbLine
 10
241.7486572265625
 20
194.2476043701172
 11
242.9577331542969
 21
191.0081939697266
  0
LINE
  5
497
100
AcDbEntity
  8
0
  6
ByLayer
 62
  256
370
   -1
100
AcDbLine
 10
50.1119384765625
 20
164.3509826660156
 11
46.36373519897461
 21
172.8023681640625
  0
LINE
  5
498
100
AcDbEntity
  8
0
  6
ByLayer
 62
  256
370
   -1
100
AcDbLine
 10
39.88516235351562
 20
157.9911956787109
 11
38.14258193969727
 21
154.0906982421875
  0
LINE
  5
499
100
AcDbEntity
  8
0
  6
ByLayer
 62
  256
370
   -1
100
AcDbLine
 10
65.82929992675781
 20
122.0914459228516
 11
87.09121704101562
 21
119.3984756469727
  0
LINE
  5
49A
100
AcDbEntity
  8
0
  6
ByLayer
 62
  256
370
   -1
100
AcDbLine
 10
12.85117149353027
 20
164.0110626220703
 11
13.71872615814209
 21
167.5489044189453
  0
LINE
  5
49B
100
AcDbEntity
  8
0
  6
ByLayer
 62
  256
370
   -1
100
AcDbLine
 10
19.19007873535156
 20
105.5447845458984
 11
14.74137592315674
 21
103.1968460083008
  0
LINE
  5
49C
100
AcDbEntity
  8
0
  6
ByLayer
 62
  256
370
   -1
100
AcDbLine
 10
108.5087509155273
 20
40.27410507202148
 11
112.815315246582
 21
32.08535766601562
  0
LINE
  5
49D
100
AcDbEntity
  8
0
  6
ByLayer
 62
  256
370
   -1
100
AcDbLine
 10
217.3324737548828
 20
99.70318603515625
 11
218.8834991455078
 21
91.23934936523438
  0
LINE
  5
49E
100
AcDbEntity
  8
0
  6
ByLayer
 62
  256
370
   -1
100
AcDbLine
 10
77.44972991943359
 20
223.6323547363281
 11
72.78885650634766
 21
225.6606903076172
  0
LINE
  5
49F
100
AcDbEntity
  8
0
  6
ByLayer
 62
  256
370
   -1
100
AcDbLine
 10
75.43352508544922
 20
246.9421539306641
 11
81.27558135986328
 21
248.4837951660156
  0
LINE
  5
4A0
100
AcDbEntity
  8
0
  6
ByLayer
 62
  256
370
   -1
100
AcDbLine
 10
176.9048919677734
 20
37.98514938354492
 11
173.855224609375
 21
36.30581283569336
  0
LINE
  5
4A1
100
AcDbEntity
  8
0
  6
ByLayer
 62
  256
370
   -1
100
AcDbLine
 10
176.9048919677734
 20
37.98514938354492
 11
181.3217926025391
 21
38.47524261474609
  0
LINE
  5
4A2
100
AcDbEntity
  8
0
  6
ByLayer
 62
  256
370
   -1
100
AcDbLine
 10
97.85236358642578
 20
36.24750900268555
 11
96.86489868164062
 21
33.96810150146484
  0
LINE
  5
4A3
100
AcDbEntity
  8
0
  6
ByLayer
 62
  256
370
   -1
100
AcDbLine
 10
152.0605010986328
 20
170.448974609375
 11
142.1448822021484
 21
171.1070251464844
  0
LINE
  5
4A4
100
AcDbEntity
  8
0
  6
ByLayer
 62
  256
370
   -1
100
AcDbLine
 10
85.32288360595703
 20
225.9930419921875
 11
86.86090087890625
 21
223.8385467529297
  0
LINE
  5
4A5
100
AcDbEntity
  8
0
  6
ByLayer
 62
  256
370
   -1
100
AcDbLine
 10
88.16780090332031
 20
216.0571594238281
 11
84.09876251220703
 21
208.7018737792969
  0
LINE
  5
4A6
100
AcDbEntity
  8
0
  6
ByLayer
 62
  256
370
   -1
100
AcDbLine
 10
88.16780090332031
 20
216.0571594238281
 11
92.21964263916016
 21
221.4565734863281
  0
LINE
  5
4A7
100
AcDbEntity
  8
0
  6
ByLayer
 62
  256
370
   -1
100
AcDbLine
 10
13.32987308502197
 20
159.1202239990234
 11
12.85117149353027
 21
164.0110626220703
  0
LINE
  5
4A8
100
AcDbEntity
  8
0
  6
ByLayer
 62
  256
370
   -1
100
AcDbLine
 10
16.58887481689453
 20
76.80382537841797
 11
20.41939163208008
 21
75.62630462646484
  0
LINE
  5
4A9
100
AcDbEntity
  8
0
  6
ByLayer
 62
  256
370
   -1
100
AcDbLine
 10
247.5811767578125
 20
83.46680450439453
 11
244.7304229736328
 21
80.69557952880859
  0
LINE
  5
4AA
100
AcDbEntity
  8
0
  6
ByLayer
 62
  256
370
   -1
100
AcDbLine
 10
247.5811767578125
 20
83.46680450439453
 11
249.0919189453125
 21
86.78965759277344
  0
LINE
  5
4AB
100
AcDbEntity
  8
0
  6
ByLayer
 62
  256
370
   -1
100
AcDbLine
 10
46.60628509521484
 20
102.1245880126953
 11
39.79230117797852
 21
105.0354461669922
  0
LINE
  5
4AC
100
AcDbEntity
  8
0
  6
ByLayer
 62
  256
370
   -1
100
AcDbLine
 10
46.60628509521484
 20
102.1245880126953
 11
53.9693603515625
 21
98.44042205810547
  0
LINE
  5
4AD
100
AcDbEntity
  8
0
  6
ByLayer
 62
  256
370
   -1
100
AcDbLine
 10
70.81000518798828
 20
94.30828094482422
 11
62.32339477539062
 21
95.64553070068359
  0
LINE
  5
4AE
100
AcDbEntity
  8
0
  6
ByLayer
 62
  256
370
   -1
100
AcDbLine
 10
74.28556060791016
 20
17.12931632995605
 11
73.88860321044922
 21
22.71602249145508
  0
LINE
  5
4AF
100
AcDbEntity
  8
0
  6
ByLayer
 62
  256
370
   -1
100
AcDbLine
 10
247.8907470703125
 20
192.8320922851562
 11
245.7673645019531
 21
197.7326049804688
  0
LINE
  5
4B0
100
AcDbEntity
  8
0
  6
ByLayer
 62
  256
370
   -1
100
AcDbLine
 10
211.0687866210938
 20
200.7625274658203
 11
214.4056549072266
 21
203.4966430664062
  0
LINE
  5
4B1
100
AcDbEntity
  8
0
  6
ByLayer
 62
  256
370
   -1
100
AcDbLine
 10
167.7595825195312
 20
211.2958984375
 11
174.4157409667969
 21
204.8698120117188
  0
LINE
  5
4B2
100
AcDbEntity
  8
0
  6
ByLayer
 62
  256
370
   -1
100
AcDbLine
 10
169.0158233642578
 20
249.950927734375
 11
176.2755889892578
 21
248.9842376708984
  0
LINE
  5
4B3
100
AcDbEntity
  8
0
  6
ByLayer
 62
  256
370
   -1
100
AcDbLine
 10
117.917236328125
 20
184.7503509521484
 11
125.2778472900391
 21
182.5970153808594
  0
LINE
  5
4B4
100
AcDbEntity
  8
0
  6
ByLayer
 62
  256
370
   -1
100
AcDbLine
 10
117.917236328125
 20
184.7503509521484
 11
114.8537673950195
 21
184.2674713134766
  0
LINE
  5
4B5
100
AcDbEntity
  8
0
  6
ByLayer
 62
  256
370
   -1
100
AcDbLine
 10
53.98992156982422
 20
126.4675140380859
 11
65.82929992675781
 21
122.0914459228516
  0
LINE
  5
4B6
100
AcDbEntity
  8
0
  6
ByLayer
 62
  256
370
   -1
100
AcDbLine
 10
36.67207336425781
 20
172.2928924560547
 11
33.18466567993164
 21
174.8522491455078
  0
LINE
  5
4B7
100
AcDbEntity
  8
0
  6
ByLayer
 62
  256
370
   -1
100
AcDbLine
 10
167.7595825195312
 20
211.2958984375
 11
161.4249572753906
 21
217.67041015625
  0
LINE
  5
4B8
100
AcDbEntity
  8
0
  6
ByLayer
 62
  256
370
   -1
100
AcDbLine
 10
228.4380340576172
 20
104.6334686279297
 11
235.4898986816406
 21
107.6918640136719
  0
LINE
  5
4B9
100
AcDbEntity
  8
0
  6
ByLayer
 62
  256
370
   -1
100
AcDbLine
 10
72.44920349121094
 20
252.7734832763672
 11
80.17375183105469
 21
254.7215728759766
  0
LINE
  5
4BA
100
AcDbEntity
  8
0
  6
ByLayer
 62
  256
370
   -1
100
AcDbLine
 10
177.4959411621094
 20
13.62379360198975
 11
183.3379821777344
 21
15.16544151306152
  0
LINE
  5
4BB
100
AcDbEntity
  8
0
  6
ByLayer
 62
  256
370
   -1
100
AcDbLine
 10
68.91485595703125
 20
132.4145965576172
 11
74.04369354248047
 21
132.9598236083984
  0
LINE
  5
4BC
100
AcDbEntity
  8
0
  6
ByLayer
 62
  256
370
   -1
100
AcDbLine
 10
7.892623424530029
 20
158.0487670898438
 11
7.428668975830078
 21
164.9152984619141
  0
LINE
  5
4BD
100
AcDbEntity
  8
0
  6
ByLayer
 62
  256
370
   -1
100
AcDbLine
 10
177.4959411621094
 20
13.62379360198975
 11
171.0724029541016
 21
14.69360446929932
  0
LINE
  5
4BE
100
AcDbEntity
  8
0
  6
ByLayer
 62
  256
370
   -1
100
AcDbLine
 10
170.1762237548828
 20
190.6957550048828
 11
165.6160430908203
 21
199.1708374023438
  0
LINE
  5
4BF
100
AcDbEntity
  8
0
  6
ByLayer
 62
  256
370
   -1
100
AcDbLine
 10
170.1762237548828
 20
190.6957550048828
 11
170.2097473144531
 21
184.2981414794922
  0
LINE
  5
4C0
100
AcDbEntity
  8
0
  6
ByLayer
 62
  256
370
   -1
100
AcDbLine
 10
175.6079711914062
 20
131.8831787109375
 11
183.9818115234375
 21
139.4240417480469
  0
LINE
  5
4C1
100
AcDbEntity
  8
0
  6
ByLayer
 62
  256
370
   -1
100
AcDbLine
 10
170.1090393066406
 20
218.7829742431641
 11
166.6952667236328
 21
219.4536437988281
  0
LINE
  5
4C2
100
AcDbEntity
  8
0
  6
ByLayer
 62
  256
370
   -1
100
AcDbLine
 10
137.9080657958984
 20
174.4363708496094
 11
142.1448822021484
 21
171.1070251464844
  0
LINE
  5
4C3
100
AcDbEntity
  8
0
  6
ByLayer
 62
  256
370
   -1
100
AcDbLine
 10
162.8240203857422
 20
147.7009887695312
 11
167.7584991455078
 21
148.4065704345703
  0
LINE
  5
4C4
100
AcDbEntity
  8
0
  6
ByLayer
 62
  256
370
   -1
100
AcDbLine
 10
81.86662292480469
 20
224.1224365234375
 11
85.32288360595703
 21
225.9930419921875
  0
LINE
  5
4C5
100
AcDbEntity
  8
0
  6
ByLayer
 62
  256
370
   -1
100
AcDbLine
 10
242.5192260742188
 20
201.9466552734375
 11
245.7673645019531
 21
197.7326049804688
  0
LINE
  5
4C6
100
AcDbEntity
  8
0
  6
ByLayer
 62
  256
370
   -1
100
AcDbLine
 10
242.5192260742188
 20
201.9466552734375
 11
236.5990905761719
 21
206.1836700439453
  0
LINE
  5
4C7
100
AcDbEntity
  8
0
  6
ByLayer
 62
  256
370
   -1
100
AcDbLine
 10
170.1090393066406
 20
218.7829742431641
 11
175.0632171630859
 21
219.4838256835938
  0
LINE
  5
4C8
100
AcDbEntity
  8
0
  6
ByLayer
 62
  256
370
   -1
100
AcDbLine
 10
153.0806121826172
 20
240.1226043701172
 11
150.043701171875
 21
233.0709991455078
  0
LINE
  5
4C9
100
AcDbEntity
  8
0
  6
ByLayer
 62
  256
370
   -1
100
AcDbLine
 10
62.72087097167969
 20
231.1252899169922
 11
65.44315338134766
 21
224.7211303710938
  0
LINE
  5
4CA
100
AcDbEntity
  8
0
  6
ByLayer
 62
  256
370
   -1
100
AcDbLine
 10
223.9463500976562
 20
201.6061553955078
 11
227.1795806884766
 21
202.1444244384766
  0
LINE
  5
4CB
100
AcDbEntity
  8
0
  6
ByLayer
 62
  256
370
   -1
100
AcDbLine
 10
223.9463500976562
 20
201.6061553955078
 11
219.3010101318359
 21
199.6762847900391
  0
LINE
  5
4CC
100
AcDbEntity
  8
0
  6
ByLayer
 62
  256
370
   -1
100
AcDbLine
 10
157.6400146484375
 20
224.7057342529297
 11
161.4249572753906
 21
217.67041015625
  0
LINE
  5
4CD
100
AcDbEntity
  8
0
  6
ByLayer
 62
  256
370
   -1
100
AcDbLine
 10
157.6400146484375
 20
224.7057342529297
 11
156.7351989746094
 21
228.7701873779297
  0
LINE
  5
4CE
100
AcDbEntity
  8
0
  6
ByLayer
 62
  256
370
   -1
100
AcDbLine
 10
102.9894104003906
 20
36.72316360473633
 11
97.43863677978516
 21
43.20062255859375
  0
LINE
  5
4CF
100
AcDbEntity
  8
0
  6
ByLayer
 62
  256
370
   -1
100
AcDbLine
 10
215.4609527587891
 20
107.8449096679688
 11
217.3324737548828
 21
99.70318603515625
  0
LINE
  5
4D0
100
AcDbEntity
  8
0
  6
ByLayer
 62
  256
370
   -1
100
AcDbLine
 10
81.86662292480469
 20
224.1224365234375
 11
77.44972991943359
 21
223.6323547363281
  0
LINE
  5
4D1
100
AcDbEntity
  8
0
  6
ByLayer
 62
  256
370
   -1
100
AcDbLine
 10
97.06624603271484
 20
210.5809478759766
 11
96.23905181884766
 21
205.7752075195312
  0
LINE
  5
4D2
100
AcDbEntity
  8
0
  6
ByLayer
 62
  256
370
   -1
100
AcDbLine
 10
71.12735748291016
 20
243.6891326904297
 11
75.43352508544922
 21
246.9421539306641
  0
LINE
  5
4D3
100
AcDbEntity
  8
0
  6
ByLayer
 62
  256
370
   -1
100
AcDbLine
 10
98.90308380126953
 20
192.6629638671875
 11
102.7781143188477
 21
188.5584716796875
  0
LINE
  5
4D4
100
AcDbEntity
  8
0
  6
ByLayer
 62
  256
370
   -1
100
AcDbLine
 10
38.95897674560547
 20
158.8004302978516
 11
39.88516235351562
 21
157.9911956787109
  0
LINE
  5
4D5
100
AcDbEntity
  8
0
  6
ByLayer
 62
  256
370
   -1
100
AcDbLine
 10
162.1455383300781
 20
12.95976543426514
 11
156.1109619140625
 21
22.04916381835938
  0
LINE
  5
4D6
100
AcDbEntity
  8
0
  6
ByLayer
 62
  256
370
   -1
100
AcDbLine
 10
193.3210296630859
 20
37.40203475952148
 11
196.0506134033203
 21
30.9822883605957
  0
LINE
  5
4D7
100
AcDbEntity
  8
0
  6
ByLayer
 62
  256
370
   -1
100
AcDbLine
 10
170.2539672851562
 20
66.77657318115234
 11
168.0601654052734
 21
61.64971542358398
  0
LINE
  5
4D8
100
AcDbEntity
  8
0
  6
ByLayer
 62
  256
370
   -1
100
AcDbLine
 10
170.2539672851562
 20
66.77657318115234
 11
169.7130279541016
 21
71.19751739501953
  0
LINE
  5
4D9
100
AcDbEntity
  8
0
  6
ByLayer
 62
  256
370
   -1
100
AcDbLine
 10
84.9937744140625
 20
61.7691764831543
 11
87.57630157470703
 21
55.17883682250977
  0
LINE
  5
4DA
100
AcDbEntity
  8
0
  6
ByLayer
 62
  256
370
   -1
100
AcDbLine
 10
84.9937744140625
 20
61.7691764831543
 11
84.66018676757812
 21
70.52943420410156
  0
LINE
  5
4DB
100
AcDbEntity
  8
0
  6
ByLayer
 62
  256
370
   -1
100
AcDbLine
 10
219.1297454833984
 20
176.1103210449219
 11
216.7788696289062
 21
180.200927734375
  0
LINE
  5
4DC
100
AcDbEntity
  8
0
  6
ByLayer
 62
  256
370
   -1
100
AcDbLine
 10
219.1297454833984
 20
176.1103210449219
 11
223.4914245605469
 21
171.4619293212891
  0
LINE
  5
4DD
100
AcDbEntity
  8
0
  6
ByLayer
 62
  256
370
   -1
100
AcDbLine
 10
205.9852142333984
 20
195.6955413818359
 11
202.8310089111328
 21
190.9846801757812
  0
LINE
  5
4DE
100
AcDbEntity
  8
0
  6
ByLayer
 62
  256
370
   -1
100
AcDbLine
 10
3.811431884765625
 20
83.91734313964844
 11
6.232596874237061
 21
79.15692901611328
  0
LINE
  5
4DF
100
AcDbEntity
  8
0
  6
ByLayer
 62
  256
370
   -1
100
AcDbLine
 10
5.254449367523193
 20
100.8918380737305
 11
3.147310972213745
 21
96.36875152587891
  0
LINE
  5
4E0
100
AcDbEntity
  8
0
  6
ByLayer
 62
  256
370
   -1
100
AcDbLine
 10
153.7341766357422
 20
29.30977249145508
 11
153.4997711181641
 21
37.24944686889648
  0
LINE
  5
4E1
100
AcDbEntity
  8
0
  6
ByLayer
 62
  256
370
   -1
100
AcDbLine
 10
37.45305252075195
 20
90.65023040771484
 11
35.80086517333984
 21
95.06948089599609
  0
LINE
  5
4E2
100
AcDbEntity
  8
0
  6
ByLayer
 62
  256
370
   -1
100
AcDbLine
 10
5.254449367523193
 20
100.8918380737305
 11
8.626235008239746
 21
105.261474609375
  0
LINE
  5
4E3
100
AcDbEntity
  8
0
  6
ByLayer
 62
  256
370
   -1
100
AcDbLine
 10
103.3459701538086
 20
47.52505493164062
 11
100.1529922485352
 21
54.57308959960938
  0
LINE
  5
4E4
100
AcDbEntity
  8
0
  6
ByLayer
 62
  256
370
   -1
100
AcDbLine
 10
103.3459701538086
 20
47.52505493164062
 11
108.5087509155273
 21
40.27410507202148
  0
LINE
  5
4E5
100
AcDbEntity
  8
0
  6
ByLayer
 62
  256
370
   -1
100
AcDbLine
 10
39.22617721557617
 20
169.0042724609375
 11
36.67207336425781
 21
172.2928924560547
  0
LINE
  5
4E6
100
AcDbEntity
  8
0
  6
ByLayer
 62
  256
370
   -1
100
AcDbLine
 10
175.5542297363281
 20
51.26409912109375
 11
165.7756500244141
 21
39.68440628051758
  0
LINE
  5
4E7
100
AcDbEntity
  8
0
  6
ByLayer
 62
  256
370
   -1
100
AcDbLine
 10
86.57909393310547
 20
37.90349960327148
 11
92.94565582275391
 21
37.58671569824219
  0
LINE
  5
4E8
100
AcDbEntity
  8
0
  6
ByLayer
 62
  256
370
   -1
100
AcDbLine
 10
37.62575149536133
 20
180.1899719238281
 11
30.25721549987793
 21
182.3468933105469
  0
LINE
  5
4E9
100
AcDbEntity
  8
0
  6
ByLayer
 62
  256
370
   -1
100
AcDbLine
 10
37.62575149536133
 20
180.1899719238281
 11
42.40448379516602
 21
176.8777465820312
  0
LINE
  5
4EA
100
AcDbEntity
  8
0
  6
ByLayer
 62
  256
370
   -1
100
AcDbLine
 10
81.52767944335938
 20
107.6830291748047
 11
91.55043792724609
 21
112.5585556030273
  0
LINE
  5
4EB
100
AcDbEntity
  8
0
  6
ByLayer
 62
  256
370
   -1
100
AcDbLine
 10
81.52767944335938
 20
107.6830291748047
 11
74.19316101074219
 21
105.5302581787109
  0
LINE
  5
4EC
100
AcDbEntity
  8
0
  6
ByLayer
 62
  256
370
   -1
100
AcDbLine
 10
13.11742401123047
 20
79.26227569580078
 11
16.58887481689453
 21
76.80382537841797
  0
LINE
  5
4ED
100
AcDbEntity
  8
0
  6
ByLayer
 62
  256
370
   -1
100
AcDbLine
 10
79.16140747070312
 20
93.94252014160156
 11
88.12542724609375
 21
94.33352661132812
  0
LINE
  5
4EE
100
AcDbEntity
  8
0
  6
ByLayer
 62
  256
370
   -1
100
AcDbLine
 10
79.16140747070312
 20
93.94252014160156
 11
70.81000518798828
 21
94.30828094482422
  0
LINE
  5
4EF
100
AcDbEntity
  8
0
  6
ByLayer
 62
  256
370
   -1
100
AcDbLine
 10
222.5254516601562
 20
94.893310546875
 11
224.9110107421875
 21
94.2005615234375
  0
LINE
  5
4F0
100
AcDbEntity
  8
0
  6
ByLayer
 62
  256
370
   -1
100
AcDbLine
 10
210.0111541748047
 20
190.1204223632812
 11
213.0511016845703
 21
194.2290496826172
  0
LINE
  5
4F1
100
AcDbEntity
  8
0
  6
ByLayer
 62
  256
370
   -1
100
AcDbLine
 10
39.22617721557617
 20
169.0042724609375
 11
42.23231887817383
 21
161.6025848388672
  0
LINE
  5
4F2
100
AcDbEntity
  8
0
  6
ByLayer
 62
  256
370
   -1
100
AcDbLine
 10
254.2675018310547
 20
84.91602325439453
 11
251.9818115234375
 21
80.1480712890625
  0
LINE
  5
4F3
100
AcDbEntity
  8
0
  6
ByLayer
 62
  256
370
   -1
100
AcDbLine
 10
254.2675018310547
 20
84.91602325439453
 11
255.5577697753906
 21
90.08295440673828
  0
LINE
  5
4F4
100
AcDbEntity
  8
0
  6
ByLayer
 62
  256
370
   -1
100
AcDbLine
 10
153.4997711181641
 20
37.24944686889648
 11
156.326416015625
 21
44.85958099365234
  0
LINE
  5
4F5
100
AcDbEntity
  8
0
  6
ByLayer
 62
  256
370
   -1
100
AcDbLine
 10
10.48074436187744
 20
152.7549133300781
 11
7.892623424530029
 21
158.0487670898438
  0
LINE
  5
4F6
100
AcDbEntity
  8
0
  6
ByLayer
 62
  256
370
   -1
100
AcDbLine
 10
180.9938049316406
 20
186.209716796875
 11
180.0149841308594
 21
195.1000671386719
  0
LINE
  5
4F7
100
AcDbEntity
  8
0
  6
ByLayer
 62
  256
370
   -1
100
AcDbLine
 10
99.15619659423828
 20
11.27028465270996
 11
94.63076782226562
 21
10.08920383453369
  0
LINE
  5
4F8
100
AcDbEntity
  8
0
  6
ByLayer
 62
  256
370
   -1
100
AcDbLine
 10
99.15619659423828
 20
11.27028465270996
 11
103.8541793823242
 21
14.80553722381592
  0
LINE
  5
4F9
100
AcDbEntity
  8
0
  6
ByLayer
 62
  256
370
   -1
100
AcDbLine
 10
188.5682067871094
 20
114.5606689453125
 11
181.2823333740234
 21
110.0668487548828
  0
LINE
  5
4FA
100
AcDbEntity
  8
0
  6
ByLayer
 62
  256
370
   -1
100
AcDbLine
 10
165.6708068847656
 20
218.4052429199219
 11
165.7035980224609
 21
217.1757507324219
  0
LINE
  5
4FB
100
AcDbEntity
  8
0
  6
ByLayer
 62
  256
370
   -1
100
AcDbLine
 10
165.6708068847656
 20
218.4052429199219
 11
166.6952667236328
 21
219.4536437988281
  0
LINE
  5
4FC
100
AcDbEntity
  8
0
  6
ByLayer
 62
  256
370
   -1
100
AcDbLine
 10
188.5102081298828
 20
41.20621871948242
 11
193.3210296630859
 21
37.40203475952148
  0
LINE
  5
4FD
100
AcDbEntity
  8
0
  6
ByLayer
 62
  256
370
   -1
100
AcDbLine
 10
153.7341766357422
 20
29.30977249145508
 11
156.1109619140625
 21
22.04916381835938
  0
LINE
  5
4FE
100
AcDbEntity
  8
0
  6
ByLayer
 62
  256
370
   -1
100
AcDbLine
 10
237.3169250488281
 20
169.8070526123047
 11
243.1682586669922
 21
173.5666046142578
  0
LINE
  5
4FF
100
AcDbEntity
  8
0
  6
ByLayer
 62
  256
370
   -1
100
AcDbLine
 10
237.3169250488281
 20
169.8070526123047
 11
230.8405456542969
 21
169.2049407958984
  0
LINE
  5
500
100
AcDbEntity
  8
0
  6
ByLayer
 62
  256
370
   -1
100
AcDbLine
 10
249.0203704833984
 20
187.6949462890625
 11
247.8907470703125
 21
192.8320922851562
  0
LINE
  5
501
100
AcDbEntity
  8
0
  6
ByLayer
 62
  256
370
   -1
100
AcDbLine
 10
249.0203704833984
 20
187.6949462890625
 11
248.4962768554688
 21
182.5422210693359
  0
LINE
  5
502
100
AcDbEntity
  8
0
  6
ByLayer
 62
  256
370
   -1
100
AcDbLine
 10
158.4684295654297
 20
237.3591613769531
 11
161.5401306152344
 21
241.0805816650391
  0
LINE
  5
503
100
AcDbEntity
  8
0
  6
ByLayer
 62
  256
370
   -1
100
AcDbLine
 10
187.2774200439453
 20
224.1313171386719
 11
183.0385284423828
 21
219.1964416503906
  0
LINE
  5
504
100
AcDbEntity
  8
0
  6
ByLayer
 62
  256
370
   -1
100
AcDbLine
 10
34.73313140869141
 20
90.15060424804688
 11
33.61814498901367
 21
94.12667083740234
  0
LINE
  5
505
100
AcDbEntity
  8
0
  6
ByLayer
 62
  256
370
   -1
100
AcDbLine
 10
23.60243225097656
 20
112.578987121582
 11
19.36856460571289
 21
111.7518615722656
  0
LINE
  5
506
100
AcDbEntity
  8
0
  6
ByLayer
 62
  256
370
   -1
100
AcDbLine
 10
61.99539566040039
 20
236.8232269287109
 11
62.72087097167969
 21
231.1252899169922
  0
LINE
  5
507
100
AcDbEntity
  8
0
  6
ByLayer
 62
  256
370
   -1
100
AcDbLine
 10
67.48845672607422
 20
232.8399200439453
 11
67.58175659179688
 21
236.0240478515625
  0
LINE
  5
508
100
AcDbEntity
  8
0
  6
ByLayer
 62
  256
370
   -1
100
AcDbLine
 10
67.48845672607422
 20
232.8399200439453
 11
69.27555084228516
 21
228.6169891357422
  0
LINE
  5
509
100
AcDbEntity
  8
0
  6
ByLayer
 62
  256
370
   -1
100
AcDbLine
 10
85.29839324951172
 20
5.433522701263428
 11
90.42876434326172
 21
4.154067993164062
  0
LINE
  5
50A
100
AcDbEntity
  8
0
  6
ByLayer
 62
  256
370
   -1
100
AcDbLine
 10
85.29839324951172
 20
5.433522701263428
 11
80.49542236328125
 21
7.734216690063477
  0
LINE
  5
50B
100
AcDbEntity
  8
0
  6
ByLayer
 62
  256
370
   -1
100
AcDbLine
 10
79.7860107421875
 20
27.09873199462891
 11
78.65232849121094
 21
22.4985179901123
  0
LINE
  5
50C
100
AcDbEntity
  8
0
  6
ByLayer
 62
  256
370
   -1
100
AcDbLine
 10
224.6225280761719
 20
99.52706909179688
 11
222.5254516601562
 21
94.893310546875
  0
LINE
  5
50D
100
AcDbEntity
  8
0
  6
ByLayer
 62
  256
370
   -1
100
AcDbLine
 10
224.6225280761719
 20
99.52706909179688
 11
228.4380340576172
 21
104.6334686279297
  0
LINE
  5
50E
100
AcDbEntity
  8
0
  6
ByLayer
 62
  256
370
   -1
100
AcDbLine
 10
65.54756927490234
 20
246.8308563232422
 11
72.44920349121094
 21
252.7734832763672
  0
LINE
  5
50F
100
AcDbEntity
  8
0
  6
ByLayer
 62
  256
370
   -1
100
AcDbLine
 10
137.9080657958984
 20
174.4363708496094
 11
130.1833038330078
 21
179.6324157714844
  0
LINE
  5
510
100
AcDbEntity
  8
0
  6
ByLayer
 62
  256
370
   -1
100
AcDbLine
 10
101.3232727050781
 20
217.3357696533203
 11
97.06624603271484
 21
210.5809478759766
  0
LINE
  5
511
100
AcDbEntity
  8
0
  6
ByLayer
 62
  256
370
   -1
100
AcDbLine
 10
37.45305252075195
 20
90.65023040771484
 11
38.25270080566406
 21
84.32625579833984
  0
LINE
  5
512
100
AcDbEntity
  8
0
  6
ByLayer
 62
  256
370
   -1
100
AcDbLine
 10
187.6441650390625
 20
18.41846656799316
 11
183.3379821777344
 21
15.16544151306152
  0
LINE
  5
513
100
AcDbEntity
  8
0
  6
ByLayer
 62
  256
370
   -1
100
AcDbLine
 10
183.5203704833984
 20
234.1626586914062
 11
184.1140747070312
 21
231.1163482666016
  0
LINE
  5
514
100
AcDbEntity
  8
0
  6
ByLayer
 62
  256
370
   -1
100
AcDbLine
 10
191.1897583007812
 20
26.08354377746582
 11
191.2801971435547
 21
29.26633071899414
  0
LINE
  5
515
100
AcDbEntity
  8
0
  6
ByLayer
 62
  256
370
   -1
100
AcDbLine
 10
163.2224426269531
 20
33.55971908569336
 11
165.7756500244141
 21
39.68440628051758
  0
LINE
  5
516
100
AcDbEntity
  8
0
  6
ByLayer
 62
  256
370
   -1
100
AcDbLine
 10
170.8703460693359
 20
8.625791549682617
 11
162.1455383300781
 21
12.95976543426514
  0
LINE
  5
517
100
AcDbEntity
  8
0
  6
ByLayer
 62
  256
370
   -1
100
AcDbLine
 10
96.53543090820312
 20
233.4389801025391
 11
95.83929443359375
 21
237.3498077392578
  0
LINE
  5
518
100
AcDbEntity
  8
0
  6
ByLayer
 62
  256
370
   -1
100
AcDbLine
 10
90.18161010742188
 20
119.0010833740234
 11
91.79916381835938
 21
118.8021850585938
  0
LINE
  5
519
100
AcDbEntity
  8
0
  6
ByLayer
 62
  256
370
   -1
100
AcDbLine
 10
90.18161010742188
 20
119.0010833740234
 11
87.09121704101562
 21
119.3984756469727
  0
LINE
  5
51A
100
AcDbEntity
  8
0
  6
ByLayer
 62
  256
370
   -1
100
AcDbLine
 10
107.0105056762695
 20
29.79541206359863
 11
102.9894104003906
 21
36.72316360473633
  0
LINE
  5
51B
100
AcDbEntity
  8
0
  6
ByLayer
 62
  256
370
   -1
100
AcDbLine
 10
215.4609527587891
 20
107.8449096679688
 11
214.1878662109375
 21
115.383415222168
  0
LINE
  5
51C
100
AcDbEntity
  8
0
  6
ByLayer
 62
  256
370
   -1
100
AcDbLine
 10
231.0488128662109
 20
76.42439270019531
 11
227.8316650390625
 21
77.50228118896484
  0
LINE
  5
51D
100
AcDbEntity
  8
0
  6
ByLayer
 62
  256
370
   -1
100
AcDbLine
 10
37.49808502197266
 20
158.6797332763672
 11
35.83799362182617
 21
155.6223297119141
  0
LINE
  5
51E
100
AcDbEntity
  8
0
  6
ByLayer
 62
  256
370
   -1
100
AcDbLine
 10
37.49808502197266
 20
158.6797332763672
 11
38.95897674560547
 21
158.8004302978516
  0
LINE
  5
51F
100
AcDbEntity
  8
0
  6
ByLayer
 62
  256
370
   -1
100
AcDbLine
 10
68.56797790527344
 20
240.0233612060547
 11
71.12735748291016
 21
243.6891326904297
  0
LINE
  5
520
100
AcDbEntity
  8
0
  6
ByLayer
 62
  256
370
   -1
100
AcDbLine
 10
79.72655487060547
 20
34.42131805419922
 11
86.57909393310547
 21
37.90349960327148
  0
LINE
  5
521
100
AcDbEntity
  8
0
  6
ByLayer
 62
  256
370
   -1
100
AcDbLine
 10
79.72655487060547
 20
34.42131805419922
 11
75.48766326904297
 21
29.48643493652344
  0
LINE
  5
522
100
AcDbEntity
  8
0
  6
ByLayer
 62
  256
370
   -1
100
AcDbLine
 10
95.34444427490234
 20
228.5740203857422
 11
92.21964263916016
 21
221.4565734863281
  0
LINE
  5
523
100
AcDbEntity
  8
0
  6
ByLayer
 62
  256
370
   -1
100
AcDbLine
 10
15.43886852264404
 20
155.0976867675781
 11
13.32987308502197
 21
159.1202239990234
  0
LINE
  5
524
100
AcDbEntity
  8
0
  6
ByLayer
 62
  256
370
   -1
100
AcDbLine
 10
15.43886852264404
 20
155.0976867675781
 11
17.406982421875
 21
152.6979064941406
  0
LINE
  5
525
100
AcDbEntity
  8
0
  6
ByLayer
 62
  256
370
   -1
100
AcDbLine
 10
235.2160797119141
 20
76.59773254394531
 11
231.0488128662109
 21
76.42439270019531
  0
LINE
  5
526
100
AcDbEntity
  8
0
  6
ByLayer
 62
  256
370
   -1
100
AcDbLine
 10
10.78301811218262
 20
81.79399871826172
 11
13.11742401123047
 21
79.26227569580078
  0
LINE
  5
527
100
AcDbEntity
  8
0
  6
ByLayer
 62
  256
370
   -1
100
AcDbLine
 10
235.2160797119141
 20
76.59773254394531
 11
240.9349975585938
 21
77.96254730224609
  0
LINE
  5
528
100
AcDbEntity
  8
0
  6
ByLayer
 62
  256
370
   -1
100
AcDbLine
 10
97.87030792236328
 20
59.38116073608398
 11
100.1529922485352
 21
54.57308959960938
  0
LINE
  5
529
100
AcDbEntity
  8
0
  6
ByLayer
 62
  256
370
   -1
100
AcDbLine
 10
249.9617004394531
 20
90.41947937011719
 11
248.9997711181641
 21
95.05152130126953
  0
LINE
  5
52A
100
AcDbEntity
  8
0
  6
ByLayer
 62
  256
370
   -1
100
AcDbLine
 10
206.662109375
 20
105.1921615600586
 11
204.3504943847656
 21
110.2104263305664
  0
LINE
  5
52B
100
AcDbEntity
  8
0
  6
ByLayer
 62
  256
370
   -1
100
AcDbLine
 10
210.6931304931641
 20
121.712516784668
 11
214.1878662109375
 21
115.383415222168
  0
LINE
  5
52C
100
AcDbEntity
  8
0
  6
ByLayer
 62
  256
370
   -1
100
AcDbLine
 10
210.6931304931641
 20
121.712516784668
 11
204.2369995117188
 21
127.6836624145508
  0
LINE
  5
52D
100
AcDbEntity
  8
0
  6
ByLayer
 62
  256
370
   -1
100
AcDbLine
 10
202.5972290039062
 20
168.3544769287109
 11
199.4234313964844
 21
160.1369171142578
  0
LINE
  5
52E
100
AcDbEntity
  8
0
  6
ByLayer
 62
  256
370
   -1
100
AcDbLine
 10
202.5972290039062
 20
168.3544769287109
 11
204.4541778564453
 21
176.3757019042969
  0
LINE
  5
52F
100
AcDbEntity
  8
0
  6
ByLayer
 62
  256
370
   -1
100
AcDbLine
 10
28.95052909851074
 20
176.4343872070312
 11
33.18466567993164
 21
174.8522491455078
  0
LINE
  5
530
100
AcDbEntity
  8
0
  6
ByLayer
 62
  256
370
   -1
100
AcDbLine
 10
243.0998992919922
 20
183.3538360595703
 11
241.5644989013672
 21
179.6522064208984
  0
LINE
  5
531
100
AcDbEntity
  8
0
  6
ByLayer
 62
  256
370
   -1
100
AcDbLine
 10
243.0998992919922
 20
183.3538360595703
 11
243.4195404052734
 21
187.5956115722656
  0
LINE
  5
532
100
AcDbEntity
  8
0
  6
ByLayer
 62
  256
370
   -1
100
AcDbLine
 10
206.0226745605469
 20
195.7521667480469
 11
211.0687866210938
 21
200.7625274658203
  0
LINE
  5
533
100
AcDbEntity
  8
0
  6
ByLayer
 62
  256
370
   -1
100
AcDbLine
 10
206.0226745605469
 20
195.7521667480469
 11
205.9852142333984
 21
195.6955413818359
  0
LINE
  5
534
100
AcDbEntity
  8
0
  6
ByLayer
 62
  256
370
   -1
100
AcDbLine
 10
2.63633918762207
 20
89.10655212402344
 11
3.147310972213745
 21
96.36875152587891
  0
LINE
  5
535
100
AcDbEntity
  8
0
  6
ByLayer
 62
  256
370
   -1
100
AcDbLine
 10
2.63633918762207
 20
89.10655212402344
 11
3.811431884765625
 21
83.91734313964844
  0
LINE
  5
536
100
AcDbEntity
  8
0
  6
ByLayer
 62
  256
370
   -1
100
AcDbLine
 10
157.5850067138672
 20
245.6824493408203
 11
153.0806121826172
 21
240.1226043701172
  0
LINE
  5
537
100
AcDbEntity
  8
0
  6
ByLayer
 62
  256
370
   -1
100
AcDbLine
 10
50.96630096435547
 20
108.51171875
 11
57.52236175537109
 21
106.0600280761719
  0
LINE
  5
538
100
AcDbEntity
  8
0
  6
ByLayer
 62
  256
370
   -1
100
AcDbLine
 10
50.96630096435547
 20
108.51171875
 11
43.85546493530273
 21
110.7898712158203
  0
LINE
  5
539
100
AcDbEntity
  8
0
  6
ByLayer
 62
  256
370
   -1
100
AcDbLine
 10
206.556640625
 20
183.4808197021484
 11
204.4541778564453
 21
176.3757019042969
  0
LINE
  5
53A
100
AcDbEntity
  8
0
  6
ByLayer
 62
  256
370
   -1
100
AcDbLine
 10
206.556640625
 20
183.4808197021484
 11
210.0111541748047
 21
190.1204223632812
  0
LINE
  5
53B
100
AcDbEntity
  8
0
  6
ByLayer
 62
  256
370
   -1
100
AcDbLine
 10
47.76546478271484
 20
132.8903350830078
 11
53.98992156982422
 21
126.4675140380859
  0
LINE
  5
53C
100
AcDbEntity
  8
0
  6
ByLayer
 62
  256
370
   -1
100
AcDbLine
 10
47.76546478271484
 20
132.8903350830078
 11
43.80975723266602
 21
143.4332122802734
  0
LINE
  5
53D
100
AcDbEntity
  8
0
  6
ByLayer
 62
  256
370
   -1
100
AcDbLine
 10
28.95052909851074
 20
176.4343872070312
 11
24.12510299682617
 21
176.4410247802734
  0
LINE
  5
53E
100
AcDbEntity
  8
0
  6
ByLayer
 62
  256
370
   -1
100
AcDbLine
 10
20.17055130004883
 20
174.8640747070312
 11
24.12510299682617
 21
176.4410247802734
  0
LINE
  5
53F
100
AcDbEntity
  8
0
  6
ByLayer
 62
  256
370
   -1
100
AcDbLine
 10
20.17055130004883
 20
174.8640747070312
 11
15.91356182098389
 21
171.595703125
  0
LINE
  5
540
100
AcDbEntity
  8
0
  6
ByLayer
 62
  256
370
   -1
100
AcDbLine
 10
62.33874893188477
 20
133.5559844970703
 11
68.91485595703125
 21
132.4145965576172
  0
LINE
  5
541
100
AcDbEntity
  8
0
  6
ByLayer
 62
  256
370
   -1
100
AcDbLine
 10
62.33874893188477
 20
133.5559844970703
 11
57.43180465698242
 21
137.6611633300781
  0
LINE
  5
542
100
AcDbEntity
  8
0
  6
ByLayer
 62
  256
370
   -1
100
AcDbLine
 10
188.8764495849609
 20
230.9017181396484
 11
187.2774200439453
 21
224.1313171386719
  0
LINE
  5
543
100
AcDbEntity
  8
0
  6
ByLayer
 62
  256
370
   -1
100
AcDbLine
 10
188.8764495849609
 20
230.9017181396484
 11
188.4865875244141
 21
236.4882659912109
  0
LINE
  5
544
100
AcDbEntity
  8
0
  6
ByLayer
 62
  256
370
   -1
100
AcDbLine
 10
181.7664184570312
 20
238.3522033691406
 11
178.3040924072266
 21
241.8395538330078
  0
LINE
  5
545
100
AcDbEntity
  8
0
  6
ByLayer
 62
  256
370
   -1
100
AcDbLine
 10
181.7664184570312
 20
238.3522033691406
 11
183.5203704833984
 21
234.1626586914062
  0
LINE
  5
546
100
AcDbEntity
  8
0
  6
ByLayer
 62
  256
370
   -1
100
AcDbLine
 10
212.6287536621094
 20
89.25180053710938
 11
216.1908416748047
 21
80.71285247802734
  0
LINE
  5
547
100
AcDbEntity
  8
0
  6
ByLayer
 62
  256
370
   -1
100
AcDbLine
 10
83.00901794433594
 20
30.92978858947754
 11
79.7860107421875
 21
27.09873199462891
  0
LINE
  5
548
100
AcDbEntity
  8
0
  6
ByLayer
 62
  256
370
   -1
100
AcDbLine
 10
83.00901794433594
 20
30.92978858947754
 11
87.70186614990234
 21
34.13391876220703
  0
LINE
  5
549
100
AcDbEntity
  8
0
  6
ByLayer
 62
  256
370
   -1
100
AcDbLine
 10
88.64024353027344
 20
77.95476531982422
 11
84.66018676757812
 21
70.52943420410156
  0
LINE
  5
54A
100
AcDbEntity
  8
0
  6
ByLayer
 62
  256
370
   -1
100
AcDbLine
 10
193.9157104492188
 20
115.6668472290039
 11
188.5682067871094
 21
114.5606689453125
  0
LINE
  5
54B
100
AcDbEntity
  8
0
  6
ByLayer
 62
  256
370
   -1
100
AcDbLine
 10
212.6287536621094
 20
89.25180053710938
 11
210.2201843261719
 21
97.90323638916016
  0
LINE
  5
54C
100
AcDbEntity
  8
0
  6
ByLayer
 62
  256
370
   -1
100
AcDbLine
 10
178.5977783203125
 20
7.38602876663208
 11
186.3223114013672
 21
9.334103584289551
  0
LINE
  5
54D
100
AcDbEntity
  8
0
  6
ByLayer
 62
  256
370
   -1
100
AcDbLine
 10
178.5977783203125
 20
7.38602876663208
 11
170.8703460693359
 21
8.625791549682617
  0
LINE
  5
54E
100
AcDbEntity
  8
0
  6
ByLayer
 62
  256
370
   -1
100
AcDbLine
 10
161.2335510253906
 20
148.316650390625
 11
161.4332733154297
 21
150.2709655761719
  0
LINE
  5
54F
100
AcDbEntity
  8
0
  6
ByLayer
 62
  256
370
   -1
100
AcDbLine
 10
161.2335510253906
 20
148.316650390625
 11
162.8240203857422
 21
147.7009887695312
  0
LINE
  5
550
100
AcDbEntity
  8
0
  6
ByLayer
 62
  256
370
   -1
100
AcDbLine
 10
181.6266479492188
 20
42.86741256713867
 11
188.5102081298828
 21
41.20621871948242
  0
LINE
  5
551
100
AcDbEntity
  8
0
  6
ByLayer
 62
  256
370
   -1
100
AcDbLine
 10
160.7897338867188
 20
81.48432159423828
 11
150.570068359375
 21
82.92254638671875
  0
LINE
  5
552
100
AcDbEntity
  8
0
  6
ByLayer
 62
  256
370
   -1
100
AcDbLine
 10
160.7897338867188
 20
81.48432159423828
 11
167.5738067626953
 21
76.91233825683594
  0
LINE
  5
553
100
AcDbEntity
  8
0
  6
ByLayer
 62
  256
370
   -1
100
AcDbLine
 10
76.38653564453125
 20
12.59595108032227
 11
74.28556060791016
 21
17.12931632995605
  0
LINE
  5
554
100
AcDbEntity
  8
0
  6
ByLayer
 62
  256
370
   -1
100
AcDbLine
 10
76.38653564453125
 20
12.59595108032227
 11
80.49542236328125
 21
7.734216690063477
  0
LINE
  5
555
100
AcDbEntity
  8
0
  6
ByLayer
 62
  256
370
   -1
100
AcDbLine
 10
26.67854499816895
 20
150.6808166503906
 11
32.13913345336914
 21
152.2528228759766
  0
LINE
  5
556
100
AcDbEntity
  8
0
  6
ByLayer
 62
  256
370
   -1
100
AcDbLine
 10
193.9157104492188
 20
115.6668472290039
 11
197.3329162597656
 21
115.4349060058594
  0
LINE
  5
557
100
AcDbEntity
  8
0
  6
ByLayer
 62
  256
370
   -1
100
AcDbLine
 10
14.53566455841064
 20
148.8923950195312
 11
20.77078628540039
 21
145.8071594238281
  0
LINE
  5
558
100
AcDbEntity
  8
0
  6
ByLayer
 62
  256
370
   -1
100
AcDbLine
 10
14.53566455841064
 20
148.8923950195312
 11
10.48074436187744
 21
152.7549133300781
  0
LINE
  5
559
100
AcDbEntity
  8
0
  6
ByLayer
 62
  256
370
   -1
100
AcDbLine
 10
63.00503921508789
 20
241.9770660400391
 11
61.99539566040039
 21
236.8232269287109
  0
LINE
  5
55A
100
AcDbEntity
  8
0
  6
ByLayer
 62
  256
370
   -1
100
AcDbLine
 10
63.00503921508789
 20
241.9770660400391
 11
65.54756927490234
 21
246.8308563232422
  0
LINE
  5
55B
100
AcDbEntity
  8
0
  6
ByLayer
 62
  256
370
   -1
100
AcDbLine
 10
181.6266479492188
 20
42.86741256713867
 11
175.975341796875
 21
40.83850860595703
  0
LINE
  5
55C
100
AcDbEntity
  8
0
  6
ByLayer
 62
  256
370
   -1
100
AcDbLine
 10
247.2989349365234
 20
98.50373077392578
 11
248.9997711181641
 21
95.05152130126953
  0
LINE
  5
55D
100
AcDbEntity
  8
0
  6
ByLayer
 62
  256
370
   -1
100
AcDbLine
 10
247.2989349365234
 20
98.50373077392578
 11
245.3594207763672
 21
100.9169692993164
  0
LINE
  5
55E
100
AcDbEntity
  8
0
  6
ByLayer
 62
  256
370
   -1
100
AcDbLine
 10
136.7407836914062
 20
84.12453460693359
 11
143.3536987304688
 21
83.51449584960938
  0
LINE
  5
55F
100
AcDbEntity
  8
0
  6
ByLayer
 62
  256
370
   -1
100
AcDbLine
 10
136.7407836914062
 20
84.12453460693359
 11
129.1258392333984
 21
84.21076965332031
  0
LINE
  5
560
100
AcDbEntity
  8
0
  6
ByLayer
 62
  256
370
   -1
100
AcDbLine
 10
231.7711639404297
 20
207.4445343017578
 11
226.2551422119141
 21
207.6333770751953
  0
LINE
  5
561
100
AcDbEntity
  8
0
  6
ByLayer
 62
  256
370
   -1
100
AcDbLine
 10
231.7711639404297
 20
207.4445343017578
 11
236.5990905761719
 21
206.1836700439453
  0
LINE
  5
562
100
AcDbEntity
  8
0
  6
ByLayer
 62
  256
370
   -1
100
AcDbLine
 10
156.9873504638672
 20
233.0886077880859
 11
156.7351989746094
 21
228.7701873779297
  0
LINE
  5
563
100
AcDbEntity
  8
0
  6
ByLayer
 62
  256
370
   -1
100
AcDbLine
 10
156.9873504638672
 20
233.0886077880859
 11
158.4684295654297
 21
237.3591613769531
  0
LINE
  5
564
100
AcDbEntity
  8
0
  6
ByLayer
 62
  256
370
   -1
100
AcDbLine
 10
165.2765045166016
 20
243.1214141845703
 11
161.5401306152344
 21
241.0805816650391
  0
LINE
  5
565
100
AcDbEntity
  8
0
  6
ByLayer
 62
  256
370
   -1
100
AcDbLine
 10
165.2765045166016
 20
243.1214141845703
 11
170.5086517333984
 21
244.3167114257812
  0
LINE
  5
566
100
AcDbEntity
  8
0
  6
ByLayer
 62
  256
370
   -1
100
AcDbLine
 10
68.56797790527344
 20
240.0233612060547
 11
67.58175659179688
 21
236.0240478515625
  0
LINE
  5
567
100
AcDbEntity
  8
0
  6
ByLayer
 62
  256
370
   -1
100
AcDbLine
 10
150.1630401611328
 20
221.6292114257812
 11
149.5481719970703
 21
227.2777709960938
  0
LINE
  5
568
100
AcDbEntity
  8
0
  6
ByLayer
 62
  256
370
   -1
100
AcDbLine
 10
150.1630401611328
 20
221.6292114257812
 11
154.2834777832031
 21
213.3529205322266
  0
LINE
  5
569
100
AcDbEntity
  8
0
  6
ByLayer
 62
  256
370
   -1
100
AcDbLine
 10
10.78301811218262
 20
81.79399871826172
 11
9.058524131774902
 21
84.79095458984375
  0
LINE
  5
56A
100
AcDbEntity
  8
0
  6
ByLayer
 62
  256
370
   -1
100
AcDbLine
 10
184.2402496337891
 20
157.2960357666016
 11
177.9051818847656
 21
153.0186767578125
  0
LINE
  5
56B
100
AcDbEntity
  8
0
  6
ByLayer
 62
  256
370
   -1
100
AcDbLine
 10
184.2402496337891
 20
157.2960357666016
 11
189.6083831787109
 21
162.0382385253906
  0
LINE
  5
56C
100
AcDbEntity
  8
0
  6
ByLayer
 62
  256
370
   -1
100
AcDbLine
 10
34.4109992980957
 20
85.15582275390625
 11
31.57521438598633
 21
80.23402404785156
  0
LINE
  5
56D
100
AcDbEntity
  8
0
  6
ByLayer
 62
  256
370
   -1
100
AcDbLine
 10
34.4109992980957
 20
85.15582275390625
 11
34.73313140869141
 21
90.15060424804688
  0
LINE
  5
56E
100
AcDbEntity
  8
0
  6
ByLayer
 62
  256
370
   -1
100
AcDbLine
 10
230.9016265869141
 20
173.9964904785156
 11
225.3019714355469
 21
174.9502868652344
  0
LINE
  5
56F
100
AcDbEntity
  8
0
  6
ByLayer
 62
  256
370
   -1
100
AcDbLine
 10
230.9016265869141
 20
173.9964904785156
 11
235.8838958740234
 21
174.5112457275391
  0
LINE
  5
570
100
AcDbEntity
  8
0
  6
ByLayer
 62
  256
370
   -1
100
AcDbLine
 10
12.26512050628662
 20
101.0493927001953
 11
14.74137592315674
 21
103.1968460083008
  0
LINE
  5
571
100
AcDbEntity
  8
0
  6
ByLayer
 62
  256
370
   -1
100
AcDbLine
 10
12.26512050628662
 20
101.0493927001953
 11
10.1513090133667
 21
97.96039581298828
  0
LINE
  5
572
100
AcDbEntity
  8
0
  6
ByLayer
 62
  256
370
   -1
100
AcDbLine
 10
30.67971801757812
 20
113.2714309692383
 11
23.60243225097656
 21
112.578987121582
  0
LINE
  5
573
100
AcDbEntity
  8
0
  6
ByLayer
 62
  256
370
   -1
100
AcDbLine
 10
30.67971801757812
 20
113.2714309692383
 11
36.38737869262695
 21
112.6901626586914
  0
LINE
  5
574
100
AcDbEntity
  8
0
  6
ByLayer
 62
  256
370
   -1
100
AcDbLine
 10
162.5532836914062
 20
248.2118377685547
 11
157.5850067138672
 21
245.6824493408203
  0
LINE
  5
575
100
AcDbEntity
  8
0
  6
ByLayer
 62
  256
370
   -1
100
AcDbLine
 10
162.5532836914062
 20
248.2118377685547
 11
169.0158233642578
 21
249.950927734375
  0
LINE
  5
576
100
AcDbEntity
  8
0
  6
ByLayer
 62
  256
370
   -1
100
AcDbLine
 10
206.662109375
 20
105.1921615600586
 11
210.2201843261719
 21
97.90323638916016
  0
LINE
  5
577
100
AcDbEntity
  8
0
  6
ByLayer
 62
  256
370
   -1
100
AcDbLine
 10
93.05299377441406
 20
242.9385833740234
 11
95.83929443359375
 21
237.3498077392578
  0
LINE
  5
578
100
AcDbEntity
  8
0
  6
ByLayer
 62
  256
370
   -1
100
AcDbLine
 10
93.05299377441406
 20
242.9385833740234
 11
87.70046997070312
 21
247.4111328125
  0
LINE
  5
579
100
AcDbEntity
  8
0
  6
ByLayer
 62
  256
370
   -1
100
AcDbLine
 10
166.8958587646484
 20
178.5045166015625
 11
170.2097473144531
 21
184.2981414794922
  0
LINE
  5
57A
100
AcDbEntity
  8
0
  6
ByLayer
 62
  256
370
   -1
100
AcDbLine
 10
166.8958587646484
 20
178.5045166015625
 11
163.2055358886719
 21
174.9012603759766
  0
LINE
  5
57B
100
AcDbEntity
  8
0
  6
ByLayer
 62
  256
370
   -1
100
AcDbLine
 10
158.4147644042969
 20
172.2770080566406
 11
152.0605010986328
 21
170.448974609375
  0
LINE
  5
57C
100
AcDbEntity
  8
0
  6
ByLayer
 62
  256
370
   -1
100
AcDbLine
 10
158.4147644042969
 20
172.2770080566406
 11
163.2055358886719
 21
174.9012603759766
  0
LINE
  5
57D
100
AcDbEntity
  8
0
  6
ByLayer
 62
  256
370
   -1
100
AcDbLine
 10
107.0105056762695
 20
29.79541206359863
 11
108.0385284423828
 21
25.26089286804199
  0
LINE
  5
57E
100
AcDbEntity
  8
0
  6
ByLayer
 62
  256
370
   -1
100
AcDbLine
 10
22.18585586547852
 20
106.2755813598633
 11
27.37142181396484
 21
106.8859634399414
  0
LINE
  5
57F
100
AcDbEntity
  8
0
  6
ByLayer
 62
  256
370
   -1
100
AcDbLine
 10
22.18585586547852
 20
106.2755813598633
 11
19.19007873535156
 21
105.5447845458984
  0
LINE
  5
580
100
AcDbEntity
  8
0
  6
ByLayer
 62
  256
370
   -1
100
AcDbLine
 10
170.5738830566406
 20
128.5569915771484
 11
174.1569671630859
 21
128.2177429199219
  0
LINE
  5
581
100
AcDbEntity
  8
0
  6
ByLayer
 62
  256
370
   -1
100
AcDbLine
 10
170.5738830566406
 20
128.5569915771484
 11
175.6079711914062
 21
131.8831787109375
  0
LINE
  5
582
100
AcDbEntity
  8
0
  6
ByLayer
 62
  256
370
   -1
100
AcDbLine
 10
104.8576278686523
 20
225.2403411865234
 11
104.9188079833984
 21
233.0497894287109
  0
LINE
  5
583
100
AcDbEntity
  8
0
  6
ByLayer
 62
  256
370
   -1
100
AcDbLine
 10
104.8576278686523
 20
225.2403411865234
 11
101.3232727050781
 21
217.3357696533203
  0
LINE
  5
584
100
AcDbEntity
  8
0
  6
ByLayer
 62
  256
370
   -1
100
AcDbLine
 10
96.46630859375
 20
198.6015014648438
 11
98.90308380126953
 21
192.6629638671875
  0
LINE
  5
585
100
AcDbEntity
  8
0
  6
ByLayer
 62
  256
370
   -1
100
AcDbLine
 10
96.46630859375
 20
198.6015014648438
 11
96.23905181884766
 21
205.7752075195312
  0
LINE
  5
586
100
AcDbEntity
  8
0
  6
ByLayer
 62
  256
370
   -1
100
AcDbLine
 10
190.2035369873047
 20
22.0842342376709
 11
191.1897583007812
 21
26.08354377746582
  0
LINE
  5
587
100
AcDbEntity
  8
0
  6
ByLayer
 62
  256
370
   -1
100
AcDbLine
 10
190.2035369873047
 20
22.0842342376709
 11
187.6441650390625
 21
18.41846656799316
  0
LINE
  5
588
100
AcDbEntity
  8
0
  6
ByLayer
 62
  256
370
   -1
100
AcDbLine
 10
179.493408203125
 20
56.62799453735352
 11
183.6514587402344
 21
63.68245315551758
  0
LINE
  5
589
100
AcDbEntity
  8
0
  6
ByLayer
 62
  256
370
   -1
100
AcDbLine
 10
179.493408203125
 20
56.62799453735352
 11
175.5542297363281
 21
51.26409912109375
  0
LINE
  5
58A
100
AcDbEntity
  8
0
  6
ByLayer
 62
  256
370
   -1
100
AcDbLine
 10
162.1849060058594
 20
28.77742195129395
 11
163.2224426269531
 21
33.55971908569336
  0
LINE
  5
58B
100
AcDbEntity
  8
0
  6
ByLayer
 62
  256
370
   -1
100
AcDbLine
 10
162.1849060058594
 20
28.77742195129395
 11
162.9133758544922
 21
24.79788017272949
  0
LINE
  5
58C
100
AcDbEntity
  8
0
  6
ByLayer
 62
  256
370
   -1
100
AcDbLine
 10
90.67821502685547
 20
9.660187721252441
 11
87.15518951416016
 21
10.61516952514648
  0
LINE
  5
58D
100
AcDbEntity
  8
0
  6
ByLayer
 62
  256
370
   -1
100
AcDbLine
 10
90.67821502685547
 20
9.660187721252441
 11
94.63076782226562
 21
10.08920383453369
  0
LINE
  5
58E
100
AcDbEntity
  8
0
  6
ByLayer
 62
  256
370
   -1
100
AcDbLine
 10
249.9617004394531
 20
90.41947937011719
 11
249.0919189453125
 21
86.78965759277344
  0
LINE
  5
58F
100
AcDbEntity
  8
0
  6
ByLayer
 62
  256
370
   -1
100
AcDbLine
 10
95.34444427490234
 20
228.5740203857422
 11
96.53543090820312
 21
233.4389801025391
  0
ENDSEC
  0
SECTION
  2
OBJECTS
  0
DICTIONARY
  5
C
330
0
100
AcDbDictionary
281
    1
  3
ACAD_GROUP
350
D
  0
DICTIONARY
  5
D
330
C
100
AcDbDictionary
281
    1
  0
PLOTSETTINGS
  5
590
100
AcDbPlotSettings
  6
1x1
 40
0
 41
0
 42
0
 43
0
  0
ENDSEC
  0
EOF
