  0
SECTION
  2
HEADER
  9
$ACADVER
  1
AC1014
  9
$HANDSEED
  5
FFFF
  9
$MEASUREMENT
 70
     1
  0
ENDSEC
  0
SECTION
  2
TABLES
  0
TABLE
  2
VPORT
  5
8
330
0
100
AcDbSymbolTable
 70
     4
  0
VPORT
  5
2E
330
8
100
AcDbSymbolTableRecord
100
AcDbViewportTableRecord
  2
*ACTIVE
 70
     0
 10
0.0
 20
0.0
 11
1.0
 21
1.0
 12
210.0
 22
148.5
 13
0.0
 23
0.0
 14
10.0
 24
10.0
 15
10.0
 25
10.0
 16
0.0
 26
0.0
 36
1.0
 17
0.0
 27
0.0
 37
0.0
 40
341.0
 41
1.24
 42
50.0
 43
0.0
 44
0.0
 50
0.0
 51
0.0
 71
     0
 72
   100
 73
     1
 74
     3
 75
     0
 76
     0
 77
     0
 78
     0
  0
ENDTAB
  0
TABLE
  2
LTYPE
  5
5
330
0
100
AcDbSymbolTable
 70
     1
  0
LTYPE
  5
14
330
5
100
AcDbSymbolTableRecord
100
AcDbLinetypeTableRecord
  2
BYBLOCK
 70
     0
  3

 72
    65
 73
     0
 40
0.0
  0
LTYPE
  5
15
330
5
100
AcDbSymbolTableRecord
100
AcDbLinetypeTableRecord
  2
BYLAYER
 70
     0
  3

 72
    65
 73
     0
 40
0.0
  0
LTYPE
  5
16
330
5
100
AcDbSymbolTableRecord
100
AcDbLinetypeTableRecord
  2
CONTINUOUS
 70
     0
  3
Solid line
 72
    65
 73
     0
 40
0.0
  0
ENDTAB
  0
TABLE
  2
LAYER
  5
2
100
AcDbSymbolTable
 70
2
  0
LAYER
  5
50
100
AcDbSymbolTableRecord
100
AcDbLayerTableRecord
  2
0
 70
0
  6
CONTINUOUS
  0
LAYER
  5
51
100
AcDbSymbolTableRecord
100
AcDbLayerTableRecord
  2
Layer_1
 70
0
  6
CONTINUOUS
  0
ENDTAB
  0
TABLE
  2
STYLE
  5
3
330
0
100
AcDbSymbolTable
 70
     1
  0
STYLE
  5
11
330
3
100
AcDbSymbolTableRecord
100
AcDbTextStyleTableRecord
  2
STANDARD
 70
     0
 40
0.0
 41
1.0
 50
0.0
 71
     0
 42
2.5
  3
txt
  4

  0
ENDTAB
  0
TABLE
  2
VIEW
  5
6
330
0
100
AcDbSymbolTable
 70
     0
  0
ENDTAB
  0
TABLE
  2
UCS
  5
7
330
0
100
AcDbSymbolTable
 70
     0
  0
ENDTAB
  0
TABLE
  2
APPID
  5
9
330
0
100
AcDbSymbolTable
 70
     2
  0
APPID
  5
12
330
9
100
AcDbSymbolTableRecord
100
AcDbRegAppTableRecord
  2
ACAD
 70
     0
  0
ENDTAB
  0
TABLE
  2
DIMSTYLE
  5
A
330
0
100
AcDbSymbolTable
 70
     1
  0
DIMSTYLE
105
27
330
A
100
AcDbSymbolTableRecord
100
AcDbDimStyleTableRecord
  2
ISO-25
 70
     0
  3

  4

  5

  6

  7

 40
1.0
 41
2.5
 42
0.625
 43
3.75
 44
1.25
 45
0.0
 46
0.0
 47
0.0
 48
0.0
140
2.5
141
2.5
142
0.0
143
0.03937007874016
144
1.0
145
0.0
146
1.0
147
0.625
 71
     0
 72
     0
 73
     0
 74
     0
 75
     0
 76
     0
 77
     1
 78
     8
170
     0
171
     3
172
     1
173
     0
174
     0
175
     0
176
     0
177
     0
178
     0
270
     2
271
     2
272
     2
273
     2
274
     3
340
11
275
     0
280
     0
281
     0
282
     0
283
     0
284
     8
285
     0
286
     0
287
     3
288
     0
  0
ENDTAB
  0
TABLE
  2
BLOCK_RECORD
  5
1
330
0
100
AcDbSymbolTable
 70
     1
  0
BLOCK_RECORD
  5
1F
330
1
100
AcDbSymbolTableRecord
100
AcDbBlockTableRecord
  2
*MODEL_SPACE
  0
BLOCK_RECORD
  5
1B
330
1
100
AcDbSymbolTableRecord
100
AcDbBlockTableRecord
  2
*PAPER_SPACE
  0
ENDTAB
  0
ENDSEC
  0
SECTION
  2
BLOCKS
  0
BLOCK
  5
20
330
1F
100
AcDbEntity
  8
0
100
AcDbBlockBegin
  2
*MODEL_SPACE
 70
     0
 10
0.0
 20
0.0
 30
0.0
  3
*MODEL_SPACE
  1

  0
ENDBLK
  5
21
330
1F
100
AcDbEntity
  8
0
100
AcDbBlockEnd
  0
BLOCK
  5
1C
330
1B
100
AcDbEntity
 67
     1
  8
0
100
AcDbBlockBegin
  2
*PAPER_SPACE
  1

  0
ENDBLK
  5
1D
330
1B
100
AcDbEntity
 67
     1
  8
0
100
AcDbBlockEnd
  0
ENDSEC
  0
SECTION
  2
ENTITIES
  0
SPLINE
  5
100
100
AcDbEntity
  8
Layer_1
 62
7
100
AcDbSpline
 70
8
 71
3
 72
8
 73
4
 74
0
 40
0
 40
0
 40
0
 40
0
 40
1
 40
1
 40
1
 40
1
 10
38.489438
 20
0.318983
 30
0.0
 10
23.516111
 20
2.682599
 30
0.0
 10
12.942811
 20
10.274924
 30
0.0
 10
6.575196
 20
23.235565
 30
0.0
  0
SPLINE
  5
101
100
AcDbEntity
  8
Layer_1
 62
7
100
AcDbSpline
 70
8
 71
3
 72
8
 73
4
 74
0
 40
0
 40
0
 40
0
 40
0
 40
1
 40
1
 40
1
 40
1
 10
6.575196
 20
23.235565
 30
0.0
 10
2.271716
 20
31.994831
 30
0.0
 10
0.577361
 20
39.393280
 30
0.0
 10
0.087165
 20
51.565861
 30
0.0
  0
SPLINE
  5
102
100
AcDbEntity
  8
Layer_1
 62
7
100
AcDbSpline
 70
8
 71
3
 72
8
 73
4
 74
0
 40
0
 40
0
 40
0
 40
0
 40
1
 40
1
 40
1
 40
1
 10
0.087165
 20
51.565861
 30
0.0
 10
-0.907003
 20
76.253759
 30
0.0
 10
6.609977
 20
101.999151
 30
0.0
 10
20.191322
 20
120.421708
 30
0.0
  0
SPLINE
  5
103
100
AcDbEntity
  8
Layer_1
 62
7
100
AcDbSpline
 70
8
 71
3
 72
8
 73
4
 74
0
 40
0
 40
0
 40
0
 40
0
 40
1
 40
1
 40
1
 40
1
 10
20.191322
 20
120.421708
 30
0.0
 10
25.190963
 20
127.203551
 30
0.0
 10
35.806017
 20
137.250824
 30
0.0
 10
43.007047
 20
142.017089
 30
0.0
  0
SPLINE
  5
104
100
AcDbEntity
  8
Layer_1
 62
7
100
AcDbSpline
 70
8
 71
3
 72
8
 73
4
 74
0
 40
0
 40
0
 40
0
 40
0
 40
1
 40
1
 40
1
 40
1
 10
43.007047
 20
142.017089
 30
0.0
 10
50.264572
 20
146.820743
 30
0.0
 10
64.826507
 20
153.961451
 30
0.0
 10
72.953901
 20
156.702047
 30
0.0
  0
SPLINE
  5
105
100
AcDbEntity
  8
Layer_1
 62
7
100
AcDbSpline
 70
8
 71
3
 72
8
 73
4
 74
0
 40
0
 40
0
 40
0
 40
0
 40
1
 40
1
 40
1
 40
1
 10
72.953901
 20
156.702047
 30
0.0
 10
81.546659
 20
159.599569
 30
0.0
 10
92.524973
 20
162.136269
 30
0.0
 10
100.692477
 20
163.111445
 30
0.0
  0
SPLINE
  5
106
100
AcDbEntity
  8
Layer_1
 62
7
100
AcDbSpline
 70
8
 71
3
 72
8
 73
4
 74
0
 40
0
 40
0
 40
0
 40
0
 40
1
 40
1
 40
1
 40
1
 10
100.692477
 20
163.111445
 30
0.0
 10
114.925139
 20
164.810789
 30
0.0
 10
123.632161
 20
160.970661
 30
0.0
 10
123.632161
 20
152.994156
 30
0.0
  0
SPLINE
  5
107
100
AcDbEntity
  8
Layer_1
 62
7
100
AcDbSpline
 70
8
 71
3
 72
8
 73
4
 74
0
 40
0
 40
0
 40
0
 40
0
 40
1
 40
1
 40
1
 40
1
 10
123.632161
 20
152.994156
 30
0.0
 10
123.632161
 20
146.571662
 30
0.0
 10
118.692246
 20
143.778200
 30
0.0
 10
111.749594
 20
146.274732
 30
0.0
  0
SPLINE
  5
108
100
AcDbEntity
  8
Layer_1
 62
7
100
AcDbSpline
 70
8
 71
3
 72
8
 73
4
 74
0
 40
0
 40
0
 40
0
 40
0
 40
1
 40
1
 40
1
 40
1
 10
111.749594
 20
146.274732
 30
0.0
 10
108.507889
 20
147.440454
 30
0.0
 10
107.303588
 20
147.491194
 30
0.0
 10
101.263574
 20
146.716597
 30
0.0
  0
SPLINE
  5
109
100
AcDbEntity
  8
Layer_1
 62
7
100
AcDbSpline
 70
8
 71
3
 72
8
 73
4
 74
0
 40
0
 40
0
 40
0
 40
0
 40
1
 40
1
 40
1
 40
1
 10
101.263574
 20
146.716597
 30
0.0
 10
92.793131
 20
145.630303
 30
0.0
 10
82.122291
 20
142.893704
 30
0.0
 10
74.393732
 20
139.825706
 30
0.0
  0
SPLINE
  5
10a
100
AcDbEntity
  8
Layer_1
 62
7
100
AcDbSpline
 70
8
 71
3
 72
8
 73
4
 74
0
 40
0
 40
0
 40
0
 40
0
 40
1
 40
1
 40
1
 40
1
 10
74.393732
 20
139.825706
 30
0.0
 10
67.702996
 20
137.169668
 30
0.0
 10
55.164661
 20
130.814242
 30
0.0
 10
52.425482
 20
128.690438
 30
0.0
  0
SPLINE
  5
10b
100
AcDbEntity
  8
Layer_1
 62
7
100
AcDbSpline
 70
8
 71
3
 72
8
 73
4
 74
0
 40
0
 40
0
 40
0
 40
0
 40
1
 40
1
 40
1
 40
1
 10
52.987990
 20
124.543600
 30
0.0
 10
55.849852
 20
121.284150
 30
0.0
 10
55.861474
 20
121.037139
 30
0.0
 10
53.884136
 20
105.508079
 30
0.0
  0
SPLINE
  5
10c
100
AcDbEntity
  8
Layer_1
 62
7
100
AcDbSpline
 70
8
 71
3
 72
8
 73
4
 74
0
 40
0
 40
0
 40
0
 40
0
 40
1
 40
1
 40
1
 40
1
 10
53.884136
 20
105.508079
 30
0.0
 10
48.058733
 20
59.758168
 30
0.0
 10
46.938650
 20
49.428960
 30
0.0
 10
46.826199
 20
40.420189
 30
0.0
  0
SPLINE
  5
10d
100
AcDbEntity
  8
Layer_1
 62
7
100
AcDbSpline
 70
8
 71
3
 72
8
 73
4
 74
0
 40
0
 40
0
 40
0
 40
0
 40
1
 40
1
 40
1
 40
1
 10
46.826199
 20
40.420189
 30
0.0
 10
46.726419
 20
32.435732
 30
0.0
 10
46.455484
 20
30.217732
 30
0.0
 10
45.378572
 20
28.574174
 30
0.0
  0
SPLINE
  5
10e
100
AcDbEntity
  8
Layer_1
 62
7
100
AcDbSpline
 70
8
 71
3
 72
8
 73
4
 74
0
 40
0
 40
0
 40
0
 40
0
 40
1
 40
1
 40
1
 40
1
 10
45.378572
 20
28.574174
 30
0.0
 10
42.692401
 20
24.474562
 30
0.0
 10
36.997307
 20
24.214993
 30
0.0
 10
33.346363
 20
28.025726
 30
0.0
  0
SPLINE
  5
10f
100
AcDbEntity
  8
Layer_1
 62
7
100
AcDbSpline
 70
8
 71
3
 72
8
 73
4
 74
0
 40
0
 40
0
 40
0
 40
0
 40
1
 40
1
 40
1
 40
1
 10
33.346363
 20
28.025726
 30
0.0
 10
30.564722
 20
30.929144
 30
0.0
 10
29.692812
 20
37.303818
 30
0.0
 10
30.625440
 20
47.919027
 30
0.0
  0
SPLINE
  5
110
100
AcDbEntity
  8
Layer_1
 62
7
100
AcDbSpline
 70
8
 71
3
 72
8
 73
4
 74
0
 40
0
 40
0
 40
0
 40
0
 40
1
 40
1
 40
1
 40
1
 10
30.625440
 20
47.919027
 30
0.0
 10
31.412679
 20
56.879269
 30
0.0
 10
37.932940
 20
111.542367
 30
0.0
 10
38.529293
 20
114.181596
 30
0.0
  0
SPLINE
  5
111
100
AcDbEntity
  8
Layer_1
 62
7
100
AcDbSpline
 70
8
 71
3
 72
8
 73
4
 74
0
 40
0
 40
0
 40
0
 40
0
 40
1
 40
1
 40
1
 40
1
 10
38.529293
 20
114.181596
 30
0.0
 10
39.739263
 20
119.536305
 30
0.0
 10
32.233792
 20
110.422851
 30
0.0
 10
26.947964
 20
100.119070
 30
0.0
  0
SPLINE
  5
112
100
AcDbEntity
  8
Layer_1
 62
7
100
AcDbSpline
 70
8
 71
3
 72
8
 73
4
 74
0
 40
0
 40
0
 40
0
 40
0
 40
1
 40
1
 40
1
 40
1
 10
26.947964
 20
100.119070
 30
0.0
 10
19.922966
 20
86.425076
 30
0.0
 10
16.388469
 20
71.671463
 30
0.0
 10
16.384416
 20
56.024906
 30
0.0
  0
SPLINE
  5
113
100
AcDbEntity
  8
Layer_1
 62
7
100
AcDbSpline
 70
8
 71
3
 72
8
 73
4
 74
0
 40
0
 40
0
 40
0
 40
0
 40
1
 40
1
 40
1
 40
1
 10
16.384416
 20
56.024906
 30
0.0
 10
16.378747
 20
35.677437
 30
0.0
 10
21.624322
 20
23.934250
 30
0.0
 10
33.071431
 20
18.665430
 30
0.0
  0
SPLINE
  5
114
100
AcDbEntity
  8
Layer_1
 62
7
100
AcDbSpline
 70
8
 71
3
 72
8
 73
4
 74
0
 40
0
 40
0
 40
0
 40
0
 40
1
 40
1
 40
1
 40
1
 10
33.071431
 20
18.665430
 30
0.0
 10
37.290835
 20
16.723298
 30
0.0
 10
38.540575
 20
16.509027
 30
0.0
 10
45.632046
 20
16.511635
 30
0.0
  0
SPLINE
  5
115
100
AcDbEntity
  8
Layer_1
 62
7
100
AcDbSpline
 70
8
 71
3
 72
8
 73
4
 74
0
 40
0
 40
0
 40
0
 40
0
 40
1
 40
1
 40
1
 40
1
 10
45.632046
 20
16.511635
 30
0.0
 10
55.387436
 20
16.511635
 30
0.0
 10
62.782583
 20
18.784740
 30
0.0
 10
71.335316
 20
24.399529
 30
0.0
  0
SPLINE
  5
116
100
AcDbEntity
  8
Layer_1
 62
7
100
AcDbSpline
 70
8
 71
3
 72
8
 73
4
 74
0
 40
0
 40
0
 40
0
 40
0
 40
1
 40
1
 40
1
 40
1
 10
71.335316
 20
24.399529
 30
0.0
 10
85.964347
 20
34.003378
 30
0.0
 10
92.870602
 20
48.232965
 30
0.0
 10
87.418238
 20
57.536710
 30
0.0
  0
SPLINE
  5
117
100
AcDbEntity
  8
Layer_1
 62
7
100
AcDbSpline
 70
8
 71
3
 72
8
 73
4
 74
0
 40
0
 40
0
 40
0
 40
0
 40
1
 40
1
 40
1
 40
1
 10
87.418238
 20
57.536710
 30
0.0
 10
86.276300
 20
59.485304
 30
0.0
 10
85.382110
 20
62.138905
 30
0.0
 10
85.382110
 20
63.579162
 30
0.0
  0
SPLINE
  5
118
100
AcDbEntity
  8
Layer_1
 62
7
100
AcDbSpline
 70
8
 71
3
 72
8
 73
4
 74
0
 40
0
 40
0
 40
0
 40
0
 40
1
 40
1
 40
1
 40
1
 10
85.382110
 20
63.579162
 30
0.0
 10
85.382110
 20
66.610706
 30
0.0
 10
88.023408
 20
70.864154
 30
0.0
 10
90.707736
 20
72.155422
 30
0.0
  0
SPLINE
  5
119
100
AcDbEntity
  8
Layer_1
 62
7
100
AcDbSpline
 70
8
 71
3
 72
8
 73
4
 74
0
 40
0
 40
0
 40
0
 40
0
 40
1
 40
1
 40
1
 40
1
 10
90.707736
 20
72.155422
 30
0.0
 10
92.882649
 20
73.201635
 30
0.0
 10
132.751286
 20
81.445419
 30
0.0
 10
137.978805
 20
81.929861
 30
0.0
  0
SPLINE
  5
11a
100
AcDbEntity
  8
Layer_1
 62
7
100
AcDbSpline
 70
8
 71
3
 72
8
 73
4
 74
0
 40
0
 40
0
 40
0
 40
0
 40
1
 40
1
 40
1
 40
1
 10
137.978805
 20
81.929861
 30
0.0
 10
143.742554
 20
82.463965
 30
0.0
 10
147.782185
 20
79.636176
 30
0.0
 10
147.782185
 20
75.067344
 30
0.0
  0
SPLINE
  5
11b
100
AcDbEntity
  8
Layer_1
 62
7
100
AcDbSpline
 70
8
 71
3
 72
8
 73
4
 74
0
 40
0
 40
0
 40
0
 40
0
 40
1
 40
1
 40
1
 40
1
 10
147.782185
 20
75.067344
 30
0.0
 10
147.782185
 20
72.184959
 30
0.0
 10
145.992132
 20
69.333841
 30
0.0
 10
143.096934
 20
67.604874
 30
0.0
  0
SPLINE
  5
11c
100
AcDbEntity
  8
Layer_1
 62
7
100
AcDbSpline
 70
8
 71
3
 72
8
 73
4
 74
0
 40
0
 40
0
 40
0
 40
0
 40
1
 40
1
 40
1
 40
1
 10
143.096934
 20
67.604874
 30
0.0
 10
140.999974
 20
66.352611
 30
0.0
 10
129.547366
 20
63.595008
 30
0.0
 10
116.132132
 20
61.112223
 30
0.0
  0
SPLINE
  5
11d
100
AcDbEntity
  8
Layer_1
 62
7
100
AcDbSpline
 70
8
 71
3
 72
8
 73
4
 74
0
 40
0
 40
0
 40
0
 40
0
 40
1
 40
1
 40
1
 40
1
 10
116.132132
 20
61.112223
 30
0.0
 10
111.388375
 20
60.234275
 30
0.0
 10
106.981430
 20
59.368262
 30
0.0
 10
106.338872
 20
59.187723
 30
0.0
  0
SPLINE
  5
11e
100
AcDbEntity
  8
Layer_1
 62
7
100
AcDbSpline
 70
8
 71
3
 72
8
 73
4
 74
0
 40
0
 40
0
 40
0
 40
0
 40
1
 40
1
 40
1
 40
1
 10
106.338872
 20
59.187723
 30
0.0
 10
105.362335
 20
58.913329
 30
0.0
 10
105.222644
 20
57.771334
 30
0.0
 10
105.487683
 20
52.228035
 30
0.0
  0
SPLINE
  5
11f
100
AcDbEntity
  8
Layer_1
 62
7
100
AcDbSpline
 70
8
 71
3
 72
8
 73
4
 74
0
 40
0
 40
0
 40
0
 40
0
 40
1
 40
1
 40
1
 40
1
 10
105.487683
 20
52.228035
 30
0.0
 10
105.853665
 20
44.572837
 30
0.0
 10
104.605739
 20
39.149699
 30
0.0
 10
100.975375
 20
32.618964
 30
0.0
  0
SPLINE
  5
120
100
AcDbEntity
  8
Layer_1
 62
7
100
AcDbSpline
 70
8
 71
3
 72
8
 73
4
 74
0
 40
0
 40
0
 40
0
 40
0
 40
1
 40
1
 40
1
 40
1
 10
100.975375
 20
32.618964
 30
0.0
 10
90.852189
 20
14.408183
 30
0.0
 10
69.934375
 20
1.334014
 30
0.0
 10
48.970753
 20
0.114662
 30
0.0
  0
SPLINE
  5
121
100
AcDbEntity
  8
Layer_1
 62
7
100
AcDbSpline
 70
8
 71
3
 72
8
 73
4
 74
0
 40
0
 40
0
 40
0
 40
0
 40
1
 40
1
 40
1
 40
1
 10
48.970753
 20
0.114662
 30
0.0
 10
45.278225
 20
-0.099921
 30
0.0
 10
40.561624
 20
-0.008079
 30
0.0
 10
38.489438
 20
0.319040
 30
0.0
  0
LWPOLYLINE
  5
122
100
AcDbEntity
  8
Layer_1
 62
7
100
AcDbPolyline
 90
3
 70
0
 10
52.425482
 20
128.690438
 30
0.0
 10
50.593902
 20
127.270307
 30
0.0
 10
52.987990
 20
124.543600
 30
0.0
  0
SPLINE
  5
123
100
AcDbEntity
  8
Layer_1
 62
7
100
AcDbSpline
 70
8
 71
3
 72
8
 73
4
 74
0
 40
0
 40
0
 40
0
 40
0
 40
1
 40
1
 40
1
 40
1
 10
482.713997
 20
18.038037
 30
0.0
 10
480.079332
 20
19.467863
 30
0.0
 10
479.132644
 20
21.306019
 30
0.0
 10
479.132644
 20
24.991971
 30
0.0
  0
SPLINE
  5
124
100
AcDbEntity
  8
Layer_1
 62
7
100
AcDbSpline
 70
8
 71
3
 72
8
 73
4
 74
0
 40
0
 40
0
 40
0
 40
0
 40
1
 40
1
 40
1
 40
1
 10
479.132644
 20
24.991971
 30
0.0
 10
479.132644
 20
27.454658
 30
0.0
 10
479.586670
 20
28.362227
 30
0.0
 10
481.783750
 20
30.291263
 30
0.0
  0
SPLINE
  5
125
100
AcDbEntity
  8
Layer_1
 62
7
100
AcDbSpline
 70
8
 71
3
 72
8
 73
4
 74
0
 40
0
 40
0
 40
0
 40
0
 40
1
 40
1
 40
1
 40
1
 10
481.783750
 20
30.291263
 30
0.0
 10
483.241837
 20
31.571504
 30
0.0
 10
484.911956
 20
32.618964
 30
0.0
 10
485.495128
 20
32.618964
 30
0.0
  0
SPLINE
  5
126
100
AcDbEntity
  8
Layer_1
 62
7
100
AcDbSpline
 70
8
 71
3
 72
8
 73
4
 74
0
 40
0
 40
0
 40
0
 40
0
 40
1
 40
1
 40
1
 40
1
 10
485.495128
 20
32.618964
 30
0.0
 10
486.078300
 20
32.618964
 30
0.0
 10
489.641256
 20
35.555519
 30
0.0
 10
493.412814
 20
39.144681
 30
0.0
  0
LWPOLYLINE
  5
127
100
AcDbEntity
  8
Layer_1
 62
7
100
AcDbPolyline
 90
1
 70
1
 10
38.489438
 20
0.319040
 30
0.0
  0
SPLINE
  5
128
100
AcDbEntity
  8
Layer_1
 62
7
100
AcDbSpline
 70
8
 71
3
 72
8
 73
4
 74
0
 40
0
 40
0
 40
0
 40
0
 40
1
 40
1
 40
1
 40
1
 10
497.971129
 20
47.582186
 30
0.0
 10
494.207905
 20
50.711554
 30
0.0
 10
493.432572
 20
53.782641
 30
0.0
 10
492.611799
 20
68.810593
 30
0.0
  0
SPLINE
  5
129
100
AcDbEntity
  8
Layer_1
 62
7
100
AcDbSpline
 70
8
 71
3
 72
8
 73
4
 74
0
 40
0
 40
0
 40
0
 40
0
 40
1
 40
1
 40
1
 40
1
 10
492.611799
 20
68.810593
 30
0.0
 10
491.690226
 20
85.684326
 30
0.0
 10
490.866250
 20
95.509731
 30
0.0
 10
488.476754
 20
118.119094
 30
0.0
  0
SPLINE
  5
12a
100
AcDbEntity
  8
Layer_1
 62
7
100
AcDbSpline
 70
8
 71
3
 72
8
 73
4
 74
0
 40
0
 40
0
 40
0
 40
0
 40
1
 40
1
 40
1
 40
1
 10
488.476754
 20
118.119094
 30
0.0
 10
487.452255
 20
127.812858
 30
0.0
 10
486.533829
 20
138.666618
 30
0.0
 10
486.435835
 20
142.238532
 30
0.0
  0
SPLINE
  5
12b
100
AcDbEntity
  8
Layer_1
 62
7
100
AcDbSpline
 70
8
 71
3
 72
8
 73
4
 74
0
 40
0
 40
0
 40
0
 40
0
 40
1
 40
1
 40
1
 40
1
 10
486.435835
 20
142.238532
 30
0.0
 10
486.271992
 20
148.205412
 30
0.0
 10
486.405221
 20
148.890745
 30
0.0
 10
488.075878
 20
150.676036
 30
0.0
  0
SPLINE
  5
12c
100
AcDbEntity
  8
Layer_1
 62
7
100
AcDbSpline
 70
8
 71
3
 72
8
 73
4
 74
0
 40
0
 40
0
 40
0
 40
0
 40
1
 40
1
 40
1
 40
1
 10
488.075878
 20
150.676036
 30
0.0
 10
491.369599
 20
154.195962
 30
0.0
 10
496.191451
 20
153.064427
 30
0.0
 10
498.087066
 20
148.326763
 30
0.0
  0
SPLINE
  5
12d
100
AcDbEntity
  8
Layer_1
 62
7
100
AcDbSpline
 70
8
 71
3
 72
8
 73
4
 74
0
 40
0
 40
0
 40
0
 40
0
 40
1
 40
1
 40
1
 40
1
 10
498.087066
 20
148.326763
 30
0.0
 10
501.076431
 20
140.855619
 30
0.0
 10
506.163408
 20
98.310450
 30
0.0
 10
508.244324
 20
63.376173
 30
0.0
  0
LWPOLYLINE
  5
12e
100
AcDbEntity
  8
Layer_1
 62
7
100
AcDbPolyline
 90
3
 70
0
 10
493.412814
 20
39.144681
 30
0.0
 10
500.270200
 20
45.670385
 30
0.0
 10
497.971129
 20
47.582186
 30
0.0
  0
SPLINE
  5
12f
100
AcDbEntity
  8
Layer_1
 62
7
100
AcDbSpline
 70
8
 71
3
 72
8
 73
4
 74
0
 40
0
 40
0
 40
0
 40
0
 40
1
 40
1
 40
1
 40
1
 10
515.767172
 20
63.001177
 30
0.0
 10
529.541159
 20
79.198789
 30
0.0
 10
537.359803
 20
91.593720
 30
0.0
 10
541.301440
 20
103.480652
 30
0.0
  0
SPLINE
  5
130
100
AcDbEntity
  8
Layer_1
 62
7
100
AcDbSpline
 70
8
 71
3
 72
8
 73
4
 74
0
 40
0
 40
0
 40
0
 40
0
 40
1
 40
1
 40
1
 40
1
 10
541.301440
 20
103.480652
 30
0.0
 10
548.835400
 20
126.201105
 30
0.0
 10
541.393850
 20
148.147075
 30
0.0
 10
523.239053
 20
156.748365
 30
0.0
  0
SPLINE
  5
131
100
AcDbEntity
  8
Layer_1
 62
7
100
AcDbSpline
 70
8
 71
3
 72
8
 73
4
 74
0
 40
0
 40
0
 40
0
 40
0
 40
1
 40
1
 40
1
 40
1
 10
523.239053
 20
156.748365
 30
0.0
 10
505.340793
 20
165.228134
 30
0.0
 10
472.552373
 20
166.136838
 30
0.0
 10
456.915568
 20
158.586466
 30
0.0
  0
SPLINE
  5
132
100
AcDbEntity
  8
Layer_1
 62
7
100
AcDbSpline
 70
8
 71
3
 72
8
 73
4
 74
0
 40
0
 40
0
 40
0
 40
0
 40
1
 40
1
 40
1
 40
1
 10
456.915568
 20
158.586466
 30
0.0
 10
451.770396
 20
156.102065
 30
0.0
 10
449.051258
 20
155.807630
 30
0.0
 10
447.312286
 20
157.546603
 30
0.0
  0
SPLINE
  5
133
100
AcDbEntity
  8
Layer_1
 62
7
100
AcDbSpline
 70
8
 71
3
 72
8
 73
4
 74
0
 40
0
 40
0
 40
0
 40
0
 40
1
 40
1
 40
1
 40
1
 10
447.312286
 20
157.546603
 30
0.0
 10
440.970863
 20
163.888026
 30
0.0
 10
452.271959
 20
172.918255
 30
0.0
 10
471.257619
 20
176.680260
 30
0.0
  0
SPLINE
  5
134
100
AcDbEntity
  8
Layer_1
 62
7
100
AcDbSpline
 70
8
 71
3
 72
8
 73
4
 74
0
 40
0
 40
0
 40
0
 40
0
 40
1
 40
1
 40
1
 40
1
 10
471.257619
 20
176.680260
 30
0.0
 10
477.951899
 20
178.006734
 30
0.0
 10
498.461977
 20
178.015465
 30
0.0
 10
506.507676
 20
176.694433
 30
0.0
  0
SPLINE
  5
135
100
AcDbEntity
  8
Layer_1
 62
7
100
AcDbSpline
 70
8
 71
3
 72
8
 73
4
 74
0
 40
0
 40
0
 40
0
 40
0
 40
1
 40
1
 40
1
 40
1
 10
506.507676
 20
176.694433
 30
0.0
 10
535.204109
 20
171.985740
 30
0.0
 10
552.285650
 20
158.553584
 30
0.0
 10
558.766679
 20
135.600293
 30
0.0
  0
SPLINE
  5
136
100
AcDbEntity
  8
Layer_1
 62
7
100
AcDbSpline
 70
8
 71
3
 72
8
 73
4
 74
0
 40
0
 40
0
 40
0
 40
0
 40
1
 40
1
 40
1
 40
1
 10
558.766679
 20
135.600293
 30
0.0
 10
560.710682
 20
128.715411
 30
0.0
 10
561.072383
 20
114.433880
 30
0.0
 10
559.475370
 20
107.618248
 30
0.0
  0
SPLINE
  5
137
100
AcDbEntity
  8
Layer_1
 62
7
100
AcDbSpline
 70
8
 71
3
 72
8
 73
4
 74
0
 40
0
 40
0
 40
0
 40
0
 40
1
 40
1
 40
1
 40
1
 10
559.475370
 20
107.618248
 30
0.0
 10
554.332097
 20
85.668253
 30
0.0
 10
542.618475
 20
67.348112
 30
0.0
 10
514.638500
 20
37.493144
 30
0.0
  0
SPLINE
  5
138
100
AcDbEntity
  8
Layer_1
 62
7
100
AcDbSpline
 70
8
 71
3
 72
8
 73
4
 74
0
 40
0
 40
0
 40
0
 40
0
 40
1
 40
1
 40
1
 40
1
 10
514.638500
 20
37.493144
 30
0.0
 10
499.737031
 20
21.593113
 30
0.0
 10
493.493432
 20
16.836089
 30
0.0
 10
487.607395
 20
16.898111
 30
0.0
  0
SPLINE
  5
139
100
AcDbEntity
  8
Layer_1
 62
7
100
AcDbSpline
 70
8
 71
3
 72
8
 73
4
 74
0
 40
0
 40
0
 40
0
 40
0
 40
1
 40
1
 40
1
 40
1
 10
487.607395
 20
16.898111
 30
0.0
 10
486.040033
 20
16.915119
 30
0.0
 10
483.837992
 20
17.427255
 30
0.0
 10
482.713997
 20
18.037215
 30
0.0
  0
LWPOLYLINE
  5
13a
100
AcDbEntity
  8
Layer_1
 62
7
100
AcDbPolyline
 90
3
 70
0
 10
508.244324
 20
63.376173
 30
0.0
 10
508.757679
 20
54.758299
 30
0.0
 10
515.767172
 20
63.001177
 30
0.0
  0
SPLINE
  5
13b
100
AcDbEntity
  8
Layer_1
 62
7
100
AcDbSpline
 70
8
 71
3
 72
8
 73
4
 74
0
 40
0
 40
0
 40
0
 40
0
 40
1
 40
1
 40
1
 40
1
 10
598.858942
 20
25.173388
 30
0.0
 10
597.328514
 20
26.377236
 30
0.0
 10
596.882794
 20
27.386569
 30
0.0
 10
596.882794
 20
29.648393
 30
0.0
  0
SPLINE
  5
13c
100
AcDbEntity
  8
Layer_1
 62
7
100
AcDbSpline
 70
8
 71
3
 72
8
 73
4
 74
0
 40
0
 40
0
 40
0
 40
0
 40
1
 40
1
 40
1
 40
1
 10
596.882794
 20
29.648393
 30
0.0
 10
596.882794
 20
35.343516
 30
0.0
 10
601.830590
 20
38.376052
 30
0.0
 10
617.602353
 20
42.347524
 30
0.0
  0
SPLINE
  5
13d
100
AcDbEntity
  8
Layer_1
 62
7
100
AcDbSpline
 70
8
 71
3
 72
8
 73
4
 74
0
 40
0
 40
0
 40
0
 40
0
 40
1
 40
1
 40
1
 40
1
 10
617.602353
 20
42.347524
 30
0.0
 10
620.188319
 20
42.998671
 30
0.0
 10
620.770697
 20
43.495783
 30
0.0
 10
621.146005
 20
45.372378
 30
0.0
  0
SPLINE
  5
13e
100
AcDbEntity
  8
Layer_1
 62
7
100
AcDbSpline
 70
8
 71
3
 72
8
 73
4
 74
0
 40
0
 40
0
 40
0
 40
0
 40
1
 40
1
 40
1
 40
1
 10
621.146005
 20
45.372378
 30
0.0
 10
621.392903
 20
46.607492
 30
0.0
 10
621.785275
 20
63.058890
 30
0.0
 10
622.017660
 20
81.931080
 30
0.0
  0
SPLINE
  5
13f
100
AcDbEntity
  8
Layer_1
 62
7
100
AcDbSpline
 70
8
 71
3
 72
8
 73
4
 74
0
 40
0
 40
0
 40
0
 40
0
 40
1
 40
1
 40
1
 40
1
 10
622.017660
 20
81.931080
 30
0.0
 10
622.535975
 20
124.023442
 30
0.0
 10
623.728257
 20
157.654461
 30
0.0
 10
624.774980
 20
159.707569
 30
0.0
  0
SPLINE
  5
140
100
AcDbEntity
  8
Layer_1
 62
7
100
AcDbSpline
 70
8
 71
3
 72
8
 73
4
 74
0
 40
0
 40
0
 40
0
 40
0
 40
1
 40
1
 40
1
 40
1
 10
624.774980
 20
159.707569
 30
0.0
 10
626.759915
 20
163.600847
 30
0.0
 10
630.445980
 20
164.779976
 30
0.0
 10
634.338776
 20
162.766950
 30
0.0
  0
SPLINE
  5
141
100
AcDbEntity
  8
Layer_1
 62
7
100
AcDbSpline
 70
8
 71
3
 72
8
 73
4
 74
0
 40
0
 40
0
 40
0
 40
0
 40
1
 40
1
 40
1
 40
1
 10
634.338776
 20
162.766950
 30
0.0
 10
637.778424
 20
160.988236
 30
0.0
 10
638.177004
 20
158.542982
 30
0.0
 10
637.376755
 20
144.128279
 30
0.0
  0
SPLINE
  5
142
100
AcDbEntity
  8
Layer_1
 62
7
100
AcDbSpline
 70
8
 71
3
 72
8
 73
4
 74
0
 40
0
 40
0
 40
0
 40
0
 40
1
 40
1
 40
1
 40
1
 10
637.376755
 20
144.128279
 30
0.0
 10
636.518394
 20
128.666371
 30
0.0
 10
636.410621
 20
106.631110
 30
0.0
 10
637.195337
 20
107.030059
 30
0.0
  0
SPLINE
  5
143
100
AcDbEntity
  8
Layer_1
 62
7
100
AcDbSpline
 70
8
 71
3
 72
8
 73
4
 74
0
 40
0
 40
0
 40
0
 40
0
 40
1
 40
1
 40
1
 40
1
 10
637.195337
 20
107.030059
 30
0.0
 10
647.408891
 20
112.222371
 30
0.0
 10
654.954218
 20
114.257253
 30
0.0
 10
666.297947
 20
114.878636
 30
0.0
  0
SPLINE
  5
144
100
AcDbEntity
  8
Layer_1
 62
7
100
AcDbSpline
 70
8
 71
3
 72
8
 73
4
 74
0
 40
0
 40
0
 40
0
 40
0
 40
1
 40
1
 40
1
 40
1
 10
666.297947
 20
114.878636
 30
0.0
 10
675.474472
 20
115.381305
 30
0.0
 10
678.701182
 20
114.726982
 30
0.0
 10
682.401959
 20
111.612978
 30
0.0
  0
SPLINE
  5
145
100
AcDbEntity
  8
Layer_1
 62
7
100
AcDbSpline
 70
8
 71
3
 72
8
 73
4
 74
0
 40
0
 40
0
 40
0
 40
0
 40
1
 40
1
 40
1
 40
1
 10
682.401959
 20
111.612978
 30
0.0
 10
685.243723
 20
109.221781
 30
0.0
 10
685.306171
 20
106.690099
 30
0.0
 10
682.570337
 20
104.784874
 30
0.0
  0
SPLINE
  5
146
100
AcDbEntity
  8
Layer_1
 62
7
100
AcDbSpline
 70
8
 71
3
 72
8
 73
4
 74
0
 40
0
 40
0
 40
0
 40
0
 40
1
 40
1
 40
1
 40
1
 10
682.570337
 20
104.784874
 30
0.0
 10
679.338667
 20
102.534276
 30
0.0
 10
676.244278
 20
101.753047
 30
0.0
 10
668.342976
 20
101.192863
 30
0.0
  0
SPLINE
  5
147
100
AcDbEntity
  8
Layer_1
 62
7
100
AcDbSpline
 70
8
 71
3
 72
8
 73
4
 74
0
 40
0
 40
0
 40
0
 40
0
 40
1
 40
1
 40
1
 40
1
 10
668.342976
 20
101.192863
 30
0.0
 10
658.586509
 20
100.501152
 30
0.0
 10
651.052323
 20
98.509329
 30
0.0
 10
644.416493
 20
94.867371
 30
0.0
  0
SPLINE
  5
148
100
AcDbEntity
  8
Layer_1
 62
7
100
AcDbSpline
 70
8
 71
3
 72
8
 73
4
 74
0
 40
0
 40
0
 40
0
 40
0
 40
1
 40
1
 40
1
 40
1
 10
644.416493
 20
94.867371
 30
0.0
 10
641.411793
 20
93.218314
 30
0.0
 10
638.437707
 20
91.869077
 30
0.0
 10
637.807394
 20
91.869077
 30
0.0
  0
SPLINE
  5
149
100
AcDbEntity
  8
Layer_1
 62
7
100
AcDbSpline
 70
8
 71
3
 72
8
 73
4
 74
0
 40
0
 40
0
 40
0
 40
0
 40
1
 40
1
 40
1
 40
1
 10
637.807394
 20
91.869077
 30
0.0
 10
637.177053
 20
91.869077
 30
0.0
 10
636.491295
 20
91.109675
 30
0.0
 10
636.283487
 20
90.181554
 30
0.0
  0
SPLINE
  5
14a
100
AcDbEntity
  8
Layer_1
 62
7
100
AcDbSpline
 70
8
 71
3
 72
8
 73
4
 74
0
 40
0
 40
0
 40
0
 40
0
 40
1
 40
1
 40
1
 40
1
 10
636.283487
 20
90.181554
 30
0.0
 10
636.075707
 20
89.253433
 30
0.0
 10
635.816110
 20
78.922865
 30
0.0
 10
635.706692
 20
67.224720
 30
0.0
  0
LWPOLYLINE
  5
14b
100
AcDbEntity
  8
Layer_1
 62
7
100
AcDbPolyline
 90
2
 70
0
 10
482.713997
 20
18.037215
 30
0.0
 10
482.713997
 20
18.038037
 30
0.0
  0
SPLINE
  5
14c
100
AcDbEntity
  8
Layer_1
 62
7
100
AcDbSpline
 70
8
 71
3
 72
8
 73
4
 74
0
 40
0
 40
0
 40
0
 40
0
 40
1
 40
1
 40
1
 40
1
 10
639.632710
 20
46.442487
 30
0.0
 10
654.352648
 20
48.180665
 30
0.0
 10
660.711844
 20
48.508379
 30
0.0
 10
671.656710
 20
48.092791
 30
0.0
  0
SPLINE
  5
14d
100
AcDbEntity
  8
Layer_1
 62
7
100
AcDbSpline
 70
8
 71
3
 72
8
 73
4
 74
0
 40
0
 40
0
 40
0
 40
0
 40
1
 40
1
 40
1
 40
1
 10
671.656710
 20
48.092791
 30
0.0
 10
680.693572
 20
47.749657
 30
0.0
 10
684.477319
 20
47.311222
 30
0.0
 10
686.427558
 20
46.381230
 30
0.0
  0
SPLINE
  5
14e
100
AcDbEntity
  8
Layer_1
 62
7
100
AcDbSpline
 70
8
 71
3
 72
8
 73
4
 74
0
 40
0
 40
0
 40
0
 40
0
 40
1
 40
1
 40
1
 40
1
 10
686.427558
 20
46.381230
 30
0.0
 10
690.941085
 20
44.228852
 30
0.0
 10
691.822236
 20
38.984297
 30
0.0
 10
688.232266
 20
35.639737
 30
0.0
  0
SPLINE
  5
14f
100
AcDbEntity
  8
Layer_1
 62
7
100
AcDbSpline
 70
8
 71
3
 72
8
 73
4
 74
0
 40
0
 40
0
 40
0
 40
0
 40
1
 40
1
 40
1
 40
1
 10
688.232266
 20
35.639737
 30
0.0
 10
686.267599
 20
33.809347
 30
0.0
 10
687.022920
 20
33.870830
 30
0.0
 10
668.882750
 20
34.065032
 30
0.0
  0
SPLINE
  5
150
100
AcDbEntity
  8
Layer_1
 62
7
100
AcDbSpline
 70
8
 71
3
 72
8
 73
4
 74
0
 40
0
 40
0
 40
0
 40
0
 40
1
 40
1
 40
1
 40
1
 10
668.882750
 20
34.065032
 30
0.0
 10
658.904642
 20
34.171898
 30
0.0
 10
651.398093
 20
33.840528
 30
0.0
 10
645.257732
 20
33.022646
 30
0.0
  0
SPLINE
  5
151
100
AcDbEntity
  8
Layer_1
 62
7
100
AcDbSpline
 70
8
 71
3
 72
8
 73
4
 74
0
 40
0
 40
0
 40
0
 40
0
 40
1
 40
1
 40
1
 40
1
 10
645.257732
 20
33.022646
 30
0.0
 10
634.544203
 20
31.595429
 30
0.0
 10
633.632693
 20
31.351337
 30
0.0
 10
633.632693
 20
29.909322
 30
0.0
  0
SPLINE
  5
152
100
AcDbEntity
  8
Layer_1
 62
7
100
AcDbSpline
 70
8
 71
3
 72
8
 73
4
 74
0
 40
0
 40
0
 40
0
 40
0
 40
1
 40
1
 40
1
 40
1
 10
633.632693
 20
29.909322
 30
0.0
 10
633.632693
 20
29.299618
 30
0.0
 10
632.804295
 20
27.972378
 30
0.0
 10
631.791786
 20
26.959870
 30
0.0
  0
SPLINE
  5
153
100
AcDbEntity
  8
Layer_1
 62
7
100
AcDbSpline
 70
8
 71
3
 72
8
 73
4
 74
0
 40
0
 40
0
 40
0
 40
0
 40
1
 40
1
 40
1
 40
1
 10
631.791786
 20
26.959870
 30
0.0
 10
629.446426
 20
24.614481
 30
0.0
 10
624.929922
 20
24.454351
 30
0.0
 10
622.178044
 20
26.618946
 30
0.0
  0
SPLINE
  5
154
100
AcDbEntity
  8
Layer_1
 62
7
100
AcDbSpline
 70
8
 71
3
 72
8
 73
4
 74
0
 40
0
 40
0
 40
0
 40
0
 40
1
 40
1
 40
1
 40
1
 10
622.178044
 20
26.618946
 30
0.0
 10
619.695231
 20
28.571935
 30
0.0
 10
619.090572
 20
28.531314
 30
0.0
 10
611.011623
 20
25.868955
 30
0.0
  0
SPLINE
  5
155
100
AcDbEntity
  8
Layer_1
 62
7
100
AcDbSpline
 70
8
 71
3
 72
8
 73
4
 74
0
 40
0
 40
0
 40
0
 40
0
 40
1
 40
1
 40
1
 40
1
 10
611.011623
 20
25.868955
 30
0.0
 10
602.920909
 20
23.202712
 30
0.0
 10
601.469711
 20
23.119685
 30
0.0
 10
598.858800
 20
25.173388
 30
0.0
  0
LWPOLYLINE
  5
156
100
AcDbEntity
  8
Layer_1
 62
7
100
AcDbPolyline
 90
3
 70
0
 10
635.706692
 20
67.224720
 30
0.0
 10
635.507700
 20
45.955380
 30
0.0
 10
639.632710
 20
46.442487
 30
0.0
  0
LWPOLYLINE
  5
157
100
AcDbEntity
  8
Layer_1
 62
7
100
AcDbPolyline
 90
2
 70
0
 10
598.858800
 20
25.173388
 30
0.0
 10
598.858942
 20
25.173388
 30
0.0
  0
SPLINE
  5
158
100
AcDbEntity
  8
Layer_1
 62
7
100
AcDbSpline
 70
8
 71
3
 72
8
 73
4
 74
0
 40
0
 40
0
 40
0
 40
0
 40
1
 40
1
 40
1
 40
1
 10
725.770084
 20
46.606301
 30
0.0
 10
725.488603
 20
53.969558
 30
0.0
 10
724.404378
 20
69.444023
 30
0.0
 10
723.360717
 20
80.994058
 30
0.0
  0
SPLINE
  5
159
100
AcDbEntity
  8
Layer_1
 62
7
100
AcDbSpline
 70
8
 71
3
 72
8
 73
4
 74
0
 40
0
 40
0
 40
0
 40
0
 40
1
 40
1
 40
1
 40
1
 10
723.360717
 20
80.994058
 30
0.0
 10
722.317056
 20
92.544064
 30
0.0
 10
721.103712
 20
107.731578
 30
0.0
 10
720.664398
 20
114.744104
 30
0.0
  0
SPLINE
  5
15a
100
AcDbEntity
  8
Layer_1
 62
7
100
AcDbSpline
 70
8
 71
3
 72
8
 73
4
 74
0
 40
0
 40
0
 40
0
 40
0
 40
1
 40
1
 40
1
 40
1
 10
720.664398
 20
114.744104
 30
0.0
 10
719.365789
 20
135.472252
 30
0.0
 10
717.544952
 20
161.007540
 30
0.0
 10
717.123723
 20
164.397497
 30
0.0
  0
SPLINE
  5
15b
100
AcDbEntity
  8
Layer_1
 62
7
100
AcDbSpline
 70
8
 71
3
 72
8
 73
4
 74
0
 40
0
 40
0
 40
0
 40
0
 40
1
 40
1
 40
1
 40
1
 10
717.123723
 20
164.397497
 30
0.0
 10
716.783338
 20
167.136959
 30
0.0
 10
717.002400
 20
167.801373
 30
0.0
 10
718.791971
 20
169.459983
 30
0.0
  0
SPLINE
  5
15c
100
AcDbEntity
  8
Layer_1
 62
7
100
AcDbSpline
 70
8
 71
3
 72
8
 73
4
 74
0
 40
0
 40
0
 40
0
 40
0
 40
1
 40
1
 40
1
 40
1
 10
718.791971
 20
169.459983
 30
0.0
 10
722.152561
 20
172.574497
 30
0.0
 10
727.890487
 20
171.713926
 30
0.0
 10
729.919019
 20
167.791168
 30
0.0
  0
SPLINE
  5
15d
100
AcDbEntity
  8
Layer_1
 62
7
100
AcDbSpline
 70
8
 71
3
 72
8
 73
4
 74
0
 40
0
 40
0
 40
0
 40
0
 40
1
 40
1
 40
1
 40
1
 10
729.919019
 20
167.791168
 30
0.0
 10
731.265704
 20
165.186975
 30
0.0
 10
732.347435
 20
155.424301
 30
0.0
 10
733.386844
 20
136.494114
 30
0.0
  0
SPLINE
  5
15e
100
AcDbEntity
  8
Layer_1
 62
7
100
AcDbSpline
 70
8
 71
3
 72
8
 73
4
 74
0
 40
0
 40
0
 40
0
 40
0
 40
1
 40
1
 40
1
 40
1
 10
733.386844
 20
136.494114
 30
0.0
 10
734.667765
 20
113.165232
 30
0.0
 10
735.568248
 20
100.867134
 30
0.0
 10
737.587936
 20
79.119051
 30
0.0
  0
SPLINE
  5
15f
100
AcDbEntity
  8
Layer_1
 62
7
100
AcDbSpline
 70
8
 71
3
 72
8
 73
4
 74
0
 40
0
 40
0
 40
0
 40
0
 40
1
 40
1
 40
1
 40
1
 10
737.587936
 20
79.119051
 30
0.0
 10
738.641462
 20
67.775294
 30
0.0
 10
739.560654
 20
52.872492
 30
0.0
 10
739.630726
 20
46.001727
 30
0.0
  0
SPLINE
  5
160
100
AcDbEntity
  8
Layer_1
 62
7
100
AcDbSpline
 70
8
 71
3
 72
8
 73
4
 74
0
 40
0
 40
0
 40
0
 40
0
 40
1
 40
1
 40
1
 40
1
 10
739.630726
 20
46.001727
 30
0.0
 10
739.755734
 20
33.732669
 30
0.0
 10
739.725404
 20
33.474660
 30
0.0
 10
737.939773
 20
31.564191
 30
0.0
  0
SPLINE
  5
161
100
AcDbEntity
  8
Layer_1
 62
7
100
AcDbSpline
 70
8
 71
3
 72
8
 73
4
 74
0
 40
0
 40
0
 40
0
 40
0
 40
1
 40
1
 40
1
 40
1
 10
737.939773
 20
31.564191
 30
0.0
 10
735.508777
 20
28.963457
 30
0.0
 10
731.303036
 20
28.899507
 30
0.0
 10
728.374220
 20
31.418773
 30
0.0
  0
LWPOLYLINE
  5
162
100
AcDbEntity
  8
Layer_1
 62
7
100
AcDbPolyline
 90
3
 70
0
 10
728.374220
 20
31.418745
 30
0.0
 10
726.281852
 20
33.218549
 30
0.0
 10
725.770084
 20
46.606301
 30
0.0
  0
SPLINE
  5
163
100
AcDbEntity
  8
Layer_1
 62
7
100
AcDbSpline
 70
8
 71
3
 72
8
 73
4
 74
0
 40
0
 40
0
 40
0
 40
0
 40
1
 40
1
 40
1
 40
1
 10
175.353914
 20
31.683218
 30
0.0
 10
171.073224
 20
32.836268
 30
0.0
 10
168.632222
 20
36.277278
 30
0.0
 10
168.632222
 20
41.158615
 30
0.0
  0
SPLINE
  5
164
100
AcDbEntity
  8
Layer_1
 62
7
100
AcDbSpline
 70
8
 71
3
 72
8
 73
4
 74
0
 40
0
 40
0
 40
0
 40
0
 40
1
 40
1
 40
1
 40
1
 10
168.632222
 20
41.158615
 30
0.0
 10
168.632222
 20
44.840343
 30
0.0
 10
172.562662
 20
56.273505
 30
0.0
 10
180.256411
 20
74.971703
 30
0.0
  0
SPLINE
  5
165
100
AcDbEntity
  8
Layer_1
 62
7
100
AcDbSpline
 70
8
 71
3
 72
8
 73
4
 74
0
 40
0
 40
0
 40
0
 40
0
 40
1
 40
1
 40
1
 40
1
 10
180.256411
 20
74.971703
 30
0.0
 10
195.384993
 20
111.738950
 30
0.0
 10
201.258386
 20
128.294749
 30
0.0
 10
205.009110
 20
144.744107
 30
0.0
  0
SPLINE
  5
166
100
AcDbEntity
  8
Layer_1
 62
7
100
AcDbSpline
 70
8
 71
3
 72
8
 73
4
 74
0
 40
0
 40
0
 40
0
 40
0
 40
1
 40
1
 40
1
 40
1
 10
205.009110
 20
144.744107
 30
0.0
 10
206.137782
 20
149.694113
 30
0.0
 10
207.566049
 20
155.207081
 30
0.0
 10
208.183038
 20
156.995122
 30
0.0
  0
SPLINE
  5
167
100
AcDbEntity
  8
Layer_1
 62
7
100
AcDbSpline
 70
8
 71
3
 72
8
 73
4
 74
0
 40
0
 40
0
 40
0
 40
0
 40
1
 40
1
 40
1
 40
1
 10
208.183038
 20
156.995122
 30
0.0
 10
209.611078
 20
161.133597
 30
0.0
 10
212.847738
 20
163.339181
 30
0.0
 10
216.788411
 20
162.859104
 30
0.0
  0
SPLINE
  5
168
100
AcDbEntity
  8
Layer_1
 62
7
100
AcDbSpline
 70
8
 71
3
 72
8
 73
4
 74
0
 40
0
 40
0
 40
0
 40
0
 40
1
 40
1
 40
1
 40
1
 10
216.788411
 20
162.859104
 30
0.0
 10
219.259743
 20
162.558036
 30
0.0
 10
219.790106
 20
162.809498
 30
0.0
 10
221.549601
 20
165.116307
 30
0.0
  0
SPLINE
  5
169
100
AcDbEntity
  8
Layer_1
 62
7
100
AcDbSpline
 70
8
 71
3
 72
8
 73
4
 74
0
 40
0
 40
0
 40
0
 40
0
 40
1
 40
1
 40
1
 40
1
 10
221.549601
 20
165.116307
 30
0.0
 10
224.198241
 20
168.588838
 30
0.0
 10
226.497709
 20
169.404424
 30
0.0
 10
229.776746
 20
168.034352
 30
0.0
  0
SPLINE
  5
16a
100
AcDbEntity
  8
Layer_1
 62
7
100
AcDbSpline
 70
8
 71
3
 72
8
 73
4
 74
0
 40
0
 40
0
 40
0
 40
0
 40
1
 40
1
 40
1
 40
1
 10
229.776746
 20
168.034352
 30
0.0
 10
232.791963
 20
166.774521
 30
0.0
 10
235.086754
 20
163.355707
 30
0.0
 10
235.802644
 20
159.056989
 30
0.0
  0
SPLINE
  5
16b
100
AcDbEntity
  8
Layer_1
 62
7
100
AcDbSpline
 70
8
 71
3
 72
8
 73
4
 74
0
 40
0
 40
0
 40
0
 40
0
 40
1
 40
1
 40
1
 40
1
 10
235.802644
 20
159.056989
 30
0.0
 10
236.083275
 20
157.372414
 30
0.0
 10
236.960684
 20
153.884746
 30
0.0
 10
237.752628
 20
151.306604
 30
0.0
  0
SPLINE
  5
16c
100
AcDbEntity
  8
Layer_1
 62
7
100
AcDbSpline
 70
8
 71
3
 72
8
 73
4
 74
0
 40
0
 40
0
 40
0
 40
0
 40
1
 40
1
 40
1
 40
1
 10
237.752628
 20
151.306604
 30
0.0
 10
239.164170
 20
146.711609
 30
0.0
 10
239.244929
 20
146.619114
 30
0.0
 10
241.845125
 20
146.619114
 30
0.0
  0
SPLINE
  5
16d
100
AcDbEntity
  8
Layer_1
 62
7
100
AcDbSpline
 70
8
 71
3
 72
8
 73
4
 74
0
 40
0
 40
0
 40
0
 40
0
 40
1
 40
1
 40
1
 40
1
 10
241.845125
 20
146.619114
 30
0.0
 10
243.776910
 20
146.619114
 30
0.0
 10
245.093435
 20
146.023384
 30
0.0
 10
246.690023
 20
144.426796
 30
0.0
  0
SPLINE
  5
16e
100
AcDbEntity
  8
Layer_1
 62
7
100
AcDbSpline
 70
8
 71
3
 72
8
 73
4
 74
0
 40
0
 40
0
 40
0
 40
0
 40
1
 40
1
 40
1
 40
1
 10
246.690023
 20
144.426796
 30
0.0
 10
249.180461
 20
141.936358
 30
0.0
 10
249.542304
 20
138.608253
 30
0.0
 10
247.964198
 20
132.707816
 30
0.0
  0
SPLINE
  5
16f
100
AcDbEntity
  8
Layer_1
 62
7
100
AcDbSpline
 70
8
 71
3
 72
8
 73
4
 74
0
 40
0
 40
0
 40
0
 40
0
 40
1
 40
1
 40
1
 40
1
 10
247.964198
 20
132.707816
 30
0.0
 10
246.856275
 20
128.565401
 30
0.0
 10
246.404120
 20
129.525525
 30
0.0
 10
262.162645
 20
102.557067
 30
0.0
  0
SPLINE
  5
170
100
AcDbEntity
  8
Layer_1
 62
7
100
AcDbSpline
 70
8
 71
3
 72
8
 73
4
 74
0
 40
0
 40
0
 40
0
 40
0
 40
1
 40
1
 40
1
 40
1
 10
262.162645
 20
102.557067
 30
0.0
 10
274.219459
 20
81.923568
 30
0.0
 10
285.093061
 20
60.449028
 30
0.0
 10
288.586596
 20
50.371708
 30
0.0
  0
SPLINE
  5
171
100
AcDbEntity
  8
Layer_1
 62
7
100
AcDbSpline
 70
8
 71
3
 72
8
 73
4
 74
0
 40
0
 40
0
 40
0
 40
0
 40
1
 40
1
 40
1
 40
1
 10
288.586596
 20
50.371708
 30
0.0
 10
291.513939
 20
41.927712
 30
0.0
 10
291.717977
 20
35.915406
 30
0.0
 10
289.158827
 20
33.511227
 30
0.0
  0
SPLINE
  5
172
100
AcDbEntity
  8
Layer_1
 62
7
100
AcDbSpline
 70
8
 71
3
 72
8
 73
4
 74
0
 40
0
 40
0
 40
0
 40
0
 40
1
 40
1
 40
1
 40
1
 10
289.158827
 20
33.511227
 30
0.0
 10
285.334771
 20
29.918705
 30
0.0
 10
279.694244
 20
30.958880
 30
0.0
 10
276.811150
 20
35.788272
 30
0.0
  0
SPLINE
  5
173
100
AcDbEntity
  8
Layer_1
 62
7
100
AcDbSpline
 70
8
 71
3
 72
8
 73
4
 74
0
 40
0
 40
0
 40
0
 40
0
 40
1
 40
1
 40
1
 40
1
 10
276.811150
 20
35.788272
 30
0.0
 10
276.004834
 20
37.138898
 30
0.0
 10
274.247068
 20
41.450215
 30
0.0
 10
272.904975
 20
45.368977
 30
0.0
  0
SPLINE
  5
174
100
AcDbEntity
  8
Layer_1
 62
7
100
AcDbSpline
 70
8
 71
3
 72
8
 73
4
 74
0
 40
0
 40
0
 40
0
 40
0
 40
1
 40
1
 40
1
 40
1
 10
272.904975
 20
45.368977
 30
0.0
 10
271.562910
 20
49.287738
 30
0.0
 10
268.899388
 20
55.700225
 30
0.0
 10
266.986085
 20
59.618986
 30
0.0
  0
LWPOLYLINE
  5
175
100
AcDbEntity
  8
Layer_1
 62
7
100
AcDbPolyline
 90
1
 70
1
 10
728.374220
 20
31.418773
 30
0.0
  0
SPLINE
  5
176
100
AcDbEntity
  8
Layer_1
 62
7
100
AcDbSpline
 70
8
 71
3
 72
8
 73
4
 74
0
 40
0
 40
0
 40
0
 40
0
 40
1
 40
1
 40
1
 40
1
 10
251.132316
 20
66.993157
 30
0.0
 10
243.927175
 20
67.138291
 30
0.0
 10
236.344062
 20
66.868432
 30
0.0
 10
232.980779
 20
66.347254
 30
0.0
  0
SPLINE
  5
177
100
AcDbEntity
  8
Layer_1
 62
7
100
AcDbSpline
 70
8
 71
3
 72
8
 73
4
 74
0
 40
0
 40
0
 40
0
 40
0
 40
1
 40
1
 40
1
 40
1
 10
232.980779
 20
66.347254
 30
0.0
 10
227.547068
 20
65.505448
 30
0.0
 10
227.050862
 20
65.547146
 30
0.0
 10
224.619498
 20
67.049793
 30
0.0
  0
LWPOLYLINE
  5
178
100
AcDbEntity
  8
Layer_1
 62
7
100
AcDbPolyline
 90
3
 70
0
 10
266.986085
 20
59.618986
 30
0.0
 10
263.507346
 20
66.743991
 30
0.0
 10
251.132316
 20
66.993157
 30
0.0
  0
SPLINE
  5
179
100
AcDbEntity
  8
Layer_1
 62
7
100
AcDbSpline
 70
8
 71
3
 72
8
 73
4
 74
0
 40
0
 40
0
 40
0
 40
0
 40
1
 40
1
 40
1
 40
1
 10
218.650775
 20
60.570692
 30
0.0
 10
216.789573
 20
56.128569
 30
0.0
 10
214.327368
 20
49.794120
 30
0.0
 10
213.179193
 20
46.494106
 30
0.0
  0
SPLINE
  5
17a
100
AcDbEntity
  8
Layer_1
 62
7
100
AcDbSpline
 70
8
 71
3
 72
8
 73
4
 74
0
 40
0
 40
0
 40
0
 40
0
 40
1
 40
1
 40
1
 40
1
 10
213.179193
 20
46.494106
 30
0.0
 10
210.636541
 20
39.186181
 30
0.0
 10
207.543428
 20
35.619072
 30
0.0
 10
203.749136
 20
35.619072
 30
0.0
  0
SPLINE
  5
17b
100
AcDbEntity
  8
Layer_1
 62
7
100
AcDbSpline
 70
8
 71
3
 72
8
 73
4
 74
0
 40
0
 40
0
 40
0
 40
0
 40
1
 40
1
 40
1
 40
1
 10
203.749136
 20
35.619072
 30
0.0
 10
198.344197
 20
35.619072
 30
0.0
 10
195.139512
 20
40.394592
 30
0.0
 10
196.357929
 20
46.633088
 30
0.0
  0
SPLINE
  5
17c
100
AcDbEntity
  8
Layer_1
 62
7
100
AcDbSpline
 70
8
 71
3
 72
8
 73
4
 74
0
 40
0
 40
0
 40
0
 40
0
 40
1
 40
1
 40
1
 40
1
 10
196.357929
 20
46.633088
 30
0.0
 10
197.240412
 20
51.151406
 30
0.0
 10
202.269194
 20
64.289355
 30
0.0
 10
208.361961
 20
77.994148
 30
0.0
  0
SPLINE
  5
17d
100
AcDbEntity
  8
Layer_1
 62
7
100
AcDbSpline
 70
8
 71
3
 72
8
 73
4
 74
0
 40
0
 40
0
 40
0
 40
0
 40
1
 40
1
 40
1
 40
1
 10
208.361961
 20
77.994148
 30
0.0
 10
218.473922
 20
100.739603
 30
0.0
 10
228.632285
 20
126.033180
 30
0.0
 10
228.632285
 20
128.465820
 30
0.0
  0
SPLINE
  5
17e
100
AcDbEntity
  8
Layer_1
 62
7
100
AcDbSpline
 70
8
 71
3
 72
8
 73
4
 74
0
 40
0
 40
0
 40
0
 40
0
 40
1
 40
1
 40
1
 40
1
 10
228.632285
 20
128.465820
 30
0.0
 10
228.632285
 20
129.134996
 30
0.0
 10
227.493521
 20
132.396402
 30
0.0
 10
226.101680
 20
135.713395
 30
0.0
  0
SPLINE
  5
17f
100
AcDbEntity
  8
Layer_1
 62
7
100
AcDbSpline
 70
8
 71
3
 72
8
 73
4
 74
0
 40
0
 40
0
 40
0
 40
0
 40
1
 40
1
 40
1
 40
1
 10
226.101680
 20
135.713395
 30
0.0
 10
224.709839
 20
139.030360
 30
0.0
 10
223.351872
 20
142.383184
 30
0.0
 10
223.084026
 20
143.164101
 30
0.0
  0
SPLINE
  5
180
100
AcDbEntity
  8
Layer_1
 62
7
100
AcDbSpline
 70
8
 71
3
 72
8
 73
4
 74
0
 40
0
 40
0
 40
0
 40
0
 40
1
 40
1
 40
1
 40
1
 10
223.084026
 20
143.164101
 30
0.0
 10
222.816151
 20
143.945019
 30
0.0
 10
222.429987
 20
144.416931
 30
0.0
 10
222.225864
 20
144.212808
 30
0.0
  0
SPLINE
  5
181
100
AcDbEntity
  8
Layer_1
 62
7
100
AcDbSpline
 70
8
 71
3
 72
8
 73
4
 74
0
 40
0
 40
0
 40
0
 40
0
 40
1
 40
1
 40
1
 40
1
 10
222.225864
 20
144.212808
 30
0.0
 10
222.021769
 20
144.008713
 30
0.0
 10
220.541317
 20
138.982256
 30
0.0
 10
218.935998
 20
133.042957
 30
0.0
  0
SPLINE
  5
182
100
AcDbEntity
  8
Layer_1
 62
7
100
AcDbSpline
 70
8
 71
3
 72
8
 73
4
 74
0
 40
0
 40
0
 40
0
 40
0
 40
1
 40
1
 40
1
 40
1
 10
218.935998
 20
133.042957
 30
0.0
 10
215.307335
 20
119.617660
 30
0.0
 10
209.647503
 20
103.673153
 30
0.0
 10
201.258925
 20
83.244174
 30
0.0
  0
SPLINE
  5
183
100
AcDbEntity
  8
Layer_1
 62
7
100
AcDbSpline
 70
8
 71
3
 72
8
 73
4
 74
0
 40
0
 40
0
 40
0
 40
0
 40
1
 40
1
 40
1
 40
1
 10
201.258925
 20
83.244174
 30
0.0
 10
189.670169
 20
55.021752
 30
0.0
 10
187.359675
 20
49.063914
 30
0.0
 10
185.456236
 20
42.495549
 30
0.0
  0
SPLINE
  5
184
100
AcDbEntity
  8
Layer_1
 62
7
100
AcDbSpline
 70
8
 71
3
 72
8
 73
4
 74
0
 40
0
 40
0
 40
0
 40
0
 40
1
 40
1
 40
1
 40
1
 10
185.456236
 20
42.495549
 30
0.0
 10
183.028245
 20
34.117048
 30
0.0
 10
179.668477
 20
30.521182
 30
0.0
 10
175.353914
 20
31.683360
 30
0.0
  0
LWPOLYLINE
  5
185
100
AcDbEntity
  8
Layer_1
 62
7
100
AcDbPolyline
 90
3
 70
0
 10
224.619498
 20
67.049793
 30
0.0
 10
222.034780
 20
68.647232
 30
0.0
 10
218.650775
 20
60.570692
 30
0.0
  0
SPLINE
  5
186
100
AcDbEntity
  8
Layer_1
 62
7
100
AcDbSpline
 70
8
 71
3
 72
8
 73
4
 74
0
 40
0
 40
0
 40
0
 40
0
 40
1
 40
1
 40
1
 40
1
 10
245.725760
 20
83.430893
 30
0.0
 10
249.970931
 20
83.255711
 30
0.0
 10
253.580347
 20
83.332814
 30
0.0
 10
253.746713
 20
83.601822
 30
0.0
  0
SPLINE
  5
187
100
AcDbEntity
  8
Layer_1
 62
7
100
AcDbSpline
 70
8
 71
3
 72
8
 73
4
 74
0
 40
0
 40
0
 40
0
 40
0
 40
1
 40
1
 40
1
 40
1
 10
253.746713
 20
83.601822
 30
0.0
 10
254.131318
 20
84.224113
 30
0.0
 10
240.365495
 20
107.740138
 30
0.0
 10
239.531427
 20
107.885698
 30
0.0
  0
SPLINE
  5
188
100
AcDbEntity
  8
Layer_1
 62
7
100
AcDbSpline
 70
8
 71
3
 72
8
 73
4
 74
0
 40
0
 40
0
 40
0
 40
0
 40
1
 40
1
 40
1
 40
1
 10
239.531427
 20
107.885698
 30
0.0
 10
238.780472
 20
108.016658
 30
0.0
 10
228.518332
 20
83.660159
 30
0.0
 10
228.997700
 20
82.884542
 30
0.0
  0
SPLINE
  5
189
100
AcDbEntity
  8
Layer_1
 62
7
100
AcDbSpline
 70
8
 71
3
 72
8
 73
4
 74
0
 40
0
 40
0
 40
0
 40
0
 40
1
 40
1
 40
1
 40
1
 10
228.997700
 20
82.884542
 30
0.0
 10
229.183369
 20
82.584296
 30
0.0
 10
231.286311
 20
82.656070
 30
0.0
 10
233.671186
 20
83.044133
 30
0.0
  0
SPLINE
  5
18a
100
AcDbEntity
  8
Layer_1
 62
7
100
AcDbSpline
 70
8
 71
3
 72
8
 73
4
 74
0
 40
0
 40
0
 40
0
 40
0
 40
1
 40
1
 40
1
 40
1
 10
233.671186
 20
83.044133
 30
0.0
 10
236.056062
 20
83.432083
 30
0.0
 10
241.480617
 20
83.606159
 30
0.0
 10
245.725760
 20
83.431006
 30
0.0
  0
LWPOLYLINE
  5
18b
100
AcDbEntity
  8
Layer_1
 62
7
100
AcDbPolyline
 90
2
 70
0
 10
175.353914
 20
31.683360
 30
0.0
 10
175.353914
 20
31.683218
 30
0.0
  0
SPLINE
  5
18c
100
AcDbEntity
  8
Layer_1
 62
7
100
AcDbSpline
 70
8
 71
3
 72
8
 73
4
 74
0
 40
0
 40
0
 40
0
 40
0
 40
1
 40
1
 40
1
 40
1
 10
346.563484
 20
33.612877
 30
0.0
 10
341.714476
 20
36.305851
 30
0.0
 10
341.361024
 20
39.711838
 30
0.0
 10
340.673706
 20
90.369038
 30
0.0
  0
SPLINE
  5
18d
100
AcDbEntity
  8
Layer_1
 62
7
100
AcDbSpline
 70
8
 71
3
 72
8
 73
4
 74
0
 40
0
 40
0
 40
0
 40
0
 40
1
 40
1
 40
1
 40
1
 10
340.673706
 20
90.369038
 30
0.0
 10
340.158849
 20
128.316094
 30
0.0
 10
340.889423
 20
148.040379
 30
0.0
 10
342.996276
 20
153.083050
 30
0.0
  0
SPLINE
  5
18e
100
AcDbEntity
  8
Layer_1
 62
7
100
AcDbSpline
 70
8
 71
3
 72
8
 73
4
 74
0
 40
0
 40
0
 40
0
 40
0
 40
1
 40
1
 40
1
 40
1
 10
342.996276
 20
153.083050
 30
0.0
 10
344.345258
 20
156.311603
 30
0.0
 10
348.496205
 20
158.474412
 30
0.0
 10
351.375444
 20
157.448921
 30
0.0
  0
SPLINE
  5
18f
100
AcDbEntity
  8
Layer_1
 62
7
100
AcDbSpline
 70
8
 71
3
 72
8
 73
4
 74
0
 40
0
 40
0
 40
0
 40
0
 40
1
 40
1
 40
1
 40
1
 10
351.375444
 20
157.448921
 30
0.0
 10
352.463779
 20
157.061282
 30
0.0
 10
354.024707
 20
155.843517
 30
0.0
 10
354.844119
 20
154.742766
 30
0.0
  0
SPLINE
  5
190
100
AcDbEntity
  8
Layer_1
 62
7
100
AcDbSpline
 70
8
 71
3
 72
8
 73
4
 74
0
 40
0
 40
0
 40
0
 40
0
 40
1
 40
1
 40
1
 40
1
 10
354.844119
 20
154.742766
 30
0.0
 10
356.260480
 20
152.840234
 30
0.0
 10
356.291265
 20
152.284841
 30
0.0
 10
355.467856
 20
143.492751
 30
0.0
  0
SPLINE
  5
191
100
AcDbEntity
  8
Layer_1
 62
7
100
AcDbSpline
 70
8
 71
3
 72
8
 73
4
 74
0
 40
0
 40
0
 40
0
 40
0
 40
1
 40
1
 40
1
 40
1
 10
355.467856
 20
143.492751
 30
0.0
 10
354.382638
 20
131.905242
 30
0.0
 10
354.350692
 20
79.727537
 30
0.0
 10
355.414564
 20
56.230872
 30
0.0
  0
SPLINE
  5
192
100
AcDbEntity
  8
Layer_1
 62
7
100
AcDbSpline
 70
8
 71
3
 72
8
 73
4
 74
0
 40
0
 40
0
 40
0
 40
0
 40
1
 40
1
 40
1
 40
1
 10
355.414564
 20
56.230872
 30
0.0
 10
356.114524
 20
40.769588
 30
0.0
 10
356.069878
 20
38.423164
 30
0.0
 10
355.037839
 20
36.427429
 30
0.0
  0
SPLINE
  5
193
100
AcDbEntity
  8
Layer_1
 62
7
100
AcDbSpline
 70
8
 71
3
 72
8
 73
4
 74
0
 40
0
 40
0
 40
0
 40
0
 40
1
 40
1
 40
1
 40
1
 10
355.037839
 20
36.427429
 30
0.0
 10
353.142026
 20
32.761292
 30
0.0
 10
349.984991
 20
31.712755
 30
0.0
 10
346.563626
 20
33.612877
 30
0.0
  0
LWPOLYLINE
  5
194
100
AcDbEntity
  8
Layer_1
 62
7
100
AcDbPolyline
 90
2
 70
0
 10
245.725760
 20
83.431006
 30
0.0
 10
245.725760
 20
83.430893
 30
0.0
  0
SPLINE
  5
195
100
AcDbEntity
  8
Layer_1
 62
7
100
AcDbSpline
 70
8
 71
3
 72
8
 73
4
 74
0
 40
0
 40
0
 40
0
 40
0
 40
1
 40
1
 40
1
 40
1
 10
750.913737
 20
33.941526
 30
0.0
 10
750.036838
 20
34.082975
 30
0.0
 10
748.518061
 20
35.051915
 30
0.0
 10
747.538718
 20
36.094556
 30
0.0
  0
SPLINE
  5
196
100
AcDbEntity
  8
Layer_1
 62
7
100
AcDbSpline
 70
8
 71
3
 72
8
 73
4
 74
0
 40
0
 40
0
 40
0
 40
0
 40
1
 40
1
 40
1
 40
1
 10
747.538718
 20
36.094556
 30
0.0
 10
745.815535
 20
37.929056
 30
0.0
 10
745.765787
 20
38.321400
 30
0.0
 10
746.000552
 20
48.242149
 30
0.0
  0
SPLINE
  5
197
100
AcDbEntity
  8
Layer_1
 62
7
100
AcDbSpline
 70
8
 71
3
 72
8
 73
4
 74
0
 40
0
 40
0
 40
0
 40
0
 40
1
 40
1
 40
1
 40
1
 10
746.000552
 20
48.242149
 30
0.0
 10
746.314660
 20
61.519846
 30
0.0
 10
745.274457
 20
74.228260
 30
0.0
 10
741.202029
 20
106.869051
 30
0.0
  0
SPLINE
  5
198
100
AcDbEntity
  8
Layer_1
 62
7
100
AcDbSpline
 70
8
 71
3
 72
8
 73
4
 74
0
 40
0
 40
0
 40
0
 40
0
 40
1
 40
1
 40
1
 40
1
 10
741.202029
 20
106.869051
 30
0.0
 10
739.374956
 20
121.512822
 30
0.0
 10
737.493514
 20
139.906607
 30
0.0
 10
737.020978
 20
147.744101
 30
0.0
  0
SPLINE
  5
199
100
AcDbEntity
  8
Layer_1
 62
7
100
AcDbSpline
 70
8
 71
3
 72
8
 73
4
 74
0
 40
0
 40
0
 40
0
 40
0
 40
1
 40
1
 40
1
 40
1
 10
737.020978
 20
147.744101
 30
0.0
 10
736.203635
 20
161.300954
 30
0.0
 10
736.055553
 20
162.184883
 30
0.0
 10
733.976593
 20
165.915537
 30
0.0
  0
SPLINE
  5
19a
100
AcDbEntity
  8
Layer_1
 62
7
100
AcDbSpline
 70
8
 71
3
 72
8
 73
4
 74
0
 40
0
 40
0
 40
0
 40
0
 40
1
 40
1
 40
1
 40
1
 10
733.976593
 20
165.915537
 30
0.0
 10
732.774701
 20
168.072280
 30
0.0
 10
730.630686
 20
171.226111
 30
0.0
 10
729.212142
 20
172.923981
 30
0.0
  0
SPLINE
  5
19b
100
AcDbEntity
  8
Layer_1
 62
7
100
AcDbSpline
 70
8
 71
3
 72
8
 73
4
 74
0
 40
0
 40
0
 40
0
 40
0
 40
1
 40
1
 40
1
 40
1
 10
729.212142
 20
172.923981
 30
0.0
 10
727.793598
 20
174.621879
 30
0.0
 10
726.632980
 20
176.670906
 30
0.0
 10
726.632980
 20
177.477364
 30
0.0
  0
SPLINE
  5
19c
100
AcDbEntity
  8
Layer_1
 62
7
100
AcDbSpline
 70
8
 71
3
 72
8
 73
4
 74
0
 40
0
 40
0
 40
0
 40
0
 40
1
 40
1
 40
1
 40
1
 10
726.632980
 20
177.477364
 30
0.0
 10
726.632980
 20
179.998444
 30
0.0
 10
728.718375
 20
183.118996
 30
0.0
 10
731.048060
 20
184.083996
 30
0.0
  0
SPLINE
  5
19d
100
AcDbEntity
  8
Layer_1
 62
7
100
AcDbSpline
 70
8
 71
3
 72
8
 73
4
 74
0
 40
0
 40
0
 40
0
 40
0
 40
1
 40
1
 40
1
 40
1
 10
731.048060
 20
184.083996
 30
0.0
 10
734.527167
 20
185.525075
 30
0.0
 10
737.510323
 20
184.448759
 30
0.0
 10
740.694882
 20
180.603472
 30
0.0
  0
SPLINE
  5
19e
100
AcDbEntity
  8
Layer_1
 62
7
100
AcDbSpline
 70
8
 71
3
 72
8
 73
4
 74
0
 40
0
 40
0
 40
0
 40
0
 40
1
 40
1
 40
1
 40
1
 10
740.694882
 20
180.603472
 30
0.0
 10
743.442054
 20
177.286337
 30
0.0
 10
745.656284
 20
175.017738
 30
0.0
 10
748.824685
 20
172.274109
 30
0.0
  0
SPLINE
  5
19f
100
AcDbEntity
  8
Layer_1
 62
7
100
AcDbSpline
 70
8
 71
3
 72
8
 73
4
 74
0
 40
0
 40
0
 40
0
 40
0
 40
1
 40
1
 40
1
 40
1
 10
748.824685
 20
172.274109
 30
0.0
 10
749.894624
 20
171.347661
 30
0.0
 10
750.544212
 20
169.617532
 30
0.0
 10
750.873230
 20
166.818061
 30
0.0
  0
SPLINE
  5
1a0
100
AcDbEntity
  8
Layer_1
 62
7
100
AcDbSpline
 70
8
 71
3
 72
8
 73
4
 74
0
 40
0
 40
0
 40
0
 40
0
 40
1
 40
1
 40
1
 40
1
 10
750.873230
 20
166.818061
 30
0.0
 10
751.645360
 20
160.248250
 30
0.0
 10
770.084046
 20
120.922988
 30
0.0
 10
785.349428
 20
93.288556
 30
0.0
  0
SPLINE
  5
1a1
100
AcDbEntity
  8
Layer_1
 62
7
100
AcDbSpline
 70
8
 71
3
 72
8
 73
4
 74
0
 40
0
 40
0
 40
0
 40
0
 40
1
 40
1
 40
1
 40
1
 10
785.349428
 20
93.288556
 30
0.0
 10
788.856881
 20
86.939055
 30
0.0
 10
792.846821
 20
79.465898
 30
0.0
 10
794.215871
 20
76.681507
 30
0.0
  0
SPLINE
  5
1a2
100
AcDbEntity
  8
Layer_1
 62
7
100
AcDbSpline
 70
8
 71
3
 72
8
 73
4
 74
0
 40
0
 40
0
 40
0
 40
0
 40
1
 40
1
 40
1
 40
1
 10
794.215871
 20
76.681507
 30
0.0
 10
796.867204
 20
71.289153
 30
0.0
 10
797.665186
 20
70.608101
 30
0.0
 10
798.170462
 20
73.306517
 30
0.0
  0
SPLINE
  5
1a3
100
AcDbEntity
  8
Layer_1
 62
7
100
AcDbSpline
 70
8
 71
3
 72
8
 73
4
 74
0
 40
0
 40
0
 40
0
 40
0
 40
1
 40
1
 40
1
 40
1
 10
798.170462
 20
73.306517
 30
0.0
 10
798.344226
 20
74.234638
 30
0.0
 10
800.872280
 20
84.781518
 30
0.0
 10
803.788341
 20
96.744051
 30
0.0
  0
SPLINE
  5
1a4
100
AcDbEntity
  8
Layer_1
 62
7
100
AcDbSpline
 70
8
 71
3
 72
8
 73
4
 74
0
 40
0
 40
0
 40
0
 40
0
 40
1
 40
1
 40
1
 40
1
 10
803.788341
 20
96.744051
 30
0.0
 10
809.030628
 20
118.249488
 30
0.0
 10
811.403627
 20
126.993475
 30
0.0
 10
822.298602
 20
164.949800
 30
0.0
  0
SPLINE
  5
1a5
100
AcDbEntity
  8
Layer_1
 62
7
100
AcDbSpline
 70
8
 71
3
 72
8
 73
4
 74
0
 40
0
 40
0
 40
0
 40
0
 40
1
 40
1
 40
1
 40
1
 10
822.298602
 20
164.949800
 30
0.0
 10
825.370087
 20
175.650432
 30
0.0
 10
827.890600
 20
185.269192
 30
0.0
 10
827.899756
 20
186.324815
 30
0.0
  0
SPLINE
  5
1a6
100
AcDbEntity
  8
Layer_1
 62
7
100
AcDbSpline
 70
8
 71
3
 72
8
 73
4
 74
0
 40
0
 40
0
 40
0
 40
0
 40
1
 40
1
 40
1
 40
1
 10
827.899756
 20
186.324815
 30
0.0
 10
827.932638
 20
190.085913
 30
0.0
 10
832.367731
 20
193.571171
 30
0.0
 10
836.082936
 20
192.755189
 30
0.0
  0
SPLINE
  5
1a7
100
AcDbEntity
  8
Layer_1
 62
7
100
AcDbSpline
 70
8
 71
3
 72
8
 73
4
 74
0
 40
0
 40
0
 40
0
 40
0
 40
1
 40
1
 40
1
 40
1
 10
836.082936
 20
192.755189
 30
0.0
 10
839.640421
 20
191.973818
 30
0.0
 10
841.768109
 20
189.030743
 30
0.0
 10
841.692792
 20
184.995194
 30
0.0
  0
SPLINE
  5
1a8
100
AcDbEntity
  8
Layer_1
 62
7
100
AcDbSpline
 70
8
 71
3
 72
8
 73
4
 74
0
 40
0
 40
0
 40
0
 40
0
 40
1
 40
1
 40
1
 40
1
 10
841.692792
 20
184.995194
 30
0.0
 10
841.655375
 20
182.990984
 30
0.0
 10
838.546388
 20
170.752158
 30
0.0
 10
834.420953
 20
156.369118
 30
0.0
  0
SPLINE
  5
1a9
100
AcDbEntity
  8
Layer_1
 62
7
100
AcDbSpline
 70
8
 71
3
 72
8
 73
4
 74
0
 40
0
 40
0
 40
0
 40
0
 40
1
 40
1
 40
1
 40
1
 10
834.420953
 20
156.369118
 30
0.0
 10
816.323501
 20
93.274525
 30
0.0
 10
809.806274
 20
66.018888
 30
0.0
 10
809.504553
 20
52.166693
 30
0.0
  0
SPLINE
  5
1aa
100
AcDbEntity
  8
Layer_1
 62
7
100
AcDbSpline
 70
8
 71
3
 72
8
 73
4
 74
0
 40
0
 40
0
 40
0
 40
0
 40
1
 40
1
 40
1
 40
1
 10
809.504553
 20
52.166693
 30
0.0
 10
809.341845
 20
44.698270
 30
0.0
 10
809.241498
 20
44.259835
 30
0.0
 10
807.316743
 20
42.604173
 30
0.0
  0
SPLINE
  5
1ab
100
AcDbEntity
  8
Layer_1
 62
7
100
AcDbSpline
 70
8
 71
3
 72
8
 73
4
 74
0
 40
0
 40
0
 40
0
 40
0
 40
1
 40
1
 40
1
 40
1
 10
807.316743
 20
42.604173
 30
0.0
 10
804.360146
 20
40.061039
 30
0.0
 10
800.448529
 20
40.272418
 30
0.0
 10
796.939403
 20
43.164923
 30
0.0
  0
SPLINE
  5
1ac
100
AcDbEntity
  8
Layer_1
 62
7
100
AcDbSpline
 70
8
 71
3
 72
8
 73
4
 74
0
 40
0
 40
0
 40
0
 40
0
 40
1
 40
1
 40
1
 40
1
 10
796.939403
 20
43.164923
 30
0.0
 10
794.843378
 20
44.892670
 30
0.0
 10
792.721642
 20
48.372940
 30
0.0
 10
788.366232
 20
57.227449
 30
0.0
  0
SPLINE
  5
1ad
100
AcDbEntity
  8
Layer_1
 62
7
100
AcDbSpline
 70
8
 71
3
 72
8
 73
4
 74
0
 40
0
 40
0
 40
0
 40
0
 40
1
 40
1
 40
1
 40
1
 10
788.366232
 20
57.227449
 30
0.0
 10
785.183005
 20
63.699039
 30
0.0
 10
779.718708
 20
74.225255
 30
0.0
 10
776.223415
 20
80.619034
 30
0.0
  0
SPLINE
  5
1ae
100
AcDbEntity
  8
Layer_1
 62
7
100
AcDbSpline
 70
8
 71
3
 72
8
 73
4
 74
0
 40
0
 40
0
 40
0
 40
0
 40
1
 40
1
 40
1
 40
1
 10
776.223415
 20
80.619034
 30
0.0
 10
772.728094
 20
87.012784
 30
0.0
 10
766.225295
 20
99.331547
 30
0.0
 10
761.772627
 20
107.994066
 30
0.0
  0
SPLINE
  5
1af
100
AcDbEntity
  8
Layer_1
 62
7
100
AcDbSpline
 70
8
 71
3
 72
8
 73
4
 74
0
 40
0
 40
0
 40
0
 40
0
 40
1
 40
1
 40
1
 40
1
 10
761.772627
 20
107.994066
 30
0.0
 10
756.244749
 20
118.748386
 30
0.0
 10
753.669895
 20
123.100027
 30
0.0
 10
753.654985
 20
121.713515
 30
0.0
  0
SPLINE
  5
1b0
100
AcDbEntity
  8
Layer_1
 62
7
100
AcDbSpline
 70
8
 71
3
 72
8
 73
4
 74
0
 40
0
 40
0
 40
0
 40
0
 40
1
 40
1
 40
1
 40
1
 10
753.654985
 20
121.713515
 30
0.0
 10
753.643646
 20
120.596720
 30
0.0
 10
754.804889
 20
110.470643
 30
0.0
 10
756.237095
 20
99.211160
 30
0.0
  0
SPLINE
  5
1b1
100
AcDbEntity
  8
Layer_1
 62
7
100
AcDbSpline
 70
8
 71
3
 72
8
 73
4
 74
0
 40
0
 40
0
 40
0
 40
0
 40
1
 40
1
 40
1
 40
1
 10
756.237095
 20
99.211160
 30
0.0
 10
760.266606
 20
67.533498
 30
0.0
 10
761.137354
 20
42.348516
 30
0.0
 10
758.390408
 20
36.931458
 30
0.0
  0
SPLINE
  5
1b2
100
AcDbEntity
  8
Layer_1
 62
7
100
AcDbSpline
 70
8
 71
3
 72
8
 73
4
 74
0
 40
0
 40
0
 40
0
 40
0
 40
1
 40
1
 40
1
 40
1
 10
758.390408
 20
36.931458
 30
0.0
 10
757.815173
 20
35.797060
 30
0.0
 10
757.266527
 20
34.868939
 30
0.0
 10
757.171282
 20
34.868939
 30
0.0
  0
SPLINE
  5
1b3
100
AcDbEntity
  8
Layer_1
 62
7
100
AcDbSpline
 70
8
 71
3
 72
8
 73
4
 74
0
 40
0
 40
0
 40
0
 40
0
 40
1
 40
1
 40
1
 40
1
 10
757.171282
 20
34.868939
 30
0.0
 10
757.076038
 20
34.868939
 30
0.0
 10
755.987873
 20
34.602482
 30
0.0
 10
754.753071
 20
34.276582
 30
0.0
  0
SPLINE
  5
1b4
100
AcDbEntity
  8
Layer_1
 62
7
100
AcDbSpline
 70
8
 71
3
 72
8
 73
4
 74
0
 40
0
 40
0
 40
0
 40
0
 40
1
 40
1
 40
1
 40
1
 10
754.753071
 20
34.276582
 30
0.0
 10
753.518270
 20
33.950767
 30
0.0
 10
751.790551
 20
33.799992
 30
0.0
 10
750.913737
 20
33.941526
 30
0.0
  0
LWPOLYLINE
  5
1b5
100
AcDbEntity
  8
Layer_1
 62
7
100
AcDbPolyline
 90
2
 70
0
 10
346.563626
 20
33.612877
 30
0.0
 10
346.563484
 20
33.612877
 30
0.0
  0
SPLINE
  5
1b6
100
AcDbEntity
  8
Layer_1
 62
7
100
AcDbSpline
 70
8
 71
3
 72
8
 73
4
 74
0
 40
0
 40
0
 40
0
 40
0
 40
1
 40
1
 40
1
 40
1
 10
328.046703
 20
37.306454
 30
0.0
 10
325.163156
 20
39.841637
 30
0.0
 10
324.670636
 20
44.217485
 30
0.0
 10
323.889293
 20
74.244020
 30
0.0
  0
SPLINE
  5
1b7
100
AcDbEntity
  8
Layer_1
 62
7
100
AcDbSpline
 70
8
 71
3
 72
8
 73
4
 74
0
 40
0
 40
0
 40
0
 40
0
 40
1
 40
1
 40
1
 40
1
 10
323.889293
 20
74.244020
 30
0.0
 10
323.502845
 20
89.094041
 30
0.0
 10
322.611150
 20
111.930261
 30
0.0
 10
321.907675
 20
124.991192
 30
0.0
  0
SPLINE
  5
1b8
100
AcDbEntity
  8
Layer_1
 62
7
100
AcDbSpline
 70
8
 71
3
 72
8
 73
4
 74
0
 40
0
 40
0
 40
0
 40
0
 40
1
 40
1
 40
1
 40
1
 10
321.907675
 20
124.991192
 30
0.0
 10
320.682596
 20
147.737752
 30
0.0
 10
320.685289
 20
148.886522
 30
0.0
 10
321.971738
 20
152.255106
 30
0.0
  0
SPLINE
  5
1b9
100
AcDbEntity
  8
Layer_1
 62
7
100
AcDbSpline
 70
8
 71
3
 72
8
 73
4
 74
0
 40
0
 40
0
 40
0
 40
0
 40
1
 40
1
 40
1
 40
1
 10
321.971738
 20
152.255106
 30
0.0
 10
324.211848
 20
158.120761
 30
0.0
 10
330.160672
 20
159.325600
 30
0.0
 10
333.291259
 20
154.547714
 30
0.0
  0
SPLINE
  5
1ba
100
AcDbEntity
  8
Layer_1
 62
7
100
AcDbSpline
 70
8
 71
3
 72
8
 73
4
 74
0
 40
0
 40
0
 40
0
 40
0
 40
1
 40
1
 40
1
 40
1
 10
333.291259
 20
154.547714
 30
0.0
 10
334.230633
 20
153.114033
 30
0.0
 10
334.681342
 20
149.719965
 30
0.0
 10
335.163034
 20
140.451710
 30
0.0
  0
SPLINE
  5
1bb
100
AcDbEntity
  8
Layer_1
 62
7
100
AcDbSpline
 70
8
 71
3
 72
8
 73
4
 74
0
 40
0
 40
0
 40
0
 40
0
 40
1
 40
1
 40
1
 40
1
 10
335.163034
 20
140.451710
 30
0.0
 10
336.406227
 20
116.532342
 30
0.0
 10
337.418338
 20
92.654134
 30
0.0
 10
338.176012
 20
69.369019
 30
0.0
  0
SPLINE
  5
1bc
100
AcDbEntity
  8
Layer_1
 62
7
100
AcDbSpline
 70
8
 71
3
 72
8
 73
4
 74
0
 40
0
 40
0
 40
0
 40
0
 40
1
 40
1
 40
1
 40
1
 10
338.176012
 20
69.369019
 30
0.0
 10
338.598800
 20
56.375240
 30
0.0
 10
339.129219
 20
44.539615
 30
0.0
 10
339.354744
 20
43.067638
 30
0.0
  0
SPLINE
  5
1bd
100
AcDbEntity
  8
Layer_1
 62
7
100
AcDbSpline
 70
8
 71
3
 72
8
 73
4
 74
0
 40
0
 40
0
 40
0
 40
0
 40
1
 40
1
 40
1
 40
1
 10
339.354744
 20
43.067638
 30
0.0
 10
340.283630
 20
37.004308
 30
0.0
 10
332.753781
 20
33.168036
 30
0.0
 10
328.046675
 20
37.306454
 30
0.0
  0
LWPOLYLINE
  5
1be
100
AcDbEntity
  8
Layer_1
 62
7
100
AcDbPolyline
 90
1
 70
1
 10
750.913737
 20
33.941526
 30
0.0
  0
SPLINE
  5
1bf
100
AcDbEntity
  8
Layer_1
 62
7
100
AcDbSpline
 70
8
 71
3
 72
8
 73
4
 74
0
 40
0
 40
0
 40
0
 40
0
 40
1
 40
1
 40
1
 40
1
 10
400.588247
 20
39.181475
 30
0.0
 10
399.146403
 20
40.728343
 30
0.0
 10
392.149127
 20
50.768984
 30
0.0
 10
385.038749
 20
61.493994
 30
0.0
  0
SPLINE
  5
1c0
100
AcDbEntity
  8
Layer_1
 62
7
100
AcDbSpline
 70
8
 71
3
 72
8
 73
4
 74
0
 40
0
 40
0
 40
0
 40
0
 40
1
 40
1
 40
1
 40
1
 10
385.038749
 20
61.493994
 30
0.0
 10
360.679784
 20
98.236154
 30
0.0
 10
360.427784
 20
98.650211
 30
0.0
 10
360.041988
 20
102.564749
 30
0.0
  0
SPLINE
  5
1c1
100
AcDbEntity
  8
Layer_1
 62
7
100
AcDbSpline
 70
8
 71
3
 72
8
 73
4
 74
0
 40
0
 40
0
 40
0
 40
0
 40
1
 40
1
 40
1
 40
1
 10
360.041988
 20
102.564749
 30
0.0
 10
359.714954
 20
105.882763
 30
0.0
 10
359.878145
 20
106.312864
 30
0.0
 10
362.348003
 20
108.642237
 30
0.0
  0
SPLINE
  5
1c2
100
AcDbEntity
  8
Layer_1
 62
7
100
AcDbSpline
 70
8
 71
3
 72
8
 73
4
 74
0
 40
0
 40
0
 40
0
 40
0
 40
1
 40
1
 40
1
 40
1
 10
362.348003
 20
108.642237
 30
0.0
 10
364.318028
 20
110.500208
 30
0.0
 10
366.165568
 20
111.377164
 30
0.0
 10
369.486275
 20
112.030465
 30
0.0
  0
SPLINE
  5
1c3
100
AcDbEntity
  8
Layer_1
 62
7
100
AcDbSpline
 70
8
 71
3
 72
8
 73
4
 74
0
 40
0
 40
0
 40
0
 40
0
 40
1
 40
1
 40
1
 40
1
 10
369.486275
 20
112.030465
 30
0.0
 10
373.935909
 20
112.905862
 30
0.0
 10
379.060643
 20
115.895879
 30
0.0
 10
381.750329
 20
119.185829
 30
0.0
  0
SPLINE
  5
1c4
100
AcDbEntity
  8
Layer_1
 62
7
100
AcDbSpline
 70
8
 71
3
 72
8
 73
4
 74
0
 40
0
 40
0
 40
0
 40
0
 40
1
 40
1
 40
1
 40
1
 10
381.750329
 20
119.185829
 30
0.0
 10
384.478226
 20
122.522580
 30
0.0
 10
385.738681
 20
129.199767
 30
0.0
 10
385.725471
 20
140.244101
 30
0.0
  0
SPLINE
  5
1c5
100
AcDbEntity
  8
Layer_1
 62
7
100
AcDbSpline
 70
8
 71
3
 72
8
 73
4
 74
0
 40
0
 40
0
 40
0
 40
0
 40
1
 40
1
 40
1
 40
1
 10
385.725471
 20
140.244101
 30
0.0
 10
385.714133
 20
149.405915
 30
0.0
 10
385.494731
 20
151.291410
 30
0.0
 10
384.000587
 20
155.038505
 30
0.0
  0
SPLINE
  5
1c6
100
AcDbEntity
  8
Layer_1
 62
7
100
AcDbSpline
 70
8
 71
3
 72
8
 73
4
 74
0
 40
0
 40
0
 40
0
 40
0
 40
1
 40
1
 40
1
 40
1
 10
384.000587
 20
155.038505
 30
0.0
 10
380.942596
 20
162.707791
 30
0.0
 10
373.979166
 20
166.713547
 30
0.0
 10
360.611327
 20
168.493367
 30
0.0
  0
SPLINE
  5
1c7
100
AcDbEntity
  8
Layer_1
 62
7
100
AcDbSpline
 70
8
 71
3
 72
8
 73
4
 74
0
 40
0
 40
0
 40
0
 40
0
 40
1
 40
1
 40
1
 40
1
 10
360.611327
 20
168.493367
 30
0.0
 10
349.361170
 20
169.991224
 30
0.0
 10
329.112475
 20
166.760291
 30
0.0
 10
321.930040
 20
162.321315
 30
0.0
  0
SPLINE
  5
1c8
100
AcDbEntity
  8
Layer_1
 62
7
100
AcDbSpline
 70
8
 71
3
 72
8
 73
4
 74
0
 40
0
 40
0
 40
0
 40
0
 40
1
 40
1
 40
1
 40
1
 10
321.930040
 20
162.321315
 30
0.0
 10
320.637723
 20
161.522624
 30
0.0
 10
318.828537
 20
160.869124
 30
0.0
 10
317.909600
 20
160.869124
 30
0.0
  0
SPLINE
  5
1c9
100
AcDbEntity
  8
Layer_1
 62
7
100
AcDbSpline
 70
8
 71
3
 72
8
 73
4
 74
0
 40
0
 40
0
 40
0
 40
0
 40
1
 40
1
 40
1
 40
1
 10
317.909600
 20
160.869124
 30
0.0
 10
315.559619
 20
160.869124
 30
0.0
 10
312.159768
 20
163.038821
 30
0.0
 10
311.196328
 20
165.153385
 30
0.0
  0
SPLINE
  5
1ca
100
AcDbEntity
  8
Layer_1
 62
7
100
AcDbSpline
 70
8
 71
3
 72
8
 73
4
 74
0
 40
0
 40
0
 40
0
 40
0
 40
1
 40
1
 40
1
 40
1
 10
311.196328
 20
165.153385
 30
0.0
 10
308.182755
 20
171.767416
 30
0.0
 10
312.849722
 20
175.380970
 30
0.0
 10
330.632442
 20
180.202426
 30
0.0
  0
SPLINE
  5
1cb
100
AcDbEntity
  8
Layer_1
 62
7
100
AcDbSpline
 70
8
 71
3
 72
8
 73
4
 74
0
 40
0
 40
0
 40
0
 40
0
 40
1
 40
1
 40
1
 40
1
 10
330.632442
 20
180.202426
 30
0.0
 10
337.097314
 20
181.955259
 30
0.0
 10
339.112438
 20
182.139342
 30
0.0
 10
352.382453
 20
182.189203
 30
0.0
  0
SPLINE
  5
1cc
100
AcDbEntity
  8
Layer_1
 62
7
100
AcDbSpline
 70
8
 71
3
 72
8
 73
4
 74
0
 40
0
 40
0
 40
0
 40
0
 40
1
 40
1
 40
1
 40
1
 10
352.382453
 20
182.189203
 30
0.0
 10
365.720017
 20
182.239376
 30
0.0
 10
367.500319
 20
182.089423
 30
0.0
 10
372.606061
 20
180.486146
 30
0.0
  0
SPLINE
  5
1cd
100
AcDbEntity
  8
Layer_1
 62
7
100
AcDbSpline
 70
8
 71
3
 72
8
 73
4
 74
0
 40
0
 40
0
 40
0
 40
0
 40
1
 40
1
 40
1
 40
1
 10
372.606061
 20
180.486146
 30
0.0
 10
392.554312
 20
174.222194
 30
0.0
 10
399.896480
 20
163.524170
 30
0.0
 10
399.967261
 20
140.619096
 30
0.0
  0
SPLINE
  5
1ce
100
AcDbEntity
  8
Layer_1
 62
7
100
AcDbSpline
 70
8
 71
3
 72
8
 73
4
 74
0
 40
0
 40
0
 40
0
 40
0
 40
1
 40
1
 40
1
 40
1
 10
399.967261
 20
140.619096
 30
0.0
 10
400.032174
 20
119.584013
 30
0.0
 10
394.623181
 20
108.196347
 30
0.0
 10
381.385510
 20
101.499232
 30
0.0
  0
SPLINE
  5
1cf
100
AcDbEntity
  8
Layer_1
 62
7
100
AcDbSpline
 70
8
 71
3
 72
8
 73
4
 74
0
 40
0
 40
0
 40
0
 40
0
 40
1
 40
1
 40
1
 40
1
 10
381.385510
 20
101.499232
 30
0.0
 10
377.187932
 20
99.375626
 30
0.0
 10
377.056490
 20
99.221676
 30
0.0
 10
378.090967
 20
97.640707
 30
0.0
  0
SPLINE
  5
1d0
100
AcDbEntity
  8
Layer_1
 62
7
100
AcDbSpline
 70
8
 71
3
 72
8
 73
4
 74
0
 40
0
 40
0
 40
0
 40
0
 40
1
 40
1
 40
1
 40
1
 10
378.090967
 20
97.640707
 30
0.0
 10
378.683578
 20
96.735037
 30
0.0
 10
381.963268
 20
91.606532
 30
0.0
 10
385.379134
 20
86.244027
 30
0.0
  0
SPLINE
  5
1d1
100
AcDbEntity
  8
Layer_1
 62
7
100
AcDbSpline
 70
8
 71
3
 72
8
 73
4
 74
0
 40
0
 40
0
 40
0
 40
0
 40
1
 40
1
 40
1
 40
1
 10
385.379134
 20
86.244027
 30
0.0
 10
394.476601
 20
71.962128
 30
0.0
 10
407.514260
 20
52.701676
 30
0.0
 10
410.518535
 20
49.105838
 30
0.0
  0
SPLINE
  5
1d2
100
AcDbEntity
  8
Layer_1
 62
7
100
AcDbSpline
 70
8
 71
3
 72
8
 73
4
 74
0
 40
0
 40
0
 40
0
 40
0
 40
1
 40
1
 40
1
 40
1
 10
410.518535
 20
49.105838
 30
0.0
 10
415.463241
 20
43.187402
 30
0.0
 10
413.221146
 20
36.368950
 30
0.0
 10
406.330284
 20
36.368950
 30
0.0
  0
SPLINE
  5
1d3
100
AcDbEntity
  8
Layer_1
 62
7
100
AcDbSpline
 70
8
 71
3
 72
8
 73
4
 74
0
 40
0
 40
0
 40
0
 40
0
 40
1
 40
1
 40
1
 40
1
 10
406.330284
 20
36.368950
 30
0.0
 10
403.690488
 20
36.368950
 30
0.0
 10
402.806021
 20
36.802170
 30
0.0
 10
400.588247
 20
39.181475
 30
0.0
  0
LWPOLYLINE
  5
1d4
100
AcDbEntity
  8
Layer_1
 62
7
100
AcDbPolyline
 90
1
 70
1
 10
328.046675
 20
37.306454
 30
0.0
  0
SPLINE
  5
1d5
100
AcDbEntity
  8
Layer_1
 62
7
100
AcDbSpline
 70
8
 71
3
 72
8
 73
4
 74
0
 40
0
 40
0
 40
0
 40
0
 40
1
 40
1
 40
1
 40
1
 10
600.828825
 20
44.266071
 30
0.0
 10
597.991369
 20
46.253529
 30
0.0
 10
597.617932
 20
49.661543
 30
0.0
 10
598.789748
 20
62.876197
 30
0.0
  0
SPLINE
  5
1d6
100
AcDbEntity
  8
Layer_1
 62
7
100
AcDbSpline
 70
8
 71
3
 72
8
 73
4
 74
0
 40
0
 40
0
 40
0
 40
0
 40
1
 40
1
 40
1
 40
1
 10
598.789748
 20
62.876197
 30
0.0
 10
600.157069
 20
78.295982
 30
0.0
 10
600.143321
 20
102.255205
 30
0.0
 10
598.753748
 20
125.244071
 30
0.0
  0
SPLINE
  5
1d7
100
AcDbEntity
  8
Layer_1
 62
7
100
AcDbSpline
 70
8
 71
3
 72
8
 73
4
 74
0
 40
0
 40
0
 40
0
 40
0
 40
1
 40
1
 40
1
 40
1
 10
598.753748
 20
125.244071
 30
0.0
 10
597.255749
 20
150.029934
 30
0.0
 10
597.292203
 20
154.282532
 30
0.0
 10
599.020772
 20
156.417392
 30
0.0
  0
SPLINE
  5
1d8
100
AcDbEntity
  8
Layer_1
 62
7
100
AcDbSpline
 70
8
 71
3
 72
8
 73
4
 74
0
 40
0
 40
0
 40
0
 40
0
 40
1
 40
1
 40
1
 40
1
 10
599.020772
 20
156.417392
 30
0.0
 10
600.382226
 20
158.098679
 30
0.0
 10
600.373750
 20
158.183634
 30
0.0
 10
598.582818
 20
160.812969
 30
0.0
  0
SPLINE
  5
1d9
100
AcDbEntity
  8
Layer_1
 62
7
100
AcDbSpline
 70
8
 71
3
 72
8
 73
4
 74
0
 40
0
 40
0
 40
0
 40
0
 40
1
 40
1
 40
1
 40
1
 10
598.582818
 20
160.812969
 30
0.0
 10
594.755361
 20
166.432208
 30
0.0
 10
597.808080
 20
171.194533
 30
0.0
 10
608.507522
 20
176.295768
 30
0.0
  0
SPLINE
  5
1da
100
AcDbEntity
  8
Layer_1
 62
7
100
AcDbSpline
 70
8
 71
3
 72
8
 73
4
 74
0
 40
0
 40
0
 40
0
 40
0
 40
1
 40
1
 40
1
 40
1
 10
608.507522
 20
176.295768
 30
0.0
 10
624.539392
 20
183.939372
 30
0.0
 10
650.032841
 20
188.609656
 30
0.0
 10
675.762586
 20
188.616601
 30
0.0
  0
SPLINE
  5
1db
100
AcDbEntity
  8
Layer_1
 62
7
100
AcDbSpline
 70
8
 71
3
 72
8
 73
4
 74
0
 40
0
 40
0
 40
0
 40
0
 40
1
 40
1
 40
1
 40
1
 10
675.762586
 20
188.616601
 30
0.0
 10
684.895827
 20
188.618840
 30
0.0
 10
685.357790
 20
188.543183
 30
0.0
 10
687.575081
 20
186.677502
 30
0.0
  0
SPLINE
  5
1dc
100
AcDbEntity
  8
Layer_1
 62
7
100
AcDbSpline
 70
8
 71
3
 72
8
 73
4
 74
0
 40
0
 40
0
 40
0
 40
0
 40
1
 40
1
 40
1
 40
1
 10
687.575081
 20
186.677502
 30
0.0
 10
690.660200
 20
184.081558
 30
0.0
 10
690.801167
 20
179.992208
 30
0.0
 10
687.905374
 20
177.096415
 30
0.0
  0
SPLINE
  5
1dd
100
AcDbEntity
  8
Layer_1
 62
7
100
AcDbSpline
 70
8
 71
3
 72
8
 73
4
 74
0
 40
0
 40
0
 40
0
 40
0
 40
1
 40
1
 40
1
 40
1
 10
687.905374
 20
177.096415
 30
0.0
 10
686.140380
 20
175.331449
 30
0.0
 10
685.355239
 20
175.118822
 30
0.0
 10
680.592857
 20
175.116101
 30
0.0
  0
SPLINE
  5
1de
100
AcDbEntity
  8
Layer_1
 62
7
100
AcDbSpline
 70
8
 71
3
 72
8
 73
4
 74
0
 40
0
 40
0
 40
0
 40
0
 40
1
 40
1
 40
1
 40
1
 10
680.592857
 20
175.116101
 30
0.0
 10
672.780648
 20
175.110431
 30
0.0
 10
655.458870
 20
173.772618
 30
0.0
 10
646.154757
 20
172.453939
 30
0.0
  0
SPLINE
  5
1df
100
AcDbEntity
  8
Layer_1
 62
7
100
AcDbSpline
 70
8
 71
3
 72
8
 73
4
 74
0
 40
0
 40
0
 40
0
 40
0
 40
1
 40
1
 40
1
 40
1
 10
646.154757
 20
172.453939
 30
0.0
 10
631.479975
 20
170.374072
 30
0.0
 10
615.384693
 20
165.396343
 30
0.0
 10
609.963029
 20
161.261014
 30
0.0
  0
LWPOLYLINE
  5
1e0
100
AcDbEntity
  8
Layer_1
 62
7
100
AcDbPolyline
 90
1
 70
1
 10
400.588247
 20
39.181475
 30
0.0
  0
SPLINE
  5
1e1
100
AcDbEntity
  8
Layer_1
 62
7
100
AcDbSpline
 70
8
 71
3
 72
8
 73
4
 74
0
 40
0
 40
0
 40
0
 40
0
 40
1
 40
1
 40
1
 40
1
 10
609.236480
 20
157.007367
 30
0.0
 10
610.279319
 20
155.768030
 30
0.0
 10
611.139749
 20
153.851807
 30
0.0
 10
611.148565
 20
152.749072
 30
0.0
  0
SPLINE
  5
1e2
100
AcDbEntity
  8
Layer_1
 62
7
100
AcDbSpline
 70
8
 71
3
 72
8
 73
4
 74
0
 40
0
 40
0
 40
0
 40
0
 40
1
 40
1
 40
1
 40
1
 10
611.148565
 20
152.749072
 30
0.0
 10
611.157069
 20
151.646336
 30
0.0
 10
611.664896
 20
143.487847
 30
0.0
 10
612.276358
 20
134.619107
 30
0.0
  0
SPLINE
  5
1e3
100
AcDbEntity
  8
Layer_1
 62
7
100
AcDbSpline
 70
8
 71
3
 72
8
 73
4
 74
0
 40
0
 40
0
 40
0
 40
0
 40
1
 40
1
 40
1
 40
1
 10
612.276358
 20
134.619107
 30
0.0
 10
614.230339
 20
106.279557
 30
0.0
 10
614.498837
 20
82.974769
 30
0.0
 10
613.075616
 20
65.244008
 30
0.0
  0
SPLINE
  5
1e4
100
AcDbEntity
  8
Layer_1
 62
7
100
AcDbSpline
 70
8
 71
3
 72
8
 73
4
 74
0
 40
0
 40
0
 40
0
 40
0
 40
1
 40
1
 40
1
 40
1
 10
613.075616
 20
65.244008
 30
0.0
 10
612.380305
 20
56.581489
 30
0.0
 10
611.654578
 20
48.743939
 30
0.0
 10
611.462899
 20
47.827241
 30
0.0
  0
SPLINE
  5
1e5
100
AcDbEntity
  8
Layer_1
 62
7
100
AcDbSpline
 70
8
 71
3
 72
8
 73
4
 74
0
 40
0
 40
0
 40
0
 40
0
 40
1
 40
1
 40
1
 40
1
 10
611.462899
 20
47.827241
 30
0.0
 10
610.594391
 20
43.673658
 30
0.0
 10
604.559592
 20
41.652751
 30
0.0
 10
600.828541
 20
44.266071
 30
0.0
  0
LWPOLYLINE
  5
1e6
100
AcDbEntity
  8
Layer_1
 62
7
100
AcDbPolyline
 90
3
 70
0
 10
609.963029
 20
161.261014
 30
0.0
 10
607.340440
 20
159.260687
 30
0.0
 10
609.236480
 20
157.007367
 30
0.0
  0
SPLINE
  5
1e7
100
AcDbEntity
  8
Layer_1
 62
7
100
AcDbSpline
 70
8
 71
3
 72
8
 73
4
 74
0
 40
0
 40
0
 40
0
 40
0
 40
1
 40
1
 40
1
 40
1
 10
462.502804
 20
46.016467
 30
0.0
 10
460.146558
 20
48.121790
 30
0.0
 10
460.088420
 20
48.331695
 30
0.0
 10
459.543316
 20
56.703975
 30
0.0
  0
SPLINE
  5
1e8
100
AcDbEntity
  8
Layer_1
 62
7
100
AcDbSpline
 70
8
 71
3
 72
8
 73
4
 74
0
 40
0
 40
0
 40
0
 40
0
 40
1
 40
1
 40
1
 40
1
 10
459.543316
 20
56.703975
 30
0.0
 10
459.237486
 20
61.400989
 30
0.0
 10
458.963716
 20
73.161439
 30
0.0
 10
458.934944
 20
82.838338
 30
0.0
  0
SPLINE
  5
1e9
100
AcDbEntity
  8
Layer_1
 62
7
100
AcDbSpline
 70
8
 71
3
 72
8
 73
4
 74
0
 40
0
 40
0
 40
0
 40
0
 40
1
 40
1
 40
1
 40
1
 10
458.934944
 20
82.838338
 30
0.0
 10
458.906031
 20
92.515207
 30
0.0
 10
458.523381
 20
110.065231
 30
0.0
 10
458.084379
 20
121.838381
 30
0.0
  0
SPLINE
  5
1ea
100
AcDbEntity
  8
Layer_1
 62
7
100
AcDbSpline
 70
8
 71
3
 72
8
 73
4
 74
0
 40
0
 40
0
 40
0
 40
0
 40
1
 40
1
 40
1
 40
1
 10
458.084379
 20
121.838381
 30
0.0
 10
457.039981
 20
149.844945
 30
0.0
 10
457.820473
 20
154.870098
 30
0.0
 10
463.658859
 20
157.732754
 30
0.0
  0
SPLINE
  5
1eb
100
AcDbEntity
  8
Layer_1
 62
7
100
AcDbSpline
 70
8
 71
3
 72
8
 73
4
 74
0
 40
0
 40
0
 40
0
 40
0
 40
1
 40
1
 40
1
 40
1
 10
463.658859
 20
157.732754
 30
0.0
 10
465.254625
 20
158.515174
 30
0.0
 10
466.233458
 20
158.537143
 30
0.0
 10
468.351508
 20
157.838203
 30
0.0
  0
SPLINE
  5
1ec
100
AcDbEntity
  8
Layer_1
 62
7
100
AcDbSpline
 70
8
 71
3
 72
8
 73
4
 74
0
 40
0
 40
0
 40
0
 40
0
 40
1
 40
1
 40
1
 40
1
 10
468.351508
 20
157.838203
 30
0.0
 10
473.085543
 20
156.275829
 30
0.0
 10
473.324730
 20
154.663622
 30
0.0
 10
474.628754
 20
115.526098
 30
0.0
  0
SPLINE
  5
1ed
100
AcDbEntity
  8
Layer_1
 62
7
100
AcDbSpline
 70
8
 71
3
 72
8
 73
4
 74
0
 40
0
 40
0
 40
0
 40
0
 40
1
 40
1
 40
1
 40
1
 10
474.628754
 20
115.526098
 30
0.0
 10
475.713745
 20
82.962268
 30
0.0
 10
475.663741
 20
50.556555
 30
0.0
 10
474.524723
 20
48.056451
 30
0.0
  0
SPLINE
  5
1ee
100
AcDbEntity
  8
Layer_1
 62
7
100
AcDbSpline
 70
8
 71
3
 72
8
 73
4
 74
0
 40
0
 40
0
 40
0
 40
0
 40
1
 40
1
 40
1
 40
1
 10
474.524723
 20
48.056451
 30
0.0
 10
472.493668
 20
43.598766
 30
0.0
 10
466.371505
 20
42.559924
 30
0.0
 10
462.502917
 20
46.016524
 30
0.0
  0
LWPOLYLINE
  5
1ef
100
AcDbEntity
  8
Layer_1
 62
7
100
AcDbPolyline
 90
2
 70
0
 10
600.828541
 20
44.266071
 30
0.0
 10
600.828825
 20
44.266071
 30
0.0
  0
SPLINE
  5
1f0
100
AcDbEntity
  8
Layer_1
 62
7
100
AcDbSpline
 70
8
 71
3
 72
8
 73
4
 74
0
 40
0
 40
0
 40
0
 40
0
 40
1
 40
1
 40
1
 40
1
 10
432.257575
 20
211.810327
 30
0.0
 10
429.297975
 20
213.082631
 30
0.0
 10
427.178025
 20
216.165539
 30
0.0
 10
427.178025
 20
219.197112
 30
0.0
  0
SPLINE
  5
1f1
100
AcDbEntity
  8
Layer_1
 62
7
100
AcDbSpline
 70
8
 71
3
 72
8
 73
4
 74
0
 40
0
 40
0
 40
0
 40
0
 40
1
 40
1
 40
1
 40
1
 10
427.178025
 20
219.197112
 30
0.0
 10
427.178025
 20
223.645470
 30
0.0
 10
428.477939
 20
225.221819
 30
0.0
 10
434.368369
 20
227.916465
 30
0.0
  0
SPLINE
  5
1f2
100
AcDbEntity
  8
Layer_1
 62
7
100
AcDbSpline
 70
8
 71
3
 72
8
 73
4
 74
0
 40
0
 40
0
 40
0
 40
0
 40
1
 40
1
 40
1
 40
1
 10
434.368369
 20
227.916465
 30
0.0
 10
446.055600
 20
233.262898
 30
0.0
 10
461.837625
 20
247.950889
 30
0.0
 10
471.632983
 20
262.597835
 30
0.0
  0
LWPOLYLINE
  5
1f3
100
AcDbEntity
  8
Layer_1
 62
7
100
AcDbPolyline
 90
2
 70
0
 10
462.502917
 20
46.016524
 30
0.0
 10
462.502804
 20
46.016467
 30
0.0
  0
SPLINE
  5
1f4
100
AcDbEntity
  8
Layer_1
 62
7
100
AcDbSpline
 70
8
 71
3
 72
8
 73
4
 74
0
 40
0
 40
0
 40
0
 40
0
 40
1
 40
1
 40
1
 40
1
 10
473.419323
 20
271.562244
 30
0.0
 10
468.390484
 20
272.685587
 30
0.0
 10
465.613860
 20
274.253063
 30
0.0
 10
462.450646
 20
277.754394
 30
0.0
  0
SPLINE
  5
1f5
100
AcDbEntity
  8
Layer_1
 62
7
100
AcDbSpline
 70
8
 71
3
 72
8
 73
4
 74
0
 40
0
 40
0
 40
0
 40
0
 40
1
 40
1
 40
1
 40
1
 10
462.450646
 20
277.754394
 30
0.0
 10
459.235757
 20
281.312871
 30
0.0
 10
458.454272
 20
282.699554
 30
0.0
 10
456.558856
 20
288.208695
 30
0.0
  0
SPLINE
  5
1f6
100
AcDbEntity
  8
Layer_1
 62
7
100
AcDbSpline
 70
8
 71
3
 72
8
 73
4
 74
0
 40
0
 40
0
 40
0
 40
0
 40
1
 40
1
 40
1
 40
1
 10
456.558856
 20
288.208695
 30
0.0
 10
453.304168
 20
297.668543
 30
0.0
 10
453.033515
 20
308.020258
 30
0.0
 10
455.964203
 20
310.950945
 30
0.0
  0
SPLINE
  5
1f7
100
AcDbEntity
  8
Layer_1
 62
7
100
AcDbSpline
 70
8
 71
3
 72
8
 73
4
 74
0
 40
0
 40
0
 40
0
 40
0
 40
1
 40
1
 40
1
 40
1
 10
455.964203
 20
310.950945
 30
0.0
 10
458.824336
 20
313.811050
 30
0.0
 10
460.733898
 20
311.992254
 30
0.0
 10
462.608139
 20
304.622902
 30
0.0
  0
SPLINE
  5
1f8
100
AcDbEntity
  8
Layer_1
 62
7
100
AcDbSpline
 70
8
 71
3
 72
8
 73
4
 74
0
 40
0
 40
0
 40
0
 40
0
 40
1
 40
1
 40
1
 40
1
 10
462.608139
 20
304.622902
 30
0.0
 10
464.712640
 20
296.348021
 30
0.0
 10
467.628927
 20
290.273057
 30
0.0
 10
470.927184
 20
287.293273
 30
0.0
  0
SPLINE
  5
1f9
100
AcDbEntity
  8
Layer_1
 62
7
100
AcDbSpline
 70
8
 71
3
 72
8
 73
4
 74
0
 40
0
 40
0
 40
0
 40
0
 40
1
 40
1
 40
1
 40
1
 10
470.927184
 20
287.293273
 30
0.0
 10
474.073503
 20
284.450772
 30
0.0
 10
481.678414
 20
281.615073
 30
0.0
 10
482.894337
 20
282.830996
 30
0.0
  0
SPLINE
  5
1fa
100
AcDbEntity
  8
Layer_1
 62
7
100
AcDbSpline
 70
8
 71
3
 72
8
 73
4
 74
0
 40
0
 40
0
 40
0
 40
0
 40
1
 40
1
 40
1
 40
1
 10
482.894337
 20
282.830996
 30
0.0
 10
483.302357
 20
283.239016
 30
0.0
 10
485.608259
 20
288.111438
 30
0.0
 10
488.018533
 20
293.658592
 30
0.0
  0
SPLINE
  5
1fb
100
AcDbEntity
  8
Layer_1
 62
7
100
AcDbSpline
 70
8
 71
3
 72
8
 73
4
 74
0
 40
0
 40
0
 40
0
 40
0
 40
1
 40
1
 40
1
 40
1
 10
488.018533
 20
293.658592
 30
0.0
 10
493.900346
 20
307.195290
 30
0.0
 10
495.241674
 20
309.702906
 30
0.0
 10
497.587885
 20
311.548433
 30
0.0
  0
SPLINE
  5
1fc
100
AcDbEntity
  8
Layer_1
 62
7
100
AcDbSpline
 70
8
 71
3
 72
8
 73
4
 74
0
 40
0
 40
0
 40
0
 40
0
 40
1
 40
1
 40
1
 40
1
 10
497.587885
 20
311.548433
 30
0.0
 10
500.139948
 20
313.555875
 30
0.0
 10
502.396612
 20
313.539207
 30
0.0
 10
504.997091
 20
311.493724
 30
0.0
  0
SPLINE
  5
1fd
100
AcDbEntity
  8
Layer_1
 62
7
100
AcDbSpline
 70
8
 71
3
 72
8
 73
4
 74
0
 40
0
 40
0
 40
0
 40
0
 40
1
 40
1
 40
1
 40
1
 10
504.997091
 20
311.493724
 30
0.0
 10
506.982026
 20
309.932342
 30
0.0
 10
507.049208
 20
309.657891
 30
0.0
 10
506.694536
 20
304.556203
 30
0.0
  0
SPLINE
  5
1fe
100
AcDbEntity
  8
Layer_1
 62
7
100
AcDbSpline
 70
8
 71
3
 72
8
 73
4
 74
0
 40
0
 40
0
 40
0
 40
0
 40
1
 40
1
 40
1
 40
1
 10
506.694536
 20
304.556203
 30
0.0
 10
505.645659
 20
289.468300
 30
0.0
 10
492.829273
 20
262.165664
 30
0.0
 10
478.348523
 20
244.170969
 30
0.0
  0
SPLINE
  5
1ff
100
AcDbEntity
  8
Layer_1
 62
7
100
AcDbSpline
 70
8
 71
3
 72
8
 73
4
 74
0
 40
0
 40
0
 40
0
 40
0
 40
1
 40
1
 40
1
 40
1
 10
478.348523
 20
244.170969
 30
0.0
 10
462.538350
 20
224.524268
 30
0.0
 10
439.807353
 20
208.564766
 30
0.0
 10
432.257575
 20
211.810355
 30
0.0
  0
LWPOLYLINE
  5
200
100
AcDbEntity
  8
Layer_1
 62
7
100
AcDbPolyline
 90
3
 70
0
 10
471.632983
 20
262.597835
 30
0.0
 10
477.081038
 20
270.744278
 30
0.0
 10
473.419323
 20
271.562244
 30
0.0
  0
SPLINE
  5
201
100
AcDbEntity
  8
Layer_1
 62
7
100
AcDbSpline
 70
8
 71
3
 72
8
 73
4
 74
0
 40
0
 40
0
 40
0
 40
0
 40
1
 40
1
 40
1
 40
1
 10
217.250657
 20
227.268918
 30
0.0
 10
214.178152
 20
228.937364
 30
0.0
 10
212.240726
 20
235.163558
 30
0.0
 10
210.856538
 20
247.817377
 30
0.0
  0
SPLINE
  5
202
100
AcDbEntity
  8
Layer_1
 62
7
100
AcDbSpline
 70
8
 71
3
 72
8
 73
4
 74
0
 40
0
 40
0
 40
0
 40
0
 40
1
 40
1
 40
1
 40
1
 10
210.856538
 20
247.817377
 30
0.0
 10
210.199154
 20
253.827174
 30
0.0
 10
209.565894
 20
258.861257
 30
0.0
 10
209.449276
 20
259.004236
 30
0.0
  0
SPLINE
  5
203
100
AcDbEntity
  8
Layer_1
 62
7
100
AcDbSpline
 70
8
 71
3
 72
8
 73
4
 74
0
 40
0
 40
0
 40
0
 40
0
 40
1
 40
1
 40
1
 40
1
 10
209.449276
 20
259.004236
 30
0.0
 10
209.332772
 20
259.147386
 30
0.0
 10
207.046741
 20
258.387842
 30
0.0
 10
204.369358
 20
257.316741
 30
0.0
  0
SPLINE
  5
204
100
AcDbEntity
  8
Layer_1
 62
7
100
AcDbSpline
 70
8
 71
3
 72
8
 73
4
 74
0
 40
0
 40
0
 40
0
 40
0
 40
1
 40
1
 40
1
 40
1
 10
204.369358
 20
257.316741
 30
0.0
 10
197.880788
 20
254.720911
 30
0.0
 10
193.994058
 20
254.729868
 30
0.0
 10
191.936670
 20
257.345371
 30
0.0
  0
SPLINE
  5
205
100
AcDbEntity
  8
Layer_1
 62
7
100
AcDbSpline
 70
8
 71
3
 72
8
 73
4
 74
0
 40
0
 40
0
 40
0
 40
0
 40
1
 40
1
 40
1
 40
1
 10
191.936670
 20
257.345371
 30
0.0
 10
191.081740
 20
258.432261
 30
0.0
 10
190.382233
 20
259.967762
 30
0.0
 10
190.382233
 20
260.757637
 30
0.0
  0
SPLINE
  5
206
100
AcDbEntity
  8
Layer_1
 62
7
100
AcDbSpline
 70
8
 71
3
 72
8
 73
4
 74
0
 40
0
 40
0
 40
0
 40
0
 40
1
 40
1
 40
1
 40
1
 10
190.382233
 20
260.757637
 30
0.0
 10
190.382233
 20
264.904503
 30
0.0
 10
196.507712
 20
271.152807
 30
0.0
 10
204.537197
 20
275.196378
 30
0.0
  0
SPLINE
  5
207
100
AcDbEntity
  8
Layer_1
 62
7
100
AcDbSpline
 70
8
 71
3
 72
8
 73
4
 74
0
 40
0
 40
0
 40
0
 40
0
 40
1
 40
1
 40
1
 40
1
 10
204.537197
 20
275.196378
 30
0.0
 10
210.591895
 20
278.245469
 30
0.0
 10
210.030464
 20
276.790925
 30
0.0
 10
211.358526
 20
292.869284
 30
0.0
  0
SPLINE
  5
208
100
AcDbEntity
  8
Layer_1
 62
7
100
AcDbSpline
 70
8
 71
3
 72
8
 73
4
 74
0
 40
0
 40
0
 40
0
 40
0
 40
1
 40
1
 40
1
 40
1
 10
211.358526
 20
292.869284
 30
0.0
 10
213.581090
 20
319.777392
 30
0.0
 10
220.007042
 20
349.615650
 30
0.0
 10
225.355487
 20
357.862752
 30
0.0
  0
SPLINE
  5
209
100
AcDbEntity
  8
Layer_1
 62
7
100
AcDbSpline
 70
8
 71
3
 72
8
 73
4
 74
0
 40
0
 40
0
 40
0
 40
0
 40
1
 40
1
 40
1
 40
1
 10
225.355487
 20
357.862752
 30
0.0
 10
228.995489
 20
363.475528
 30
0.0
 10
235.444260
 20
365.583940
 30
0.0
 10
240.962415
 20
362.965433
 30
0.0
  0
SPLINE
  5
20a
100
AcDbEntity
  8
Layer_1
 62
7
100
AcDbSpline
 70
8
 71
3
 72
8
 73
4
 74
0
 40
0
 40
0
 40
0
 40
0
 40
1
 40
1
 40
1
 40
1
 10
240.962415
 20
362.965433
 30
0.0
 10
251.711945
 20
357.864424
 30
0.0
 10
260.774971
 20
333.203539
 30
0.0
 10
256.855303
 20
319.720274
 30
0.0
  0
SPLINE
  5
20b
100
AcDbEntity
  8
Layer_1
 62
7
100
AcDbSpline
 70
8
 71
3
 72
8
 73
4
 74
0
 40
0
 40
0
 40
0
 40
0
 40
1
 40
1
 40
1
 40
1
 10
256.855303
 20
319.720274
 30
0.0
 10
254.829747
 20
312.752620
 30
0.0
 10
249.846774
 20
309.918537
 30
0.0
 10
244.491100
 20
312.688047
 30
0.0
  0
SPLINE
  5
20c
100
AcDbEntity
  8
Layer_1
 62
7
100
AcDbSpline
 70
8
 71
3
 72
8
 73
4
 74
0
 40
0
 40
0
 40
0
 40
0
 40
1
 40
1
 40
1
 40
1
 10
244.491100
 20
312.688047
 30
0.0
 10
241.249764
 20
314.364203
 30
0.0
 10
240.521259
 20
316.862096
 30
0.0
 10
241.087196
 20
324.359206
 30
0.0
  0
SPLINE
  5
20d
100
AcDbEntity
  8
Layer_1
 62
7
100
AcDbSpline
 70
8
 71
3
 72
8
 73
4
 74
0
 40
0
 40
0
 40
0
 40
0
 40
1
 40
1
 40
1
 40
1
 10
241.087196
 20
324.359206
 30
0.0
 10
241.505024
 20
329.893746
 30
0.0
 10
241.330976
 20
331.754495
 30
0.0
 10
239.990726
 20
336.090715
 30
0.0
  0
SPLINE
  5
20e
100
AcDbEntity
  8
Layer_1
 62
7
100
AcDbSpline
 70
8
 71
3
 72
8
 73
4
 74
0
 40
0
 40
0
 40
0
 40
0
 40
1
 40
1
 40
1
 40
1
 10
239.990726
 20
336.090715
 30
0.0
 10
237.787211
 20
343.219150
 30
0.0
 10
237.188533
 20
344.008628
 30
0.0
 10
236.101927
 20
341.218936
 30
0.0
  0
SPLINE
  5
20f
100
AcDbEntity
  8
Layer_1
 62
7
100
AcDbSpline
 70
8
 71
3
 72
8
 73
4
 74
0
 40
0
 40
0
 40
0
 40
0
 40
1
 40
1
 40
1
 40
1
 10
236.101927
 20
341.218936
 30
0.0
 10
233.181812
 20
333.721968
 30
0.0
 10
225.570977
 20
285.325715
 30
0.0
 10
227.319786
 20
285.374499
 30
0.0
  0
SPLINE
  5
210
100
AcDbEntity
  8
Layer_1
 62
7
100
AcDbSpline
 70
8
 71
3
 72
8
 73
4
 74
0
 40
0
 40
0
 40
0
 40
0
 40
1
 40
1
 40
1
 40
1
 10
227.319786
 20
285.374499
 30
0.0
 10
227.422967
 20
285.377334
 30
0.0
 10
230.038555
 20
286.253467
 30
0.0
 10
233.132291
 20
287.321365
 30
0.0
  0
SPLINE
  5
211
100
AcDbEntity
  8
Layer_1
 62
7
100
AcDbSpline
 70
8
 71
3
 72
8
 73
4
 74
0
 40
0
 40
0
 40
0
 40
0
 40
1
 40
1
 40
1
 40
1
 10
233.132291
 20
287.321365
 30
0.0
 10
236.226056
 20
288.389262
 30
0.0
 10
240.782301
 20
289.428133
 30
0.0
 10
243.257319
 20
289.629960
 30
0.0
  0
SPLINE
  5
212
100
AcDbEntity
  8
Layer_1
 62
7
100
AcDbSpline
 70
8
 71
3
 72
8
 73
4
 74
0
 40
0
 40
0
 40
0
 40
0
 40
1
 40
1
 40
1
 40
1
 10
243.257319
 20
289.629960
 30
0.0
 10
247.407529
 20
289.968360
 30
0.0
 10
247.958444
 20
289.825834
 30
0.0
 10
250.344822
 20
287.796594
 30
0.0
  0
SPLINE
  5
213
100
AcDbEntity
  8
Layer_1
 62
7
100
AcDbSpline
 70
8
 71
3
 72
8
 73
4
 74
0
 40
0
 40
0
 40
0
 40
0
 40
1
 40
1
 40
1
 40
1
 10
250.344822
 20
287.796594
 30
0.0
 10
252.419133
 20
286.032676
 30
0.0
 10
252.932318
 20
285.054099
 30
0.0
 10
252.932318
 20
282.862546
 30
0.0
  0
SPLINE
  5
214
100
AcDbEntity
  8
Layer_1
 62
7
100
AcDbSpline
 70
8
 71
3
 72
8
 73
4
 74
0
 40
0
 40
0
 40
0
 40
0
 40
1
 40
1
 40
1
 40
1
 10
252.932318
 20
282.862546
 30
0.0
 10
252.932318
 20
279.809515
 30
0.0
 10
250.845846
 20
276.484386
 30
0.0
 10
248.059442
 20
275.096854
 30
0.0
  0
SPLINE
  5
215
100
AcDbEntity
  8
Layer_1
 62
7
100
AcDbSpline
 70
8
 71
3
 72
8
 73
4
 74
0
 40
0
 40
0
 40
0
 40
0
 40
1
 40
1
 40
1
 40
1
 10
248.059442
 20
275.096854
 30
0.0
 10
247.068279
 20
274.603284
 30
0.0
 10
243.051070
 20
273.209005
 30
0.0
 10
239.132309
 20
271.998468
 30
0.0
  0
SPLINE
  5
216
100
AcDbEntity
  8
Layer_1
 62
7
100
AcDbSpline
 70
8
 71
3
 72
8
 73
4
 74
0
 40
0
 40
0
 40
0
 40
0
 40
1
 40
1
 40
1
 40
1
 10
239.132309
 20
271.998468
 30
0.0
 10
235.213547
 20
270.787903
 30
0.0
 10
230.690269
 20
269.246846
 30
0.0
 10
229.080556
 20
268.573900
 30
0.0
  0
LWPOLYLINE
  5
217
100
AcDbEntity
  8
Layer_1
 62
7
100
AcDbPolyline
 90
1
 70
1
 10
432.257575
 20
211.810355
 30
0.0
  0
SPLINE
  5
218
100
AcDbEntity
  8
Layer_1
 62
7
100
AcDbSpline
 70
8
 71
3
 72
8
 73
4
 74
0
 40
0
 40
0
 40
0
 40
0
 40
1
 40
1
 40
1
 40
1
 10
226.627196
 20
256.672255
 30
0.0
 10
226.887416
 20
250.799343
 30
0.0
 10
227.613994
 20
243.631847
 30
0.0
 10
228.241444
 20
240.744473
 30
0.0
  0
SPLINE
  5
219
100
AcDbEntity
  8
Layer_1
 62
7
100
AcDbSpline
 70
8
 71
3
 72
8
 73
4
 74
0
 40
0
 40
0
 40
0
 40
0
 40
1
 40
1
 40
1
 40
1
 10
228.241444
 20
240.744473
 30
0.0
 10
229.932794
 20
232.961631
 30
0.0
 10
229.756592
 20
230.878107
 30
0.0
 10
227.189987
 20
228.311502
 30
0.0
  0
SPLINE
  5
21a
100
AcDbEntity
  8
Layer_1
 62
7
100
AcDbSpline
 70
8
 71
3
 72
8
 73
4
 74
0
 40
0
 40
0
 40
0
 40
0
 40
1
 40
1
 40
1
 40
1
 10
227.189987
 20
228.311502
 30
0.0
 10
224.691640
 20
225.813155
 30
0.0
 10
220.702126
 20
225.394676
 30
0.0
 10
217.250657
 20
227.268889
 30
0.0
  0
LWPOLYLINE
  5
21b
100
AcDbEntity
  8
Layer_1
 62
7
100
AcDbPolyline
 90
3
 70
0
 10
229.080556
 20
268.573900
 30
0.0
 10
226.153809
 20
267.350323
 30
0.0
 10
226.627196
 20
256.672255
 30
0.0
  0
SPLINE
  5
21c
100
AcDbEntity
  8
Layer_1
 62
7
100
AcDbSpline
 70
8
 71
3
 72
8
 73
4
 74
0
 40
0
 40
0
 40
0
 40
0
 40
1
 40
1
 40
1
 40
1
 10
278.159763
 20
254.721478
 30
0.0
 10
267.956045
 20
257.760449
 30
0.0
 10
265.763954
 20
267.878957
 30
0.0
 10
272.357179
 20
281.505599
 30
0.0
  0
SPLINE
  5
21d
100
AcDbEntity
  8
Layer_1
 62
7
100
AcDbSpline
 70
8
 71
3
 72
8
 73
4
 74
0
 40
0
 40
0
 40
0
 40
0
 40
1
 40
1
 40
1
 40
1
 10
272.357179
 20
281.505599
 30
0.0
 10
276.199631
 20
289.447012
 30
0.0
 10
283.842357
 20
296.619326
 30
0.0
 10
288.462184
 20
296.619326
 30
0.0
  0
SPLINE
  5
21e
100
AcDbEntity
  8
Layer_1
 62
7
100
AcDbSpline
 70
8
 71
3
 72
8
 73
4
 74
0
 40
0
 40
0
 40
0
 40
0
 40
1
 40
1
 40
1
 40
1
 10
288.462184
 20
296.619326
 30
0.0
 10
289.226433
 20
296.619326
 30
0.0
 10
290.843006
 20
297.674382
 30
0.0
 10
292.054563
 20
298.963893
 30
0.0
  0
SPLINE
  5
21f
100
AcDbEntity
  8
Layer_1
 62
7
100
AcDbSpline
 70
8
 71
3
 72
8
 73
4
 74
0
 40
0
 40
0
 40
0
 40
0
 40
1
 40
1
 40
1
 40
1
 10
292.054563
 20
298.963893
 30
0.0
 10
298.452906
 20
305.773996
 30
0.0
 10
308.675927
 20
305.710415
 30
0.0
 10
315.568690
 20
298.817625
 30
0.0
  0
SPLINE
  5
220
100
AcDbEntity
  8
Layer_1
 62
7
100
AcDbSpline
 70
8
 71
3
 72
8
 73
4
 74
0
 40
0
 40
0
 40
0
 40
0
 40
1
 40
1
 40
1
 40
1
 10
315.568690
 20
298.817625
 30
0.0
 10
318.855721
 20
295.530594
 30
0.0
 10
320.134119
 20
292.342776
 30
0.0
 10
320.125105
 20
287.455869
 30
0.0
  0
SPLINE
  5
221
100
AcDbEntity
  8
Layer_1
 62
7
100
AcDbSpline
 70
8
 71
3
 72
8
 73
4
 74
0
 40
0
 40
0
 40
0
 40
0
 40
1
 40
1
 40
1
 40
1
 10
320.125105
 20
287.455869
 30
0.0
 10
320.113767
 20
281.839975
 30
0.0
 10
317.400213
 20
276.528181
 30
0.0
 10
311.321279
 20
270.228400
 30
0.0
  0
SPLINE
  5
222
100
AcDbEntity
  8
Layer_1
 62
7
100
AcDbSpline
 70
8
 71
3
 72
8
 73
4
 74
0
 40
0
 40
0
 40
0
 40
0
 40
1
 40
1
 40
1
 40
1
 10
311.321279
 20
270.228400
 30
0.0
 10
300.352489
 20
258.861115
 30
0.0
 10
286.309324
 20
252.294253
 30
0.0
 10
278.159763
 20
254.721450
 30
0.0
  0
LWPOLYLINE
  5
223
100
AcDbEntity
  8
Layer_1
 62
7
100
AcDbPolyline
 90
1
 70
1
 10
217.250657
 20
227.268889
 30
0.0
  0
SPLINE
  5
224
100
AcDbEntity
  8
Layer_1
 62
7
100
AcDbSpline
 70
8
 71
3
 72
8
 73
4
 74
0
 40
0
 40
0
 40
0
 40
0
 40
1
 40
1
 40
1
 40
1
 10
295.476779
 20
277.639789
 30
0.0
 10
299.369858
 20
280.688710
 30
0.0
 10
303.976334
 20
286.025363
 30
0.0
 10
303.299363
 20
286.702334
 30
0.0
  0
SPLINE
  5
225
100
AcDbEntity
  8
Layer_1
 62
7
100
AcDbSpline
 70
8
 71
3
 72
8
 73
4
 74
0
 40
0
 40
0
 40
0
 40
0
 40
1
 40
1
 40
1
 40
1
 10
303.299363
 20
286.702334
 30
0.0
 10
303.140622
 20
286.861074
 30
0.0
 10
302.329147
 20
286.626082
 30
0.0
 10
301.495930
 20
286.180078
 30
0.0
  0
SPLINE
  5
226
100
AcDbEntity
  8
Layer_1
 62
7
100
AcDbSpline
 70
8
 71
3
 72
8
 73
4
 74
0
 40
0
 40
0
 40
0
 40
0
 40
1
 40
1
 40
1
 40
1
 10
301.495930
 20
286.180078
 30
0.0
 10
300.662713
 20
285.734131
 30
0.0
 10
299.014818
 20
285.369312
 30
0.0
 10
297.833903
 20
285.369312
 30
0.0
  0
SPLINE
  5
227
100
AcDbEntity
  8
Layer_1
 62
7
100
AcDbSpline
 70
8
 71
3
 72
8
 73
4
 74
0
 40
0
 40
0
 40
0
 40
0
 40
1
 40
1
 40
1
 40
1
 10
297.833903
 20
285.369312
 30
0.0
 10
295.498209
 20
285.369312
 30
0.0
 10
291.837684
 20
282.079049
 30
0.0
 10
288.330457
 20
276.827124
 30
0.0
  0
SPLINE
  5
228
100
AcDbEntity
  8
Layer_1
 62
7
100
AcDbSpline
 70
8
 71
3
 72
8
 73
4
 74
0
 40
0
 40
0
 40
0
 40
0
 40
1
 40
1
 40
1
 40
1
 10
288.330457
 20
276.827124
 30
0.0
 10
284.245812
 20
270.710574
 30
0.0
 10
287.033889
 20
271.027629
 30
0.0
 10
295.476779
 20
277.639789
 30
0.0
  0
LWPOLYLINE
  5
229
100
AcDbEntity
  8
Layer_1
 62
7
100
AcDbPolyline
 90
1
 70
1
 10
278.159763
 20
254.721450
 30
0.0
  0
SPLINE
  5
22a
100
AcDbEntity
  8
Layer_1
 62
7
100
AcDbSpline
 70
8
 71
3
 72
8
 73
4
 74
0
 40
0
 40
0
 40
0
 40
0
 40
1
 40
1
 40
1
 40
1
 10
340.464991
 20
263.915890
 30
0.0
 10
336.333008
 20
266.206089
 30
0.0
 10
336.056062
 20
268.523897
 30
0.0
 10
337.759148
 20
286.561338
 30
0.0
  0
SPLINE
  5
22b
100
AcDbEntity
  8
Layer_1
 62
7
100
AcDbSpline
 70
8
 71
3
 72
8
 73
4
 74
0
 40
0
 40
0
 40
0
 40
0
 40
1
 40
1
 40
1
 40
1
 10
337.759148
 20
286.561338
 30
0.0
 10
339.484741
 20
304.837060
 30
0.0
 10
342.280527
 20
311.746206
 30
0.0
 10
349.425120
 20
315.391112
 30
0.0
  0
SPLINE
  5
22c
100
AcDbEntity
  8
Layer_1
 62
7
100
AcDbSpline
 70
8
 71
3
 72
8
 73
4
 74
0
 40
0
 40
0
 40
0
 40
0
 40
1
 40
1
 40
1
 40
1
 10
349.425120
 20
315.391112
 30
0.0
 10
352.773776
 20
317.099470
 30
0.0
 10
356.347561
 20
317.223911
 30
0.0
 10
368.842781
 20
316.067289
 30
0.0
  0
SPLINE
  5
22d
100
AcDbEntity
  8
Layer_1
 62
7
100
AcDbSpline
 70
8
 71
3
 72
8
 73
4
 74
0
 40
0
 40
0
 40
0
 40
0
 40
1
 40
1
 40
1
 40
1
 10
368.842781
 20
316.067289
 30
0.0
 10
379.258417
 20
315.103140
 30
0.0
 10
381.884266
 20
314.364317
 30
0.0
 10
383.870789
 20
311.838899
 30
0.0
  0
SPLINE
  5
22e
100
AcDbEntity
  8
Layer_1
 62
7
100
AcDbSpline
 70
8
 71
3
 72
8
 73
4
 74
0
 40
0
 40
0
 40
0
 40
0
 40
1
 40
1
 40
1
 40
1
 10
383.870789
 20
311.838899
 30
0.0
 10
386.838695
 20
308.065811
 30
0.0
 10
384.865779
 20
302.830355
 30
0.0
 10
379.655665
 20
300.653429
 30
0.0
  0
SPLINE
  5
22f
100
AcDbEntity
  8
Layer_1
 62
7
100
AcDbSpline
 70
8
 71
3
 72
8
 73
4
 74
0
 40
0
 40
0
 40
0
 40
0
 40
1
 40
1
 40
1
 40
1
 10
379.655665
 20
300.653429
 30
0.0
 10
376.988911
 20
299.539185
 30
0.0
 10
368.099762
 20
299.359525
 30
0.0
 10
361.581741
 20
300.288099
 30
0.0
  0
SPLINE
  5
230
100
AcDbEntity
  8
Layer_1
 62
7
100
AcDbSpline
 70
8
 71
3
 72
8
 73
4
 74
0
 40
0
 40
0
 40
0
 40
0
 40
1
 40
1
 40
1
 40
1
 10
361.581741
 20
300.288099
 30
0.0
 10
359.422588
 20
300.595715
 30
0.0
 10
357.331609
 20
300.646909
 30
0.0
 10
356.935183
 20
300.401769
 30
0.0
  0
SPLINE
  5
231
100
AcDbEntity
  8
Layer_1
 62
7
100
AcDbSpline
 70
8
 71
3
 72
8
 73
4
 74
0
 40
0
 40
0
 40
0
 40
0
 40
1
 40
1
 40
1
 40
1
 10
356.935183
 20
300.401769
 30
0.0
 10
355.781935
 20
299.689024
 30
0.0
 10
354.773905
 20
293.993534
 30
0.0
 10
353.876342
 20
283.119195
 30
0.0
  0
SPLINE
  5
232
100
AcDbEntity
  8
Layer_1
 62
7
100
AcDbSpline
 70
8
 71
3
 72
8
 73
4
 74
0
 40
0
 40
0
 40
0
 40
0
 40
1
 40
1
 40
1
 40
1
 10
353.876342
 20
283.119195
 30
0.0
 10
352.852183
 20
270.710829
 30
0.0
 10
352.113558
 20
267.734872
 30
0.0
 10
349.379340
 20
265.000654
 30
0.0
  0
SPLINE
  5
233
100
AcDbEntity
  8
Layer_1
 62
7
100
AcDbSpline
 70
8
 71
3
 72
8
 73
4
 74
0
 40
0
 40
0
 40
0
 40
0
 40
1
 40
1
 40
1
 40
1
 10
349.379340
 20
265.000654
 30
0.0
 10
347.006342
 20
262.627656
 30
0.0
 10
343.548324
 20
262.206823
 30
0.0
 10
340.464991
 20
263.915777
 30
0.0
  0
LWPOLYLINE
  5
234
100
AcDbEntity
  8
Layer_1
 62
7
100
AcDbPolyline
 90
1
 70
1
 10
295.476779
 20
277.639789
 30
0.0
  0
SPLINE
  5
235
100
AcDbEntity
  8
Layer_1
 62
7
100
AcDbSpline
 70
8
 71
3
 72
8
 73
4
 74
0
 40
0
 40
0
 40
0
 40
0
 40
1
 40
1
 40
1
 40
1
 10
533.901105
 20
269.049072
 30
0.0
 10
529.068652
 20
271.635747
 30
0.0
 10
526.770828
 20
276.334036
 30
0.0
 10
526.863521
 20
283.438717
 30
0.0
  0
SPLINE
  5
236
100
AcDbEntity
  8
Layer_1
 62
7
100
AcDbSpline
 70
8
 71
3
 72
8
 73
4
 74
0
 40
0
 40
0
 40
0
 40
0
 40
1
 40
1
 40
1
 40
1
 10
526.863521
 20
283.438717
 30
0.0
 10
527.014324
 20
295.010067
 30
0.0
 10
533.385029
 20
308.439531
 30
0.0
 10
540.321898
 20
311.809731
 30
0.0
  0
SPLINE
  5
237
100
AcDbEntity
  8
Layer_1
 62
7
100
AcDbSpline
 70
8
 71
3
 72
8
 73
4
 74
0
 40
0
 40
0
 40
0
 40
0
 40
1
 40
1
 40
1
 40
1
 10
540.321898
 20
311.809731
 30
0.0
 10
542.142849
 20
312.694396
 30
0.0
 10
543.632712
 20
313.724281
 30
0.0
 10
543.632712
 20
314.098370
 30
0.0
  0
SPLINE
  5
238
100
AcDbEntity
  8
Layer_1
 62
7
100
AcDbSpline
 70
8
 71
3
 72
8
 73
4
 74
0
 40
0
 40
0
 40
0
 40
0
 40
1
 40
1
 40
1
 40
1
 10
543.632712
 20
314.098370
 30
0.0
 10
543.632712
 20
314.472430
 30
0.0
 10
544.652534
 20
316.066099
 30
0.0
 10
545.898986
 20
317.639896
 30
0.0
  0
SPLINE
  5
239
100
AcDbEntity
  8
Layer_1
 62
7
100
AcDbSpline
 70
8
 71
3
 72
8
 73
4
 74
0
 40
0
 40
0
 40
0
 40
0
 40
1
 40
1
 40
1
 40
1
 10
545.898986
 20
317.639896
 30
0.0
 10
551.698934
 20
324.962929
 30
0.0
 10
563.052159
 20
325.823841
 30
0.0
 10
569.395651
 20
319.421672
 30
0.0
  0
SPLINE
  5
23a
100
AcDbEntity
  8
Layer_1
 62
7
100
AcDbSpline
 70
8
 71
3
 72
8
 73
4
 74
0
 40
0
 40
0
 40
0
 40
0
 40
1
 40
1
 40
1
 40
1
 10
569.395651
 20
319.421672
 30
0.0
 10
579.197189
 20
309.529482
 30
0.0
 10
576.060734
 20
293.012490
 30
0.0
 10
561.646230
 20
278.612074
 30
0.0
  0
SPLINE
  5
23b
100
AcDbEntity
  8
Layer_1
 62
7
100
AcDbSpline
 70
8
 71
3
 72
8
 73
4
 74
0
 40
0
 40
0
 40
0
 40
0
 40
1
 40
1
 40
1
 40
1
 10
561.646230
 20
278.612074
 30
0.0
 10
554.053706
 20
271.027006
 30
0.0
 10
548.589976
 20
267.986362
 30
0.0
 10
541.757705
 20
267.543873
 30
0.0
  0
SPLINE
  5
23c
100
AcDbEntity
  8
Layer_1
 62
7
100
AcDbSpline
 70
8
 71
3
 72
8
 73
4
 74
0
 40
0
 40
0
 40
0
 40
0
 40
1
 40
1
 40
1
 40
1
 10
541.757705
 20
267.543873
 30
0.0
 10
538.081817
 20
267.305763
 30
0.0
 10
536.643005
 20
267.581291
 30
0.0
 10
533.901105
 20
269.049072
 30
0.0
  0
LWPOLYLINE
  5
23d
100
AcDbEntity
  8
Layer_1
 62
7
100
AcDbPolyline
 90
2
 70
0
 10
340.464991
 20
263.915777
 30
0.0
 10
340.464991
 20
263.915890
 30
0.0
  0
SPLINE
  5
23e
100
AcDbEntity
  8
Layer_1
 62
7
100
AcDbSpline
 70
8
 71
3
 72
8
 73
4
 74
0
 40
0
 40
0
 40
0
 40
0
 40
1
 40
1
 40
1
 40
1
 10
549.599621
 20
289.523774
 30
0.0
 10
554.277842
 20
293.986051
 30
0.0
 10
558.632742
 20
301.193741
 30
0.0
 10
558.632742
 20
304.474310
 30
0.0
  0
SPLINE
  5
23f
100
AcDbEntity
  8
Layer_1
 62
7
100
AcDbSpline
 70
8
 71
3
 72
8
 73
4
 74
0
 40
0
 40
0
 40
0
 40
0
 40
1
 40
1
 40
1
 40
1
 10
558.632742
 20
304.474310
 30
0.0
 10
558.632742
 20
305.585322
 30
0.0
 10
558.379608
 20
306.373015
 30
0.0
 10
558.070234
 20
306.224762
 30
0.0
  0
SPLINE
  5
240
100
AcDbEntity
  8
Layer_1
 62
7
100
AcDbSpline
 70
8
 71
3
 72
8
 73
4
 74
0
 40
0
 40
0
 40
0
 40
0
 40
1
 40
1
 40
1
 40
1
 10
558.070234
 20
306.224762
 30
0.0
 10
553.900437
 20
304.226476
 30
0.0
 10
551.843927
 20
302.633715
 30
0.0
 10
549.714963
 20
299.753683
 30
0.0
  0
SPLINE
  5
241
100
AcDbEntity
  8
Layer_1
 62
7
100
AcDbSpline
 70
8
 71
3
 72
8
 73
4
 74
0
 40
0
 40
0
 40
0
 40
0
 40
1
 40
1
 40
1
 40
1
 10
549.714963
 20
299.753683
 30
0.0
 10
545.119883
 20
293.537496
 30
0.0
 10
542.123573
 20
285.369312
 30
0.0
 10
544.438405
 20
285.369312
 30
0.0
  0
SPLINE
  5
242
100
AcDbEntity
  8
Layer_1
 62
7
100
AcDbSpline
 70
8
 71
3
 72
8
 73
4
 74
0
 40
0
 40
0
 40
0
 40
0
 40
1
 40
1
 40
1
 40
1
 10
544.438405
 20
285.369312
 30
0.0
 10
544.881517
 20
285.369312
 30
0.0
 10
547.204087
 20
287.238820
 30
0.0
 10
549.599621
 20
289.523774
 30
0.0
  0
LWPOLYLINE
  5
243
100
AcDbEntity
  8
Layer_1
 62
7
100
AcDbPolyline
 90
1
 70
1
 10
533.901105
 20
269.049072
 30
0.0
  0
SPLINE
  5
244
100
AcDbEntity
  8
Layer_1
 62
7
100
AcDbSpline
 70
8
 71
3
 72
8
 73
4
 74
0
 40
0
 40
0
 40
0
 40
0
 40
1
 40
1
 40
1
 40
1
 10
624.632822
 20
271.715740
 30
0.0
 10
623.601577
 20
271.870229
 30
0.0
 10
621.830261
 20
272.874488
 30
0.0
 10
620.696571
 20
273.947176
 30
0.0
  0
LWPOLYLINE
  5
245
100
AcDbEntity
  8
Layer_1
 62
7
100
AcDbPolyline
 90
1
 70
1
 10
549.599621
 20
289.523774
 30
0.0
  0
SPLINE
  5
246
100
AcDbEntity
  8
Layer_1
 62
7
100
AcDbSpline
 70
8
 71
3
 72
8
 73
4
 74
0
 40
0
 40
0
 40
0
 40
0
 40
1
 40
1
 40
1
 40
1
 10
613.571566
 20
274.095372
 30
0.0
 10
600.768106
 20
269.538616
 30
0.0
 10
591.049341
 20
273.677998
 30
0.0
 10
588.686774
 20
284.694183
 30
0.0
  0
SPLINE
  5
247
100
AcDbEntity
  8
Layer_1
 62
7
100
AcDbSpline
 70
8
 71
3
 72
8
 73
4
 74
0
 40
0
 40
0
 40
0
 40
0
 40
1
 40
1
 40
1
 40
1
 10
588.686774
 20
284.694183
 30
0.0
 10
587.035023
 20
292.396096
 30
0.0
 10
588.345822
 20
307.488194
 30
0.0
 10
591.134947
 20
312.881795
 30
0.0
  0
SPLINE
  5
248
100
AcDbEntity
  8
Layer_1
 62
7
100
AcDbSpline
 70
8
 71
3
 72
8
 73
4
 74
0
 40
0
 40
0
 40
0
 40
0
 40
1
 40
1
 40
1
 40
1
 10
591.134947
 20
312.881795
 30
0.0
 10
593.684743
 20
317.812583
 30
0.0
 10
598.801115
 20
319.724497
 30
0.0
 10
602.150140
 20
316.998018
 30
0.0
  0
LWPOLYLINE
  5
249
100
AcDbEntity
  8
Layer_1
 62
7
100
AcDbPolyline
 90
3
 70
0
 10
620.696571
 20
273.947176
 30
0.0
 10
618.635299
 20
275.897557
 30
0.0
 10
613.571566
 20
274.095372
 30
0.0
  0
SPLINE
  5
24a
100
AcDbEntity
  8
Layer_1
 62
7
100
AcDbSpline
 70
8
 71
3
 72
8
 73
4
 74
0
 40
0
 40
0
 40
0
 40
0
 40
1
 40
1
 40
1
 40
1
 10
603.815610
 20
302.864994
 30
0.0
 10
603.709877
 20
295.923618
 30
0.0
 10
603.910004
 20
289.803951
 30
0.0
 10
604.260253
 20
289.265736
 30
0.0
  0
SPLINE
  5
24b
100
AcDbEntity
  8
Layer_1
 62
7
100
AcDbSpline
 70
8
 71
3
 72
8
 73
4
 74
0
 40
0
 40
0
 40
0
 40
0
 40
1
 40
1
 40
1
 40
1
 10
604.260253
 20
289.265736
 30
0.0
 10
604.775252
 20
288.474500
 30
0.0
 10
605.530034
 20
288.536239
 30
0.0
 10
608.202542
 20
289.588149
 30
0.0
  0
SPLINE
  5
24c
100
AcDbEntity
  8
Layer_1
 62
7
100
AcDbSpline
 70
8
 71
3
 72
8
 73
4
 74
0
 40
0
 40
0
 40
0
 40
0
 40
1
 40
1
 40
1
 40
1
 10
608.202542
 20
289.588149
 30
0.0
 10
610.020488
 20
290.303699
 30
0.0
 10
612.708075
 20
291.635106
 30
0.0
 10
614.174978
 20
292.546843
 30
0.0
  0
SPLINE
  5
24d
100
AcDbEntity
  8
Layer_1
 62
7
100
AcDbSpline
 70
8
 71
3
 72
8
 73
4
 74
0
 40
0
 40
0
 40
0
 40
0
 40
1
 40
1
 40
1
 40
1
 10
614.174978
 20
292.546843
 30
0.0
 10
616.601920
 20
294.055273
 30
0.0
 10
616.957895
 20
294.735248
 30
0.0
 10
618.128776
 20
300.099425
 30
0.0
  0
SPLINE
  5
24e
100
AcDbEntity
  8
Layer_1
 62
7
100
AcDbSpline
 70
8
 71
3
 72
8
 73
4
 74
0
 40
0
 40
0
 40
0
 40
0
 40
1
 40
1
 40
1
 40
1
 10
618.128776
 20
300.099425
 30
0.0
 10
620.969009
 20
313.111402
 30
0.0
 10
625.477293
 20
319.869348
 30
0.0
 10
631.317464
 20
319.869348
 30
0.0
  0
SPLINE
  5
24f
100
AcDbEntity
  8
Layer_1
 62
7
100
AcDbSpline
 70
8
 71
3
 72
8
 73
4
 74
0
 40
0
 40
0
 40
0
 40
0
 40
1
 40
1
 40
1
 40
1
 10
631.317464
 20
319.869348
 30
0.0
 10
633.618208
 20
319.869348
 30
0.0
 10
634.618867
 20
319.430998
 30
0.0
 10
635.828497
 20
317.893200
 30
0.0
  0
SPLINE
  5
250
100
AcDbEntity
  8
Layer_1
 62
7
100
AcDbSpline
 70
8
 71
3
 72
8
 73
4
 74
0
 40
0
 40
0
 40
0
 40
0
 40
1
 40
1
 40
1
 40
1
 10
635.828497
 20
317.893200
 30
0.0
 10
637.930447
 20
315.221005
 30
0.0
 10
637.801782
 20
312.455719
 30
0.0
 10
635.053873
 20
301.245701
 30
0.0
  0
SPLINE
  5
251
100
AcDbEntity
  8
Layer_1
 62
7
100
AcDbSpline
 70
8
 71
3
 72
8
 73
4
 74
0
 40
0
 40
0
 40
0
 40
0
 40
1
 40
1
 40
1
 40
1
 10
635.053873
 20
301.245701
 30
0.0
 10
633.271587
 20
293.974911
 30
0.0
 10
632.726795
 20
290.071598
 30
0.0
 10
632.733344
 20
284.619292
 30
0.0
  0
SPLINE
  5
252
100
AcDbEntity
  8
Layer_1
 62
7
100
AcDbSpline
 70
8
 71
3
 72
8
 73
4
 74
0
 40
0
 40
0
 40
0
 40
0
 40
1
 40
1
 40
1
 40
1
 10
632.733344
 20
284.619292
 30
0.0
 10
632.739013
 20
280.457374
 30
0.0
 10
632.336918
 20
276.522824
 30
0.0
 10
631.768060
 20
275.158280
 30
0.0
  0
SPLINE
  5
253
100
AcDbEntity
  8
Layer_1
 62
7
100
AcDbSpline
 70
8
 71
3
 72
8
 73
4
 74
0
 40
0
 40
0
 40
0
 40
0
 40
1
 40
1
 40
1
 40
1
 10
631.768060
 20
275.158280
 30
0.0
 10
630.715215
 20
272.632608
 30
0.0
 10
627.823504
 20
271.237422
 30
0.0
 10
624.632907
 20
271.715740
 30
0.0
  0
LWPOLYLINE
  5
254
100
AcDbEntity
  8
Layer_1
 62
7
100
AcDbPolyline
 90
3
 70
0
 10
602.150140
 20
316.998018
 30
0.0
 10
604.007799
 20
315.485676
 30
0.0
 10
603.815610
 20
302.864994
 30
0.0
  0
SPLINE
  5
255
100
AcDbEntity
  8
Layer_1
 62
7
100
AcDbSpline
 70
8
 71
3
 72
8
 73
4
 74
0
 40
0
 40
0
 40
0
 40
0
 40
1
 40
1
 40
1
 40
1
 10
663.731568
 20
281.276333
 30
0.0
 10
660.271227
 20
284.188028
 30
0.0
 10
659.914684
 20
288.392267
 30
0.0
 10
662.507850
 20
295.705775
 30
0.0
  0
SPLINE
  5
256
100
AcDbEntity
  8
Layer_1
 62
7
100
AcDbSpline
 70
8
 71
3
 72
8
 73
4
 74
0
 40
0
 40
0
 40
0
 40
0
 40
1
 40
1
 40
1
 40
1
 10
662.507850
 20
295.705775
 30
0.0
 10
668.659947
 20
313.056580
 30
0.0
 10
681.036848
 20
331.176821
 30
0.0
 10
689.507915
 20
335.234877
 30
0.0
  0
SPLINE
  5
257
100
AcDbEntity
  8
Layer_1
 62
7
100
AcDbSpline
 70
8
 71
3
 72
8
 73
4
 74
0
 40
0
 40
0
 40
0
 40
0
 40
1
 40
1
 40
1
 40
1
 10
689.507915
 20
335.234877
 30
0.0
 10
691.162642
 20
336.027587
 30
0.0
 10
694.694020
 20
336.801418
 30
0.0
 10
697.382940
 20
336.960584
 30
0.0
  0
SPLINE
  5
258
100
AcDbEntity
  8
Layer_1
 62
7
100
AcDbSpline
 70
8
 71
3
 72
8
 73
4
 74
0
 40
0
 40
0
 40
0
 40
0
 40
1
 40
1
 40
1
 40
1
 10
697.382940
 20
336.960584
 30
0.0
 10
701.550130
 20
337.207198
 30
0.0
 10
702.635205
 20
336.992899
 30
0.0
 10
704.856295
 20
335.484837
 30
0.0
  0
SPLINE
  5
259
100
AcDbEntity
  8
Layer_1
 62
7
100
AcDbSpline
 70
8
 71
3
 72
8
 73
4
 74
0
 40
0
 40
0
 40
0
 40
0
 40
1
 40
1
 40
1
 40
1
 10
704.856295
 20
335.484837
 30
0.0
 10
708.316948
 20
333.135026
 30
0.0
 10
709.924195
 20
329.059934
 30
0.0
 10
708.520278
 20
326.195067
 30
0.0
  0
SPLINE
  5
25a
100
AcDbEntity
  8
Layer_1
 62
7
100
AcDbSpline
 70
8
 71
3
 72
8
 73
4
 74
0
 40
0
 40
0
 40
0
 40
0
 40
1
 40
1
 40
1
 40
1
 10
708.520278
 20
326.195067
 30
0.0
 10
707.019047
 20
323.131576
 30
0.0
 10
704.008026
 20
321.252373
 30
0.0
 10
699.906118
 20
320.818814
 30
0.0
  0
SPLINE
  5
25b
100
AcDbEntity
  8
Layer_1
 62
7
100
AcDbSpline
 70
8
 71
3
 72
8
 73
4
 74
0
 40
0
 40
0
 40
0
 40
0
 40
1
 40
1
 40
1
 40
1
 10
699.906118
 20
320.818814
 30
0.0
 10
695.669224
 20
320.371024
 30
0.0
 10
694.055912
 20
319.117655
 30
0.0
 10
689.512706
 20
312.744343
 30
0.0
  0
SPLINE
  5
25c
100
AcDbEntity
  8
Layer_1
 62
7
100
AcDbSpline
 70
8
 71
3
 72
8
 73
4
 74
0
 40
0
 40
0
 40
0
 40
0
 40
1
 40
1
 40
1
 40
1
 10
689.512706
 20
312.744343
 30
0.0
 10
686.367407
 20
308.332012
 30
0.0
 10
679.386601
 20
295.069736
 30
0.0
 10
678.261670
 20
291.369301
 30
0.0
  0
SPLINE
  5
25d
100
AcDbEntity
  8
Layer_1
 62
7
100
AcDbSpline
 70
8
 71
3
 72
8
 73
4
 74
0
 40
0
 40
0
 40
0
 40
0
 40
1
 40
1
 40
1
 40
1
 10
678.261670
 20
291.369301
 30
0.0
 10
676.164908
 20
284.472145
 30
0.0
 10
674.638846
 20
281.531593
 30
0.0
 10
672.612270
 20
280.483623
 30
0.0
  0
SPLINE
  5
25e
100
AcDbEntity
  8
Layer_1
 62
7
100
AcDbSpline
 70
8
 71
3
 72
8
 73
4
 74
0
 40
0
 40
0
 40
0
 40
0
 40
1
 40
1
 40
1
 40
1
 10
672.612270
 20
280.483623
 30
0.0
 10
669.411412
 20
278.828386
 30
0.0
 10
666.312006
 20
279.105048
 30
0.0
 10
663.731568
 20
281.276333
 30
0.0
  0
LWPOLYLINE
  5
25f
100
AcDbEntity
  8
Layer_1
 62
7
100
AcDbPolyline
 90
1
 70
1
 10
624.632907
 20
271.715740
 30
0.0
  0
SPLINE
  5
260
100
AcDbEntity
  8
Layer_1
 62
7
100
AcDbSpline
 70
8
 71
3
 72
8
 73
4
 74
0
 40
0
 40
0
 40
0
 40
0
 40
1
 40
1
 40
1
 40
1
 10
177.024599
 20
404.619502
 30
0.0
 10
172.463563
 20
407.435528
 30
0.0
 10
172.296262
 20
408.708399
 30
0.0
 10
173.511505
 20
431.350332
 30
0.0
  0
SPLINE
  5
261
100
AcDbEntity
  8
Layer_1
 62
7
100
AcDbSpline
 70
8
 71
3
 72
8
 73
4
 74
0
 40
0
 40
0
 40
0
 40
0
 40
1
 40
1
 40
1
 40
1
 10
173.511505
 20
431.350332
 30
0.0
 10
174.106157
 20
442.429644
 30
0.0
 10
175.447740
 20
468.707044
 30
0.0
 10
176.492762
 20
489.744565
 30
0.0
  0
SPLINE
  5
262
100
AcDbEntity
  8
Layer_1
 62
7
100
AcDbSpline
 70
8
 71
3
 72
8
 73
4
 74
0
 40
0
 40
0
 40
0
 40
0
 40
1
 40
1
 40
1
 40
1
 10
176.492762
 20
489.744565
 30
0.0
 10
178.597631
 20
532.117927
 30
0.0
 10
179.375402
 20
541.714066
 30
0.0
 10
180.952063
 20
544.762986
 30
0.0
  0
SPLINE
  5
263
100
AcDbEntity
  8
Layer_1
 62
7
100
AcDbSpline
 70
8
 71
3
 72
8
 73
4
 74
0
 40
0
 40
0
 40
0
 40
0
 40
1
 40
1
 40
1
 40
1
 10
180.952063
 20
544.762986
 30
0.0
 10
182.866642
 20
548.465350
 30
0.0
 10
189.022225
 20
549.863796
 30
0.0
 10
192.544589
 20
547.396631
 30
0.0
  0
SPLINE
  5
264
100
AcDbEntity
  8
Layer_1
 62
7
100
AcDbSpline
 70
8
 71
3
 72
8
 73
4
 74
0
 40
0
 40
0
 40
0
 40
0
 40
1
 40
1
 40
1
 40
1
 10
192.544589
 20
547.396631
 30
0.0
 10
195.501128
 20
545.325806
 30
0.0
 10
196.388005
 20
542.078630
 30
0.0
 10
195.606634
 20
536.185705
 30
0.0
  0
SPLINE
  5
265
100
AcDbEntity
  8
Layer_1
 62
7
100
AcDbSpline
 70
8
 71
3
 72
8
 73
4
 74
0
 40
0
 40
0
 40
0
 40
0
 40
1
 40
1
 40
1
 40
1
 10
195.606634
 20
536.185705
 30
0.0
 10
195.228038
 20
533.330618
 30
0.0
 10
194.234493
 20
517.157128
 30
0.0
 10
193.398697
 20
500.244589
 30
0.0
  0
SPLINE
  5
266
100
AcDbEntity
  8
Layer_1
 62
7
100
AcDbSpline
 70
8
 71
3
 72
8
 73
4
 74
0
 40
0
 40
0
 40
0
 40
0
 40
1
 40
1
 40
1
 40
1
 10
193.398697
 20
500.244589
 30
0.0
 10
189.891555
 20
429.275312
 30
0.0
 10
188.770820
 20
411.054638
 30
0.0
 10
187.764661
 20
408.646547
 30
0.0
  0
SPLINE
  5
267
100
AcDbEntity
  8
Layer_1
 62
7
100
AcDbSpline
 70
8
 71
3
 72
8
 73
4
 74
0
 40
0
 40
0
 40
0
 40
0
 40
1
 40
1
 40
1
 40
1
 10
187.764661
 20
408.646547
 30
0.0
 10
185.860599
 20
404.089451
 30
0.0
 10
180.897297
 20
402.228447
 30
0.0
 10
177.024599
 20
404.619502
 30
0.0
  0
LWPOLYLINE
  5
268
100
AcDbEntity
  8
Layer_1
 62
7
100
AcDbPolyline
 90
1
 70
1
 10
663.731568
 20
281.276333
 30
0.0
  0
SPLINE
  5
269
100
AcDbEntity
  8
Layer_1
 62
7
100
AcDbSpline
 70
8
 71
3
 72
8
 73
4
 74
0
 40
0
 40
0
 40
0
 40
0
 40
1
 40
1
 40
1
 40
1
 10
405.097211
 20
405.506974
 30
0.0
 10
401.955711
 20
406.342799
 30
0.0
 10
399.701881
 20
409.507146
 30
0.0
 10
396.648000
 20
417.369472
 30
0.0
  0
SPLINE
  5
26a
100
AcDbEntity
  8
Layer_1
 62
7
100
AcDbSpline
 70
8
 71
3
 72
8
 73
4
 74
0
 40
0
 40
0
 40
0
 40
0
 40
1
 40
1
 40
1
 40
1
 10
396.648000
 20
417.369472
 30
0.0
 10
392.086000
 20
429.114559
 30
0.0
 10
389.251860
 20
434.120493
 30
0.0
 10
369.260438
 20
465.744552
 30
0.0
  0
SPLINE
  5
26b
100
AcDbEntity
  8
Layer_1
 62
7
100
AcDbSpline
 70
8
 71
3
 72
8
 73
4
 74
0
 40
0
 40
0
 40
0
 40
0
 40
1
 40
1
 40
1
 40
1
 10
369.260438
 20
465.744552
 30
0.0
 10
359.180169
 20
481.690334
 30
0.0
 10
356.883820
 20
486.384258
 30
0.0
 10
356.883054
 20
491.045244
 30
0.0
  0
SPLINE
  5
26c
100
AcDbEntity
  8
Layer_1
 62
7
100
AcDbSpline
 70
8
 71
3
 72
8
 73
4
 74
0
 40
0
 40
0
 40
0
 40
0
 40
1
 40
1
 40
1
 40
1
 10
356.883054
 20
491.045244
 30
0.0
 10
356.882317
 20
495.671676
 30
0.0
 10
359.607408
 20
498.956468
 30
0.0
 10
364.007492
 20
499.632843
 30
0.0
  0
SPLINE
  5
26d
100
AcDbEntity
  8
Layer_1
 62
7
100
AcDbSpline
 70
8
 71
3
 72
8
 73
4
 74
0
 40
0
 40
0
 40
0
 40
0
 40
1
 40
1
 40
1
 40
1
 10
364.007492
 20
499.632843
 30
0.0
 10
372.368716
 20
500.918130
 30
0.0
 10
381.063323
 20
512.352142
 30
0.0
 10
383.168051
 20
524.830298
 30
0.0
  0
SPLINE
  5
26e
100
AcDbEntity
  8
Layer_1
 62
7
100
AcDbSpline
 70
8
 71
3
 72
8
 73
4
 74
0
 40
0
 40
0
 40
0
 40
0
 40
1
 40
1
 40
1
 40
1
 10
383.168051
 20
524.830298
 30
0.0
 10
385.448640
 20
538.351293
 30
0.0
 10
379.850944
 20
558.411994
 30
0.0
 10
370.987817
 20
568.481037
 30
0.0
  0
SPLINE
  5
26f
100
AcDbEntity
  8
Layer_1
 62
7
100
AcDbSpline
 70
8
 71
3
 72
8
 73
4
 74
0
 40
0
 40
0
 40
0
 40
0
 40
1
 40
1
 40
1
 40
1
 10
370.987817
 20
568.481037
 30
0.0
 10
366.718721
 20
573.331009
 30
0.0
 10
360.286136
 20
577.390851
 30
0.0
 10
354.305933
 20
579.009606
 30
0.0
  0
SPLINE
  5
270
100
AcDbEntity
  8
Layer_1
 62
7
100
AcDbSpline
 70
8
 71
3
 72
8
 73
4
 74
0
 40
0
 40
0
 40
0
 40
0
 40
1
 40
1
 40
1
 40
1
 10
354.305933
 20
579.009606
 30
0.0
 10
346.662470
 20
581.078588
 30
0.0
 10
334.029911
 20
580.281372
 30
0.0
 10
324.257429
 20
577.113311
 30
0.0
  0
SPLINE
  5
271
100
AcDbEntity
  8
Layer_1
 62
7
100
AcDbSpline
 70
8
 71
3
 72
8
 73
4
 74
0
 40
0
 40
0
 40
0
 40
0
 40
1
 40
1
 40
1
 40
1
 10
324.257429
 20
577.113311
 30
0.0
 10
315.257020
 20
574.195521
 30
0.0
 10
310.254544
 20
572.030812
 30
0.0
 10
306.340233
 20
569.360062
 30
0.0
  0
SPLINE
  5
272
100
AcDbEntity
  8
Layer_1
 62
7
100
AcDbSpline
 70
8
 71
3
 72
8
 73
4
 74
0
 40
0
 40
0
 40
0
 40
0
 40
1
 40
1
 40
1
 40
1
 10
306.340233
 20
569.360062
 30
0.0
 10
300.124300
 20
565.118916
 30
0.0
 10
293.132382
 20
568.347781
 30
0.0
 10
293.132382
 20
575.459491
 30
0.0
  0
SPLINE
  5
273
100
AcDbEntity
  8
Layer_1
 62
7
100
AcDbSpline
 70
8
 71
3
 72
8
 73
4
 74
0
 40
0
 40
0
 40
0
 40
0
 40
1
 40
1
 40
1
 40
1
 10
293.132382
 20
575.459491
 30
0.0
 10
293.132382
 20
579.196438
 30
0.0
 10
296.027466
 20
582.407926
 30
0.0
 10
302.511415
 20
585.863533
 30
0.0
  0
SPLINE
  5
274
100
AcDbEntity
  8
Layer_1
 62
7
100
AcDbSpline
 70
8
 71
3
 72
8
 73
4
 74
0
 40
0
 40
0
 40
0
 40
0
 40
1
 40
1
 40
1
 40
1
 10
302.511415
 20
585.863533
 30
0.0
 10
314.475932
 20
592.240021
 30
0.0
 10
331.288238
 20
596.630184
 30
0.0
 10
343.652810
 20
596.606713
 30
0.0
  0
SPLINE
  5
275
100
AcDbEntity
  8
Layer_1
 62
7
100
AcDbSpline
 70
8
 71
3
 72
8
 73
4
 74
0
 40
0
 40
0
 40
0
 40
0
 40
1
 40
1
 40
1
 40
1
 10
343.652810
 20
596.606713
 30
0.0
 10
353.047207
 20
596.589706
 30
0.0
 10
359.740381
 20
595.028210
 30
0.0
 10
368.081876
 20
590.910627
 30
0.0
  0
SPLINE
  5
276
100
AcDbEntity
  8
Layer_1
 62
7
100
AcDbSpline
 70
8
 71
3
 72
8
 73
4
 74
0
 40
0
 40
0
 40
0
 40
0
 40
1
 40
1
 40
1
 40
1
 10
368.081876
 20
590.910627
 30
0.0
 10
387.355622
 20
581.396579
 30
0.0
 10
399.811780
 20
558.141455
 30
0.0
 10
399.773002
 20
531.744632
 30
0.0
  0
SPLINE
  5
277
100
AcDbEntity
  8
Layer_1
 62
7
100
AcDbSpline
 70
8
 71
3
 72
8
 73
4
 74
0
 40
0
 40
0
 40
0
 40
0
 40
1
 40
1
 40
1
 40
1
 10
399.773002
 20
531.744632
 30
0.0
 10
399.750325
 20
515.530181
 30
0.0
 10
395.528171
 20
504.765090
 30
0.0
 10
385.032683
 20
494.151737
 30
0.0
  0
SPLINE
  5
278
100
AcDbEntity
  8
Layer_1
 62
7
100
AcDbSpline
 70
8
 71
3
 72
8
 73
4
 74
0
 40
0
 40
0
 40
0
 40
0
 40
1
 40
1
 40
1
 40
1
 10
385.032683
 20
494.151737
 30
0.0
 10
381.718836
 20
490.800671
 30
0.0
 10
378.347928
 20
487.711186
 30
0.0
 10
377.541810
 20
487.286187
 30
0.0
  0
SPLINE
  5
279
100
AcDbEntity
  8
Layer_1
 62
7
100
AcDbSpline
 70
8
 71
3
 72
8
 73
4
 74
0
 40
0
 40
0
 40
0
 40
0
 40
1
 40
1
 40
1
 40
1
 10
377.541810
 20
487.286187
 30
0.0
 10
375.571417
 20
486.247401
 30
0.0
 10
375.828888
 20
485.733650
 30
0.0
 10
387.547216
 20
467.323451
 30
0.0
  0
SPLINE
  5
27a
100
AcDbEntity
  8
Layer_1
 62
7
100
AcDbSpline
 70
8
 71
3
 72
8
 73
4
 74
0
 40
0
 40
0
 40
0
 40
0
 40
1
 40
1
 40
1
 40
1
 10
387.547216
 20
467.323451
 30
0.0
 10
400.962279
 20
446.247520
 30
0.0
 10
405.438758
 20
438.456911
 30
0.0
 10
409.423935
 20
429.250253
 30
0.0
  0
SPLINE
  5
27b
100
AcDbEntity
  8
Layer_1
 62
7
100
AcDbSpline
 70
8
 71
3
 72
8
 73
4
 74
0
 40
0
 40
0
 40
0
 40
0
 40
1
 40
1
 40
1
 40
1
 10
409.423935
 20
429.250253
 30
0.0
 10
411.327175
 20
424.853400
 30
0.0
 10
413.783938
 20
420.186887
 30
0.0
 10
414.883442
 20
418.880198
 30
0.0
  0
SPLINE
  5
27c
100
AcDbEntity
  8
Layer_1
 62
7
100
AcDbSpline
 70
8
 71
3
 72
8
 73
4
 74
0
 40
0
 40
0
 40
0
 40
0
 40
1
 40
1
 40
1
 40
1
 10
414.883442
 20
418.880198
 30
0.0
 10
420.212895
 20
412.546486
 30
0.0
 10
413.437657
 20
403.287840
 30
0.0
 10
405.097211
 20
405.506974
 30
0.0
  0
LWPOLYLINE
  5
27d
100
AcDbEntity
  8
Layer_1
 62
7
100
AcDbPolyline
 90
1
 70
1
 10
177.024599
 20
404.619502
 30
0.0
  0
SPLINE
  5
27e
100
AcDbEntity
  8
Layer_1
 62
7
100
AcDbSpline
 70
8
 71
3
 72
8
 73
4
 74
0
 40
0
 40
0
 40
0
 40
0
 40
1
 40
1
 40
1
 40
1
 10
477.116159
 20
410.583264
 30
0.0
 10
474.549129
 20
412.148501
 30
0.0
 10
473.042768
 20
415.811265
 30
0.0
 10
473.653068
 20
419.003902
 30
0.0
  0
SPLINE
  5
27f
100
AcDbEntity
  8
Layer_1
 62
7
100
AcDbSpline
 70
8
 71
3
 72
8
 73
4
 74
0
 40
0
 40
0
 40
0
 40
0
 40
1
 40
1
 40
1
 40
1
 10
473.653068
 20
419.003902
 30
0.0
 10
473.920942
 20
420.404616
 30
0.0
 10
473.564060
 20
421.023874
 30
0.0
 10
472.106540
 20
421.687947
 30
0.0
  0
SPLINE
  5
280
100
AcDbEntity
  8
Layer_1
 62
7
100
AcDbSpline
 70
8
 71
3
 72
8
 73
4
 74
0
 40
0
 40
0
 40
0
 40
0
 40
1
 40
1
 40
1
 40
1
 10
472.106540
 20
421.687947
 30
0.0
 10
471.064523
 20
422.162722
 30
0.0
 10
469.603488
 20
423.479247
 30
0.0
 10
468.859789
 20
424.613560
 30
0.0
  0
SPLINE
  5
281
100
AcDbEntity
  8
Layer_1
 62
7
100
AcDbSpline
 70
8
 71
3
 72
8
 73
4
 74
0
 40
0
 40
0
 40
0
 40
0
 40
1
 40
1
 40
1
 40
1
 10
468.859789
 20
424.613560
 30
0.0
 10
465.945599
 20
429.058376
 30
0.0
 10
466.183426
 20
473.068521
 30
0.0
 10
469.345478
 20
514.494599
 30
0.0
  0
SPLINE
  5
282
100
AcDbEntity
  8
Layer_1
 62
7
100
AcDbSpline
 70
8
 71
3
 72
8
 73
4
 74
0
 40
0
 40
0
 40
0
 40
0
 40
1
 40
1
 40
1
 40
1
 10
469.345478
 20
514.494599
 30
0.0
 10
470.164125
 20
525.219637
 30
0.0
 10
471.191033
 20
540.575897
 30
0.0
 10
471.627484
 20
548.619669
 30
0.0
  0
SPLINE
  5
283
100
AcDbEntity
  8
Layer_1
 62
7
100
AcDbSpline
 70
8
 71
3
 72
8
 73
4
 74
0
 40
0
 40
0
 40
0
 40
0
 40
1
 40
1
 40
1
 40
1
 10
471.627484
 20
548.619669
 30
0.0
 10
472.063963
 20
556.663412
 30
0.0
 10
472.593986
 20
564.328418
 30
0.0
 10
472.805366
 20
565.652993
 30
0.0
  0
SPLINE
  5
284
100
AcDbEntity
  8
Layer_1
 62
7
100
AcDbSpline
 70
8
 71
3
 72
8
 73
4
 74
0
 40
0
 40
0
 40
0
 40
0
 40
1
 40
1
 40
1
 40
1
 10
472.805366
 20
565.652993
 30
0.0
 10
473.252248
 20
568.453598
 30
0.0
 10
477.084553
 20
572.619682
 30
0.0
 10
479.213856
 20
572.619682
 30
0.0
  0
SPLINE
  5
285
100
AcDbEntity
  8
Layer_1
 62
7
100
AcDbSpline
 70
8
 71
3
 72
8
 73
4
 74
0
 40
0
 40
0
 40
0
 40
0
 40
1
 40
1
 40
1
 40
1
 10
479.213856
 20
572.619682
 30
0.0
 10
480.020088
 20
572.619682
 30
0.0
 10
480.866202
 20
573.105683
 30
0.0
 10
481.094136
 20
573.699712
 30
0.0
  0
SPLINE
  5
286
100
AcDbEntity
  8
Layer_1
 62
7
100
AcDbSpline
 70
8
 71
3
 72
8
 73
4
 74
0
 40
0
 40
0
 40
0
 40
0
 40
1
 40
1
 40
1
 40
1
 10
481.094136
 20
573.699712
 30
0.0
 10
481.725810
 20
575.345793
 30
0.0
 10
484.973893
 20
577.210794
 30
0.0
 10
489.199391
 20
578.353640
 30
0.0
  0
SPLINE
  5
287
100
AcDbEntity
  8
Layer_1
 62
7
100
AcDbSpline
 70
8
 71
3
 72
8
 73
4
 74
0
 40
0
 40
0
 40
0
 40
0
 40
1
 40
1
 40
1
 40
1
 10
489.199391
 20
578.353640
 30
0.0
 10
491.436667
 20
578.958724
 30
0.0
 10
502.444093
 20
579.842568
 30
0.0
 10
515.882684
 20
580.496153
 30
0.0
  0
SPLINE
  5
288
100
AcDbEntity
  8
Layer_1
 62
7
100
AcDbSpline
 70
8
 71
3
 72
8
 73
4
 74
0
 40
0
 40
0
 40
0
 40
0
 40
1
 40
1
 40
1
 40
1
 10
515.882684
 20
580.496153
 30
0.0
 10
528.463964
 20
581.108069
 30
0.0
 10
543.651478
 20
581.941909
 30
0.0
 10
549.632730
 20
582.349163
 30
0.0
  0
SPLINE
  5
289
100
AcDbEntity
  8
Layer_1
 62
7
100
AcDbSpline
 70
8
 71
3
 72
8
 73
4
 74
0
 40
0
 40
0
 40
0
 40
0
 40
1
 40
1
 40
1
 40
1
 10
549.632730
 20
582.349163
 30
0.0
 10
574.683010
 20
584.054829
 30
0.0
 10
583.808228
 20
583.658346
 30
0.0
 10
590.551264
 20
580.571271
 30
0.0
  0
SPLINE
  5
28a
100
AcDbEntity
  8
Layer_1
 62
7
100
AcDbSpline
 70
8
 71
3
 72
8
 73
4
 74
0
 40
0
 40
0
 40
0
 40
0
 40
1
 40
1
 40
1
 40
1
 10
590.551264
 20
580.571271
 30
0.0
 10
597.810632
 20
577.247815
 30
0.0
 10
599.809230
 20
570.896130
 30
0.0
 10
595.082792
 20
566.169693
 30
0.0
  0
SPLINE
  5
28b
100
AcDbEntity
  8
Layer_1
 62
7
100
AcDbSpline
 70
8
 71
3
 72
8
 73
4
 74
0
 40
0
 40
0
 40
0
 40
0
 40
1
 40
1
 40
1
 40
1
 10
595.082792
 20
566.169693
 30
0.0
 10
592.080955
 20
563.167827
 30
0.0
 10
589.297187
 20
562.867609
 30
0.0
 10
584.963773
 20
565.078353
 30
0.0
  0
SPLINE
  5
28c
100
AcDbEntity
  8
Layer_1
 62
7
100
AcDbSpline
 70
8
 71
3
 72
8
 73
4
 74
0
 40
0
 40
0
 40
0
 40
0
 40
1
 40
1
 40
1
 40
1
 10
584.963773
 20
565.078353
 30
0.0
 10
580.226564
 20
567.495118
 30
0.0
 10
572.769763
 20
567.652271
 30
0.0
 10
545.882715
 20
565.902045
 30
0.0
  0
SPLINE
  5
28d
100
AcDbEntity
  8
Layer_1
 62
7
100
AcDbSpline
 70
8
 71
3
 72
8
 73
4
 74
0
 40
0
 40
0
 40
0
 40
0
 40
1
 40
1
 40
1
 40
1
 10
545.882715
 20
565.902045
 30
0.0
 10
532.063969
 20
565.002526
 30
0.0
 10
520.397544
 20
564.155277
 30
0.0
 10
519.957351
 20
564.019271
 30
0.0
  0
SPLINE
  5
28e
100
AcDbEntity
  8
Layer_1
 62
7
100
AcDbSpline
 70
8
 71
3
 72
8
 73
4
 74
0
 40
0
 40
0
 40
0
 40
0
 40
1
 40
1
 40
1
 40
1
 10
519.957351
 20
564.019271
 30
0.0
 10
519.517158
 20
563.883208
 30
0.0
 10
518.595245
 20
559.940862
 30
0.0
 10
517.908665
 20
555.258333
 30
0.0
  0
SPLINE
  5
28f
100
AcDbEntity
  8
Layer_1
 62
7
100
AcDbSpline
 70
8
 71
3
 72
8
 73
4
 74
0
 40
0
 40
0
 40
0
 40
0
 40
1
 40
1
 40
1
 40
1
 10
517.908665
 20
555.258333
 30
0.0
 10
515.766974
 20
540.652291
 30
0.0
 10
512.661247
 20
512.591047
 30
0.0
 10
513.134038
 20
512.118227
 30
0.0
  0
SPLINE
  5
290
100
AcDbEntity
  8
Layer_1
 62
7
100
AcDbSpline
 70
8
 71
3
 72
8
 73
4
 74
0
 40
0
 40
0
 40
0
 40
0
 40
1
 40
1
 40
1
 40
1
 10
513.134038
 20
512.118227
 30
0.0
 10
513.382070
 20
511.870195
 30
0.0
 10
516.717630
 20
512.070322
 30
0.0
 10
520.546363
 20
512.563069
 30
0.0
  0
SPLINE
  5
291
100
AcDbEntity
  8
Layer_1
 62
7
100
AcDbSpline
 70
8
 71
3
 72
8
 73
4
 74
0
 40
0
 40
0
 40
0
 40
0
 40
1
 40
1
 40
1
 40
1
 10
520.546363
 20
512.563069
 30
0.0
 10
530.852752
 20
513.889316
 30
0.0
 10
558.852598
 20
513.682273
 30
0.0
 10
561.603993
 20
512.259478
 30
0.0
  0
SPLINE
  5
292
100
AcDbEntity
  8
Layer_1
 62
7
100
AcDbSpline
 70
8
 71
3
 72
8
 73
4
 74
0
 40
0
 40
0
 40
0
 40
0
 40
1
 40
1
 40
1
 40
1
 10
561.603993
 20
512.259478
 30
0.0
 10
566.399058
 20
509.779840
 30
0.0
 10
568.033602
 20
505.424259
 30
0.0
 10
565.670383
 20
501.423661
 30
0.0
  0
SPLINE
  5
293
100
AcDbEntity
  8
Layer_1
 62
7
100
AcDbSpline
 70
8
 71
3
 72
8
 73
4
 74
0
 40
0
 40
0
 40
0
 40
0
 40
1
 40
1
 40
1
 40
1
 10
565.670383
 20
501.423661
 30
0.0
 10
563.262348
 20
497.347180
 30
0.0
 10
562.743608
 20
497.250405
 30
0.0
 10
542.882721
 20
497.172679
 30
0.0
  0
SPLINE
  5
294
100
AcDbEntity
  8
Layer_1
 62
7
100
AcDbSpline
 70
8
 71
3
 72
8
 73
4
 74
0
 40
0
 40
0
 40
0
 40
0
 40
1
 40
1
 40
1
 40
1
 10
542.882721
 20
497.172679
 30
0.0
 10
523.738774
 20
497.097845
 30
0.0
 10
513.882470
 20
495.940826
 30
0.0
 10
511.421399
 20
493.479726
 30
0.0
  0
SPLINE
  5
295
100
AcDbEntity
  8
Layer_1
 62
7
100
AcDbSpline
 70
8
 71
3
 72
8
 73
4
 74
0
 40
0
 40
0
 40
0
 40
0
 40
1
 40
1
 40
1
 40
1
 10
511.421399
 20
493.479726
 30
0.0
 10
509.736172
 20
491.794499
 30
0.0
 10
510.044865
 20
459.427138
 30
0.0
 10
511.878345
 20
445.568679
 30
0.0
  0
LWPOLYLINE
  5
296
100
AcDbEntity
  8
Layer_1
 62
7
100
AcDbPolyline
 90
1
 70
1
 10
405.097211
 20
405.506974
 30
0.0
  0
SPLINE
  5
297
100
AcDbEntity
  8
Layer_1
 62
7
100
AcDbSpline
 70
8
 71
3
 72
8
 73
4
 74
0
 40
0
 40
0
 40
0
 40
0
 40
1
 40
1
 40
1
 40
1
 10
529.030100
 20
435.304441
 30
0.0
 10
548.398665
 20
435.502583
 30
0.0
 10
572.117142
 20
433.673525
 30
0.0
 10
575.507751
 20
431.720027
 30
0.0
  0
SPLINE
  5
298
100
AcDbEntity
  8
Layer_1
 62
7
100
AcDbSpline
 70
8
 71
3
 72
8
 73
4
 74
0
 40
0
 40
0
 40
0
 40
0
 40
1
 40
1
 40
1
 40
1
 10
575.507751
 20
431.720027
 30
0.0
 10
576.920795
 20
430.905887
 30
0.0
 10
578.147433
 20
429.309838
 30
0.0
 10
578.805299
 20
427.429359
 30
0.0
  0
SPLINE
  5
299
100
AcDbEntity
  8
Layer_1
 62
7
100
AcDbSpline
 70
8
 71
3
 72
8
 73
4
 74
0
 40
0
 40
0
 40
0
 40
0
 40
1
 40
1
 40
1
 40
1
 10
578.805299
 20
427.429359
 30
0.0
 10
579.737530
 20
424.764619
 30
0.0
 10
579.710516
 20
424.135128
 30
0.0
 10
578.559818
 20
421.710284
 30
0.0
  0
SPLINE
  5
29a
100
AcDbEntity
  8
Layer_1
 62
7
100
AcDbSpline
 70
8
 71
3
 72
8
 73
4
 74
0
 40
0
 40
0
 40
0
 40
0
 40
1
 40
1
 40
1
 40
1
 10
578.559818
 20
421.710284
 30
0.0
 10
576.266898
 20
416.878284
 30
0.0
 10
574.232641
 20
416.436985
 30
0.0
 10
560.009361
 20
417.685847
 30
0.0
  0
SPLINE
  5
29b
100
AcDbEntity
  8
Layer_1
 62
7
100
AcDbSpline
 70
8
 71
3
 72
8
 73
4
 74
0
 40
0
 40
0
 40
0
 40
0
 40
1
 40
1
 40
1
 40
1
 10
560.009361
 20
417.685847
 30
0.0
 10
524.358003
 20
420.816179
 30
0.0
 10
511.142782
 20
419.742215
 30
0.0
 10
490.664820
 20
412.050337
 30
0.0
  0
SPLINE
  5
29c
100
AcDbEntity
  8
Layer_1
 62
7
100
AcDbSpline
 70
8
 71
3
 72
8
 73
4
 74
0
 40
0
 40
0
 40
0
 40
0
 40
1
 40
1
 40
1
 40
1
 10
490.664820
 20
412.050337
 30
0.0
 10
481.766373
 20
408.707917
 30
0.0
 10
480.429354
 20
408.563151
 30
0.0
 10
477.116131
 20
410.583378
 30
0.0
  0
LWPOLYLINE
  5
29d
100
AcDbEntity
  8
Layer_1
 62
7
100
AcDbPolyline
 90
3
 70
0
 10
511.878345
 20
445.568679
 30
0.0
 10
513.257685
 20
435.142866
 30
0.0
 10
529.030100
 20
435.304441
 30
0.0
  0
SPLINE
  5
29e
100
AcDbEntity
  8
Layer_1
 62
7
100
AcDbSpline
 70
8
 71
3
 72
8
 73
4
 74
0
 40
0
 40
0
 40
0
 40
0
 40
1
 40
1
 40
1
 40
1
 10
496.596182
 20
431.592978
 30
0.0
 10
496.919871
 20
431.883699
 30
0.0
 10
496.456718
 20
437.999229
 30
0.0
 10
495.566638
 20
445.183053
 30
0.0
  0
SPLINE
  5
29f
100
AcDbEntity
  8
Layer_1
 62
7
100
AcDbSpline
 70
8
 71
3
 72
8
 73
4
 74
0
 40
0
 40
0
 40
0
 40
0
 40
1
 40
1
 40
1
 40
1
 10
495.566638
 20
445.183053
 30
0.0
 10
494.332857
 20
455.142537
 30
0.0
 10
493.954544
 20
462.247246
 30
0.0
 10
493.973706
 20
475.098697
 30
0.0
  0
SPLINE
  5
2a0
100
AcDbEntity
  8
Layer_1
 62
7
100
AcDbSpline
 70
8
 71
3
 72
8
 73
4
 74
0
 40
0
 40
0
 40
0
 40
0
 40
1
 40
1
 40
1
 40
1
 10
493.973706
 20
475.098697
 30
0.0
 10
493.993549
 20
488.178535
 30
0.0
 10
493.761958
 20
492.411063
 30
0.0
 10
492.940732
 20
493.998977
 30
0.0
  0
SPLINE
  5
2a1
100
AcDbEntity
  8
Layer_1
 62
7
100
AcDbSpline
 70
8
 71
3
 72
8
 73
4
 74
0
 40
0
 40
0
 40
0
 40
0
 40
1
 40
1
 40
1
 40
1
 10
492.940732
 20
493.998977
 30
0.0
 10
491.392560
 20
496.992821
 30
0.0
 10
491.641640
 20
499.814431
 30
0.0
 10
493.720260
 20
502.829279
 30
0.0
  0
SPLINE
  5
2a2
100
AcDbEntity
  8
Layer_1
 62
7
100
AcDbSpline
 70
8
 71
3
 72
8
 73
4
 74
0
 40
0
 40
0
 40
0
 40
0
 40
1
 40
1
 40
1
 40
1
 10
493.720260
 20
502.829279
 30
0.0
 10
495.375015
 20
505.229348
 30
0.0
 10
495.789101
 20
507.547270
 30
0.0
 10
497.880987
 20
526.119638
 30
0.0
  0
SPLINE
  5
2a3
100
AcDbEntity
  8
Layer_1
 62
7
100
AcDbSpline
 70
8
 71
3
 72
8
 73
4
 74
0
 40
0
 40
0
 40
0
 40
0
 40
1
 40
1
 40
1
 40
1
 10
497.880987
 20
526.119638
 30
0.0
 10
499.158706
 20
537.463395
 30
0.0
 10
500.694292
 20
550.262773
 30
0.0
 10
501.293395
 20
554.562710
 30
0.0
  0
SPLINE
  5
2a4
100
AcDbEntity
  8
Layer_1
 62
7
100
AcDbSpline
 70
8
 71
3
 72
8
 73
4
 74
0
 40
0
 40
0
 40
0
 40
0
 40
1
 40
1
 40
1
 40
1
 10
501.293395
 20
554.562710
 30
0.0
 10
501.892498
 20
558.862646
 30
0.0
 10
502.382666
 20
562.698409
 30
0.0
 10
502.382666
 20
563.086643
 30
0.0
  0
SPLINE
  5
2a5
100
AcDbEntity
  8
Layer_1
 62
7
100
AcDbSpline
 70
8
 71
3
 72
8
 73
4
 74
0
 40
0
 40
0
 40
0
 40
0
 40
1
 40
1
 40
1
 40
1
 10
502.382666
 20
563.086643
 30
0.0
 10
502.382666
 20
563.933636
 30
0.0
 10
494.825944
 20
563.142485
 30
0.0
 10
491.356956
 20
561.932430
 30
0.0
  0
SPLINE
  5
2a6
100
AcDbEntity
  8
Layer_1
 62
7
100
AcDbSpline
 70
8
 71
3
 72
8
 73
4
 74
0
 40
0
 40
0
 40
0
 40
0
 40
1
 40
1
 40
1
 40
1
 10
491.356956
 20
561.932430
 30
0.0
 10
488.547819
 20
560.952492
 30
0.0
 10
488.701258
 20
561.841438
 30
0.0
 10
487.376173
 20
538.869637
 30
0.0
  0
SPLINE
  5
2a7
100
AcDbEntity
  8
Layer_1
 62
7
100
AcDbSpline
 70
8
 71
3
 72
8
 73
4
 74
0
 40
0
 40
0
 40
0
 40
0
 40
1
 40
1
 40
1
 40
1
 10
487.376173
 20
538.869637
 30
0.0
 10
486.912198
 20
530.825893
 30
0.0
 10
486.066253
 20
518.338355
 30
0.0
 10
485.496347
 20
511.119608
 30
0.0
  0
SPLINE
  5
2a8
100
AcDbEntity
  8
Layer_1
 62
7
100
AcDbSpline
 70
8
 71
3
 72
8
 73
4
 74
0
 40
0
 40
0
 40
0
 40
0
 40
1
 40
1
 40
1
 40
1
 10
485.496347
 20
511.119608
 30
0.0
 10
483.583129
 20
486.886955
 30
0.0
 10
482.657219
 20
460.258910
 30
0.0
 10
483.253487
 20
446.619511
 30
0.0
  0
SPLINE
  5
2a9
100
AcDbEntity
  8
Layer_1
 62
7
100
AcDbSpline
 70
8
 71
3
 72
8
 73
4
 74
0
 40
0
 40
0
 40
0
 40
0
 40
1
 40
1
 40
1
 40
1
 10
483.253487
 20
446.619511
 30
0.0
 10
483.755504
 20
435.136488
 30
0.0
 10
484.166159
 20
427.800557
 30
0.0
 10
484.331703
 20
427.358522
 30
0.0
  0
SPLINE
  5
2aa
100
AcDbEntity
  8
Layer_1
 62
7
100
AcDbSpline
 70
8
 71
3
 72
8
 73
4
 74
0
 40
0
 40
0
 40
0
 40
0
 40
1
 40
1
 40
1
 40
1
 10
484.331703
 20
427.358522
 30
0.0
 10
484.435734
 20
427.081009
 30
0.0
 10
496.029508
 20
431.084016
 30
0.0
 10
496.596182
 20
431.592978
 30
0.0
  0
LWPOLYLINE
  5
2ab
100
AcDbEntity
  8
Layer_1
 62
7
100
AcDbPolyline
 90
2
 70
0
 10
477.116131
 20
410.583378
 30
0.0
 10
477.116159
 20
410.583264
 30
0.0
  0
LWPOLYLINE
  5
2ac
100
AcDbEntity
  8
Layer_1
 62
7
100
AcDbPolyline
 90
1
 70
1
 10
496.596182
 20
431.592978
 30
0.0
  0
SPLINE
  5
2ad
100
AcDbEntity
  8
Layer_1
 62
7
100
AcDbSpline
 70
8
 71
3
 72
8
 73
4
 74
0
 40
0
 40
0
 40
0
 40
0
 40
1
 40
1
 40
1
 40
1
 10
146.576552
 20
456.369544
 30
0.0
 10
146.827985
 20
505.465078
 30
0.0
 10
148.226828
 20
534.450985
 30
0.0
 10
150.729228
 20
542.420432
 30
0.0
  0
SPLINE
  5
2ae
100
AcDbEntity
  8
Layer_1
 62
7
100
AcDbSpline
 70
8
 71
3
 72
8
 73
4
 74
0
 40
0
 40
0
 40
0
 40
0
 40
1
 40
1
 40
1
 40
1
 10
150.729228
 20
542.420432
 30
0.0
 10
151.829129
 20
545.923293
 30
0.0
 10
154.664062
 20
547.869649
 30
0.0
 10
158.666190
 20
547.869649
 30
0.0
  0
SPLINE
  5
2af
100
AcDbEntity
  8
Layer_1
 62
7
100
AcDbSpline
 70
8
 71
3
 72
8
 73
4
 74
0
 40
0
 40
0
 40
0
 40
0
 40
1
 40
1
 40
1
 40
1
 10
158.666190
 20
547.869649
 30
0.0
 10
161.383457
 20
547.869649
 30
0.0
 10
162.421505
 20
547.445897
 30
0.0
 10
164.296002
 20
545.571372
 30
0.0
  0
SPLINE
  5
2b0
100
AcDbEntity
  8
Layer_1
 62
7
100
AcDbSpline
 70
8
 71
3
 72
8
 73
4
 74
0
 40
0
 40
0
 40
0
 40
0
 40
1
 40
1
 40
1
 40
1
 10
164.296002
 20
545.571372
 30
0.0
 10
166.849965
 20
543.017409
 30
0.0
 10
166.826522
 20
543.766976
 30
0.0
 10
164.916252
 20
525.744614
 30
0.0
  0
SPLINE
  5
2b1
100
AcDbEntity
  8
Layer_1
 62
7
100
AcDbSpline
 70
8
 71
3
 72
8
 73
4
 74
0
 40
0
 40
0
 40
0
 40
0
 40
1
 40
1
 40
1
 40
1
 10
164.916252
 20
525.744614
 30
0.0
 10
163.713936
 20
514.401197
 30
0.0
 10
162.632829
 20
478.491942
 30
0.0
 10
162.613128
 20
449.244510
 30
0.0
  0
SPLINE
  5
2b2
100
AcDbEntity
  8
Layer_1
 62
7
100
AcDbSpline
 70
8
 71
3
 72
8
 73
4
 74
0
 40
0
 40
0
 40
0
 40
0
 40
1
 40
1
 40
1
 40
1
 10
162.613128
 20
449.244510
 30
0.0
 10
162.601789
 20
433.981992
 30
0.0
 10
162.303754
 20
420.021712
 30
0.0
 10
161.948459
 20
418.221624
 30
0.0
  0
SPLINE
  5
2b3
100
AcDbEntity
  8
Layer_1
 62
7
100
AcDbSpline
 70
8
 71
3
 72
8
 73
4
 74
0
 40
0
 40
0
 40
0
 40
0
 40
1
 40
1
 40
1
 40
1
 10
161.948459
 20
418.221624
 30
0.0
 10
161.112776
 20
413.987253
 30
0.0
 10
158.481399
 20
411.374160
 30
0.0
 10
154.517709
 20
410.842521
 30
0.0
  0
SPLINE
  5
2b4
100
AcDbEntity
  8
Layer_1
 62
7
100
AcDbSpline
 70
8
 71
3
 72
8
 73
4
 74
0
 40
0
 40
0
 40
0
 40
0
 40
1
 40
1
 40
1
 40
1
 10
154.517709
 20
410.842521
 30
0.0
 10
151.740348
 20
410.469992
 30
0.0
 10
151.165821
 20
410.686615
 30
0.0
 10
148.895720
 20
412.961025
 30
0.0
  0
LWPOLYLINE
  5
2b5
100
AcDbEntity
  8
Layer_1
 62
7
100
AcDbPolyline
 90
3
 70
0
 10
148.895578
 20
412.961025
 30
0.0
 10
146.367071
 20
415.494465
 30
0.0
 10
146.576552
 20
456.369544
 30
0.0
  0
SPLINE
  5
2b6
100
AcDbEntity
  8
Layer_1
 62
7
100
AcDbSpline
 70
8
 71
3
 72
8
 73
4
 74
0
 40
0
 40
0
 40
0
 40
0
 40
1
 40
1
 40
1
 40
1
 10
302.634382
 20
418.903612
 30
0.0
 10
299.077379
 20
421.701525
 30
0.0
 10
298.936950
 20
423.346189
 30
0.0
 10
298.571309
 20
466.494543
 30
0.0
  0
SPLINE
  5
2b7
100
AcDbEntity
  8
Layer_1
 62
7
100
AcDbSpline
 70
8
 71
3
 72
8
 73
4
 74
0
 40
0
 40
0
 40
0
 40
0
 40
1
 40
1
 40
1
 40
1
 10
298.571309
 20
466.494543
 30
0.0
 10
298.160682
 20
514.945733
 30
0.0
 10
299.609018
 20
552.300206
 30
0.0
 10
302.213068
 20
560.420456
 30
0.0
  0
SPLINE
  5
2b8
100
AcDbEntity
  8
Layer_1
 62
7
100
AcDbSpline
 70
8
 71
3
 72
8
 73
4
 74
0
 40
0
 40
0
 40
0
 40
0
 40
1
 40
1
 40
1
 40
1
 10
302.213068
 20
560.420456
 30
0.0
 10
303.768639
 20
565.271165
 30
0.0
 10
309.229535
 20
567.280053
 30
0.0
 10
314.064029
 20
564.780062
 30
0.0
  0
SPLINE
  5
2b9
100
AcDbEntity
  8
Layer_1
 62
7
100
AcDbSpline
 70
8
 71
3
 72
8
 73
4
 74
0
 40
0
 40
0
 40
0
 40
0
 40
1
 40
1
 40
1
 40
1
 10
314.064029
 20
564.780062
 30
0.0
 10
317.579221
 20
562.962258
 30
0.0
 10
318.198252
 20
560.272204
 30
0.0
 10
317.224692
 20
551.045363
 30
0.0
  0
SPLINE
  5
2ba
100
AcDbEntity
  8
Layer_1
 62
7
100
AcDbSpline
 70
8
 71
3
 72
8
 73
4
 74
0
 40
0
 40
0
 40
0
 40
0
 40
1
 40
1
 40
1
 40
1
 10
317.224692
 20
551.045363
 30
0.0
 10
314.821646
 20
528.271081
 30
0.0
 10
313.617005
 20
458.628589
 30
0.0
 10
315.175013
 20
432.550352
 30
0.0
  0
LWPOLYLINE
  5
2bb
100
AcDbEntity
  8
Layer_1
 62
7
100
AcDbPolyline
 90
2
 70
0
 10
148.895720
 20
412.961025
 30
0.0
 10
148.895578
 20
412.961025
 30
0.0
  0
SPLINE
  5
2bc
100
AcDbEntity
  8
Layer_1
 62
7
100
AcDbSpline
 70
8
 71
3
 72
8
 73
4
 74
0
 40
0
 40
0
 40
0
 40
0
 40
1
 40
1
 40
1
 40
1
 10
313.150762
 20
419.987838
 30
0.0
 10
311.040082
 20
417.877158
 30
0.0
 10
309.955800
 20
417.369472
 30
0.0
 10
307.558537
 20
417.369472
 30
0.0
  0
SPLINE
  5
2bd
100
AcDbEntity
  8
Layer_1
 62
7
100
AcDbSpline
 70
8
 71
3
 72
8
 73
4
 74
0
 40
0
 40
0
 40
0
 40
0
 40
1
 40
1
 40
1
 40
1
 10
307.558537
 20
417.369472
 30
0.0
 10
305.698298
 20
417.369472
 30
0.0
 10
303.854359
 20
417.943942
 30
0.0
 10
302.634382
 20
418.903612
 30
0.0
  0
LWPOLYLINE
  5
2be
100
AcDbEntity
  8
Layer_1
 62
7
100
AcDbPolyline
 90
3
 70
0
 10
315.175013
 20
432.550352
 30
0.0
 10
315.769099
 20
422.606175
 30
0.0
 10
313.150762
 20
419.987838
 30
0.0
  0
SPLINE
  5
2bf
100
AcDbEntity
  8
Layer_1
 62
7
100
AcDbSpline
 70
8
 71
3
 72
8
 73
4
 74
0
 40
0
 40
0
 40
0
 40
0
 40
1
 40
1
 40
1
 40
1
 10
333.167923
 20
419.551670
 30
0.0
 10
331.881190
 20
420.336301
 30
0.0
 10
330.417406
 20
422.106908
 30
0.0
 10
329.915106
 20
423.486362
 30
0.0
  0
SPLINE
  5
2c0
100
AcDbEntity
  8
Layer_1
 62
7
100
AcDbSpline
 70
8
 71
3
 72
8
 73
4
 74
0
 40
0
 40
0
 40
0
 40
0
 40
1
 40
1
 40
1
 40
1
 10
329.915106
 20
423.486362
 30
0.0
 10
328.447211
 20
427.517404
 30
0.0
 10
328.102092
 20
455.917956
 30
0.0
 10
329.073442
 20
492.744588
 30
0.0
  0
SPLINE
  5
2c1
100
AcDbEntity
  8
Layer_1
 62
7
100
AcDbSpline
 70
8
 71
3
 72
8
 73
4
 74
0
 40
0
 40
0
 40
0
 40
0
 40
1
 40
1
 40
1
 40
1
 10
329.073442
 20
492.744588
 30
0.0
 10
330.358332
 20
541.458522
 30
0.0
 10
331.017898
 20
553.989232
 30
0.0
 10
332.442083
 20
556.743292
 30
0.0
  0
SPLINE
  5
2c2
100
AcDbEntity
  8
Layer_1
 62
7
100
AcDbSpline
 70
8
 71
3
 72
8
 73
4
 74
0
 40
0
 40
0
 40
0
 40
0
 40
1
 40
1
 40
1
 40
1
 10
332.442083
 20
556.743292
 30
0.0
 10
336.162758
 20
563.938285
 30
0.0
 10
345.293590
 20
562.311508
 30
0.0
 10
346.818716
 20
554.181903
 30
0.0
  0
SPLINE
  5
2c3
100
AcDbEntity
  8
Layer_1
 62
7
100
AcDbSpline
 70
8
 71
3
 72
8
 73
4
 74
0
 40
0
 40
0
 40
0
 40
0
 40
1
 40
1
 40
1
 40
1
 10
346.818716
 20
554.181903
 30
0.0
 10
347.119331
 20
552.579476
 30
0.0
 10
346.934086
 20
540.800572
 30
0.0
 10
346.407210
 20
528.006523
 30
0.0
  0
SPLINE
  5
2c4
100
AcDbEntity
  8
Layer_1
 62
7
100
AcDbSpline
 70
8
 71
3
 72
8
 73
4
 74
0
 40
0
 40
0
 40
0
 40
0
 40
1
 40
1
 40
1
 40
1
 10
346.407210
 20
528.006523
 30
0.0
 10
345.880249
 20
515.212474
 30
0.0
 10
345.321823
 20
486.413399
 30
0.0
 10
345.166257
 20
464.008612
 30
0.0
  0
SPLINE
  5
2c5
100
AcDbEntity
  8
Layer_1
 62
7
100
AcDbSpline
 70
8
 71
3
 72
8
 73
4
 74
0
 40
0
 40
0
 40
0
 40
0
 40
1
 40
1
 40
1
 40
1
 10
345.166257
 20
464.008612
 30
0.0
 10
344.985974
 20
438.038319
 30
0.0
 10
344.603296
 20
422.749296
 30
0.0
 10
344.110691
 20
421.828829
 30
0.0
  0
SPLINE
  5
2c6
100
AcDbEntity
  8
Layer_1
 62
7
100
AcDbSpline
 70
8
 71
3
 72
8
 73
4
 74
0
 40
0
 40
0
 40
0
 40
0
 40
1
 40
1
 40
1
 40
1
 10
344.110691
 20
421.828829
 30
0.0
 10
343.163492
 20
420.058959
 30
0.0
 10
339.562410
 20
418.118500
 30
0.0
 10
337.232187
 20
418.122298
 30
0.0
  0
SPLINE
  5
2c7
100
AcDbEntity
  8
Layer_1
 62
7
100
AcDbSpline
 70
8
 71
3
 72
8
 73
4
 74
0
 40
0
 40
0
 40
0
 40
0
 40
1
 40
1
 40
1
 40
1
 10
337.232187
 20
418.122298
 30
0.0
 10
336.283571
 20
418.123772
 30
0.0
 10
334.454655
 20
418.767067
 30
0.0
 10
333.167923
 20
419.551670
 30
0.0
  0
LWPOLYLINE
  5
2c8
100
AcDbEntity
  8
Layer_1
 62
7
100
AcDbPolyline
 90
1
 70
1
 10
302.634382
 20
418.903612
 30
0.0
  0
SPLINE
  5
2c9
100
AcDbEntity
  8
Layer_1
 62
7
100
AcDbSpline
 70
8
 71
3
 72
8
 73
4
 74
0
 40
0
 40
0
 40
0
 40
0
 40
1
 40
1
 40
1
 40
1
 10
640.859008
 20
422.673923
 30
0.0
 10
639.772118
 20
423.528853
 30
0.0
 10
638.882861
 20
424.878855
 30
0.0
 10
638.882861
 20
425.673918
 30
0.0
  0
SPLINE
  5
2ca
100
AcDbEntity
  8
Layer_1
 62
7
100
AcDbSpline
 70
8
 71
3
 72
8
 73
4
 74
0
 40
0
 40
0
 40
0
 40
0
 40
1
 40
1
 40
1
 40
1
 10
638.882861
 20
425.673918
 30
0.0
 10
638.882861
 20
426.672196
 30
0.0
 10
638.360690
 20
427.120354
 30
0.0
 10
637.195337
 20
427.122310
 30
0.0
  0
SPLINE
  5
2cb
100
AcDbEntity
  8
Layer_1
 62
7
100
AcDbSpline
 70
8
 71
3
 72
8
 73
4
 74
0
 40
0
 40
0
 40
0
 40
0
 40
1
 40
1
 40
1
 40
1
 10
637.195337
 20
427.122310
 30
0.0
 10
636.267216
 20
427.123784
 30
0.0
 10
634.428124
 20
427.783436
 30
0.0
 10
633.108453
 20
428.588079
 30
0.0
  0
SPLINE
  5
2cc
100
AcDbEntity
  8
Layer_1
 62
7
100
AcDbSpline
 70
8
 71
3
 72
8
 73
4
 74
0
 40
0
 40
0
 40
0
 40
0
 40
1
 40
1
 40
1
 40
1
 10
633.108453
 20
428.588079
 30
0.0
 10
628.943190
 20
431.127812
 30
0.0
 10
628.883748
 20
431.940392
 30
0.0
 10
629.403339
 20
479.244570
 30
0.0
  0
SPLINE
  5
2cd
100
AcDbEntity
  8
Layer_1
 62
7
100
AcDbSpline
 70
8
 71
3
 72
8
 73
4
 74
0
 40
0
 40
0
 40
0
 40
0
 40
1
 40
1
 40
1
 40
1
 10
629.403339
 20
479.244570
 30
0.0
 10
629.899289
 20
524.398496
 30
0.0
 10
630.888100
 20
543.061290
 30
0.0
 10
633.771931
 20
561.696956
 30
0.0
  0
SPLINE
  5
2ce
100
AcDbEntity
  8
Layer_1
 62
7
100
AcDbSpline
 70
8
 71
3
 72
8
 73
4
 74
0
 40
0
 40
0
 40
0
 40
0
 40
1
 40
1
 40
1
 40
1
 10
633.771931
 20
561.696956
 30
0.0
 10
634.669636
 20
567.498208
 30
0.0
 10
635.453048
 20
574.154787
 30
0.0
 10
635.512774
 20
576.489348
 30
0.0
  0
SPLINE
  5
2cf
100
AcDbEntity
  8
Layer_1
 62
7
100
AcDbSpline
 70
8
 71
3
 72
8
 73
4
 74
0
 40
0
 40
0
 40
0
 40
0
 40
1
 40
1
 40
1
 40
1
 10
635.512774
 20
576.489348
 30
0.0
 10
635.762790
 20
586.255736
 30
0.0
 10
641.297925
 20
588.863670
 30
0.0
 10
674.882909
 20
595.038670
 30
0.0
  0
SPLINE
  5
2d0
100
AcDbEntity
  8
Layer_1
 62
7
100
AcDbSpline
 70
8
 71
3
 72
8
 73
4
 74
0
 40
0
 40
0
 40
0
 40
0
 40
1
 40
1
 40
1
 40
1
 10
674.882909
 20
595.038670
 30
0.0
 10
715.344356
 20
602.478038
 30
0.0
 10
735.073375
 20
604.136846
 30
0.0
 10
741.788915
 20
600.664117
 30
0.0
  0
SPLINE
  5
2d1
100
AcDbEntity
  8
Layer_1
 62
7
100
AcDbSpline
 70
8
 71
3
 72
8
 73
4
 74
0
 40
0
 40
0
 40
0
 40
0
 40
1
 40
1
 40
1
 40
1
 10
741.788915
 20
600.664117
 30
0.0
 10
744.953461
 20
599.027646
 30
0.0
 10
746.534855
 20
594.918566
 30
0.0
 10
745.425289
 20
591.215238
 30
0.0
  0
SPLINE
  5
2d2
100
AcDbEntity
  8
Layer_1
 62
7
100
AcDbSpline
 70
8
 71
3
 72
8
 73
4
 74
0
 40
0
 40
0
 40
0
 40
0
 40
1
 40
1
 40
1
 40
1
 10
745.425289
 20
591.215238
 30
0.0
 10
744.007879
 20
586.484095
 30
0.0
 10
742.504494
 20
585.982560
 30
0.0
 10
729.077270
 20
585.761429
 30
0.0
  0
SPLINE
  5
2d3
100
AcDbEntity
  8
Layer_1
 62
7
100
AcDbSpline
 70
8
 71
3
 72
8
 73
4
 74
0
 40
0
 40
0
 40
0
 40
0
 40
1
 40
1
 40
1
 40
1
 10
729.077270
 20
585.761429
 30
0.0
 10
720.825123
 20
585.625650
 30
0.0
 10
713.296719
 20
584.955482
 30
0.0
 10
704.132949
 20
583.541360
 30
0.0
  0
SPLINE
  5
2d4
100
AcDbEntity
  8
Layer_1
 62
7
100
AcDbSpline
 70
8
 71
3
 72
8
 73
4
 74
0
 40
0
 40
0
 40
0
 40
0
 40
1
 40
1
 40
1
 40
1
 10
704.132949
 20
583.541360
 30
0.0
 10
684.741877
 20
580.548934
 30
0.0
 10
685.720341
 20
580.851164
 30
0.0
 10
685.958735
 20
577.928046
 30
0.0
  0
SPLINE
  5
2d5
100
AcDbEntity
  8
Layer_1
 62
7
100
AcDbSpline
 70
8
 71
3
 72
8
 73
4
 74
0
 40
0
 40
0
 40
0
 40
0
 40
1
 40
1
 40
1
 40
1
 10
685.958735
 20
577.928046
 30
0.0
 10
686.069287
 20
576.573650
 30
0.0
 10
684.982482
 20
564.615823
 30
0.0
 10
683.543897
 20
551.355077
 30
0.0
  0
SPLINE
  5
2d6
100
AcDbEntity
  8
Layer_1
 62
7
100
AcDbSpline
 70
8
 71
3
 72
8
 73
4
 74
0
 40
0
 40
0
 40
0
 40
0
 40
1
 40
1
 40
1
 40
1
 10
683.543897
 20
551.355077
 30
0.0
 10
680.136961
 20
519.950761
 30
0.0
 10
680.218003
 20
520.905556
 30
0.0
 10
680.922697
 20
520.470040
 30
0.0
  0
SPLINE
  5
2d7
100
AcDbEntity
  8
Layer_1
 62
7
100
AcDbSpline
 70
8
 71
3
 72
8
 73
4
 74
0
 40
0
 40
0
 40
0
 40
0
 40
1
 40
1
 40
1
 40
1
 10
680.922697
 20
520.470040
 30
0.0
 10
681.257186
 20
520.263394
 30
0.0
 10
684.338223
 20
520.575772
 30
0.0
 10
687.769396
 20
521.164274
 30
0.0
  0
SPLINE
  5
2d8
100
AcDbEntity
  8
Layer_1
 62
7
100
AcDbSpline
 70
8
 71
3
 72
8
 73
4
 74
0
 40
0
 40
0
 40
0
 40
0
 40
1
 40
1
 40
1
 40
1
 10
687.769396
 20
521.164274
 30
0.0
 10
702.143762
 20
523.629966
 30
0.0
 10
718.351863
 20
523.330910
 30
0.0
 10
731.485871
 20
520.357646
 30
0.0
  0
SPLINE
  5
2d9
100
AcDbEntity
  8
Layer_1
 62
7
100
AcDbSpline
 70
8
 71
3
 72
8
 73
4
 74
0
 40
0
 40
0
 40
0
 40
0
 40
1
 40
1
 40
1
 40
1
 10
731.485871
 20
520.357646
 30
0.0
 10
738.188995
 20
518.840202
 30
0.0
 10
740.882989
 20
516.293071
 30
0.0
 10
740.882989
 20
511.472976
 30
0.0
  0
SPLINE
  5
2da
100
AcDbEntity
  8
Layer_1
 62
7
100
AcDbSpline
 70
8
 71
3
 72
8
 73
4
 74
0
 40
0
 40
0
 40
0
 40
0
 40
1
 40
1
 40
1
 40
1
 10
740.882989
 20
511.472976
 30
0.0
 10
740.882989
 20
508.857218
 30
0.0
 10
740.439509
 20
507.791531
 30
0.0
 10
738.575301
 20
505.927296
 30
0.0
  0
SPLINE
  5
2db
100
AcDbEntity
  8
Layer_1
 62
7
100
AcDbSpline
 70
8
 71
3
 72
8
 73
4
 74
0
 40
0
 40
0
 40
0
 40
0
 40
1
 40
1
 40
1
 40
1
 10
738.575301
 20
505.927296
 30
0.0
 10
735.902567
 20
503.254590
 30
0.0
 10
733.422475
 20
503.022035
 30
0.0
 10
726.257955
 20
504.772460
 30
0.0
  0
SPLINE
  5
2dc
100
AcDbEntity
  8
Layer_1
 62
7
100
AcDbSpline
 70
8
 71
3
 72
8
 73
4
 74
0
 40
0
 40
0
 40
0
 40
0
 40
1
 40
1
 40
1
 40
1
 10
726.257955
 20
504.772460
 30
0.0
 10
719.458368
 20
506.433678
 30
0.0
 10
704.854537
 20
506.988022
 30
0.0
 10
696.201486
 20
505.913321
 30
0.0
  0
SPLINE
  5
2dd
100
AcDbEntity
  8
Layer_1
 62
7
100
AcDbSpline
 70
8
 71
3
 72
8
 73
4
 74
0
 40
0
 40
0
 40
0
 40
0
 40
1
 40
1
 40
1
 40
1
 10
696.201486
 20
505.913321
 30
0.0
 10
687.864130
 20
504.877852
 30
0.0
 10
680.210945
 20
503.260089
 30
0.0
 10
679.335917
 20
502.348211
 30
0.0
  0
SPLINE
  5
2de
100
AcDbEntity
  8
Layer_1
 62
7
100
AcDbSpline
 70
8
 71
3
 72
8
 73
4
 74
0
 40
0
 40
0
 40
0
 40
0
 40
1
 40
1
 40
1
 40
1
 10
679.335917
 20
502.348211
 30
0.0
 10
678.272073
 20
501.239551
 30
0.0
 10
677.023013
 20
476.425426
 30
0.0
 10
677.266906
 20
461.244545
 30
0.0
  0
SPLINE
  5
2df
100
AcDbEntity
  8
Layer_1
 62
7
100
AcDbSpline
 70
8
 71
3
 72
8
 73
4
 74
0
 40
0
 40
0
 40
0
 40
0
 40
1
 40
1
 40
1
 40
1
 10
677.266906
 20
461.244545
 30
0.0
 10
677.472418
 20
448.449533
 30
0.0
 10
677.673282
 20
446.262969
 30
0.0
 10
678.632896
 20
446.370147
 30
0.0
  0
SPLINE
  5
2e0
100
AcDbEntity
  8
Layer_1
 62
7
100
AcDbSpline
 70
8
 71
3
 72
8
 73
4
 74
0
 40
0
 40
0
 40
0
 40
0
 40
1
 40
1
 40
1
 40
1
 10
678.632896
 20
446.370147
 30
0.0
 10
679.251643
 20
446.439313
 30
0.0
 10
684.820425
 20
447.392039
 30
0.0
 10
691.007927
 20
448.487517
 30
0.0
  0
SPLINE
  5
2e1
100
AcDbEntity
  8
Layer_1
 62
7
100
AcDbSpline
 70
8
 71
3
 72
8
 73
4
 74
0
 40
0
 40
0
 40
0
 40
0
 40
1
 40
1
 40
1
 40
1
 10
691.007927
 20
448.487517
 30
0.0
 10
698.771408
 20
449.862039
 30
0.0
 10
703.768782
 20
450.366635
 30
0.0
 10
707.132944
 20
450.115768
 30
0.0
  0
SPLINE
  5
2e2
100
AcDbEntity
  8
Layer_1
 62
7
100
AcDbSpline
 70
8
 71
3
 72
8
 73
4
 74
0
 40
0
 40
0
 40
0
 40
0
 40
1
 40
1
 40
1
 40
1
 10
707.132944
 20
450.115768
 30
0.0
 10
720.465859
 20
449.121515
 30
0.0
 10
727.671879
 20
443.139044
 30
0.0
 10
723.937540
 20
436.164502
 30
0.0
  0
SPLINE
  5
2e3
100
AcDbEntity
  8
Layer_1
 62
7
100
AcDbSpline
 70
8
 71
3
 72
8
 73
4
 74
0
 40
0
 40
0
 40
0
 40
0
 40
1
 40
1
 40
1
 40
1
 10
723.937540
 20
436.164502
 30
0.0
 10
721.847014
 20
432.260056
 30
0.0
 10
717.402624
 20
430.945345
 30
0.0
 10
712.024812
 20
432.640551
 30
0.0
  0
SPLINE
  5
2e4
100
AcDbEntity
  8
Layer_1
 62
7
100
AcDbSpline
 70
8
 71
3
 72
8
 73
4
 74
0
 40
0
 40
0
 40
0
 40
0
 40
1
 40
1
 40
1
 40
1
 10
712.024812
 20
432.640551
 30
0.0
 10
709.880513
 20
433.316473
 30
0.0
 10
706.754915
 20
433.869513
 30
0.0
 10
705.079042
 20
433.869513
 30
0.0
  0
SPLINE
  5
2e5
100
AcDbEntity
  8
Layer_1
 62
7
100
AcDbSpline
 70
8
 71
3
 72
8
 73
4
 74
0
 40
0
 40
0
 40
0
 40
0
 40
1
 40
1
 40
1
 40
1
 10
705.079042
 20
433.869513
 30
0.0
 10
697.684830
 20
433.869513
 30
0.0
 10
675.807629
 20
429.072549
 30
0.0
 10
655.485403
 20
422.995259
 30
0.0
  0
SPLINE
  5
2e6
100
AcDbEntity
  8
Layer_1
 62
7
100
AcDbSpline
 70
8
 71
3
 72
8
 73
4
 74
0
 40
0
 40
0
 40
0
 40
0
 40
1
 40
1
 40
1
 40
1
 10
655.485403
 20
422.995259
 30
0.0
 10
647.711547
 20
420.670506
 30
0.0
 10
643.522898
 20
420.578493
 30
0.0
 10
640.859008
 20
422.673923
 30
0.0
  0
LWPOLYLINE
  5
2e7
100
AcDbEntity
  8
Layer_1
 62
7
100
AcDbPolyline
 90
1
 70
1
 10
333.167923
 20
419.551670
 30
0.0
  0
LWPOLYLINE
  5
2e8
100
AcDbEntity
  8
Layer_1
 62
7
100
AcDbPolyline
 90
1
 70
1
 10
640.859008
 20
422.673923
 30
0.0
  0
SPLINE
  5
2e9
100
AcDbEntity
  8
Layer_1
 62
7
100
AcDbSpline
 70
8
 71
3
 72
8
 73
4
 74
0
 40
0
 40
0
 40
0
 40
0
 40
1
 40
1
 40
1
 40
1
 10
660.984850
 20
465.386479
 30
0.0
 10
661.173070
 20
491.921945
 30
0.0
 10
663.623455
 20
523.370000
 30
0.0
 10
669.384115
 20
573.182190
 30
0.0
  0
SPLINE
  5
2ea
100
AcDbEntity
  8
Layer_1
 62
7
100
AcDbSpline
 70
8
 71
3
 72
8
 73
4
 74
0
 40
0
 40
0
 40
0
 40
0
 40
1
 40
1
 40
1
 40
1
 10
669.384115
 20
573.182190
 30
0.0
 10
669.822153
 20
576.969934
 30
0.0
 10
669.771356
 20
577.117648
 30
0.0
 10
668.048711
 20
577.065575
 30
0.0
  0
SPLINE
  5
2eb
100
AcDbEntity
  8
Layer_1
 62
7
100
AcDbSpline
 70
8
 71
3
 72
8
 73
4
 74
0
 40
0
 40
0
 40
0
 40
0
 40
1
 40
1
 40
1
 40
1
 10
668.048711
 20
577.065575
 30
0.0
 10
667.063784
 20
577.035811
 30
0.0
 10
663.220453
 20
576.271987
 30
0.0
 10
659.507940
 20
575.368215
 30
0.0
  0
LWPOLYLINE
  5
2ec
100
AcDbEntity
  8
Layer_1
 62
7
100
AcDbPolyline
 90
3
 70
0
 10
653.787589
 20
439.333895
 30
0.0
 10
660.817322
 20
441.778384
 30
0.0
 10
660.984850
 20
465.386479
 30
0.0
  0
SPLINE
  5
2ed
100
AcDbEntity
  8
Layer_1
 62
7
100
AcDbSpline
 70
8
 71
3
 72
8
 73
4
 74
0
 40
0
 40
0
 40
0
 40
0
 40
1
 40
1
 40
1
 40
1
 10
651.544276
 20
568.859803
 30
0.0
 10
650.130721
 20
563.193254
 30
0.0
 10
648.219828
 20
548.038566
 30
0.0
 10
647.100765
 20
533.619639
 30
0.0
  0
SPLINE
  5
2ee
100
AcDbEntity
  8
Layer_1
 62
7
100
AcDbSpline
 70
8
 71
3
 72
8
 73
4
 74
0
 40
0
 40
0
 40
0
 40
0
 40
1
 40
1
 40
1
 40
1
 10
647.100765
 20
533.619639
 30
0.0
 10
646.074820
 20
520.400875
 30
0.0
 10
645.199480
 20
436.866276
 30
0.0
 10
646.087037
 20
436.879457
 30
0.0
  0
SPLINE
  5
2ef
100
AcDbEntity
  8
Layer_1
 62
7
100
AcDbSpline
 70
8
 71
3
 72
8
 73
4
 74
0
 40
0
 40
0
 40
0
 40
0
 40
1
 40
1
 40
1
 40
1
 10
646.087037
 20
436.879457
 30
0.0
 10
646.456024
 20
436.885127
 30
0.0
 10
649.921298
 20
437.989421
 30
0.0
 10
653.787646
 20
439.333895
 30
0.0
  0
LWPOLYLINE
  5
2f0
100
AcDbEntity
  8
Layer_1
 62
7
100
AcDbPolyline
 90
3
 70
0
 10
659.507940
 20
575.368215
 30
0.0
 10
652.757931
 20
573.724941
 30
0.0
 10
651.544276
 20
568.859803
 30
0.0
  0
SPLINE
  5
2f1
100
AcDbEntity
  8
Layer_1
 62
7
100
AcDbSpline
 70
8
 71
3
 72
8
 73
4
 74
0
 40
0
 40
0
 40
0
 40
0
 40
1
 40
1
 40
1
 40
1
 10
89.345205
 20
541.645581
 30
0.0
 10
86.808619
 20
542.136570
 30
0.0
 10
83.882098
 20
546.073388
 30
0.0
 10
83.882098
 20
548.994665
 30
0.0
  0
SPLINE
  5
2f2
100
AcDbEntity
  8
Layer_1
 62
7
100
AcDbSpline
 70
8
 71
3
 72
8
 73
4
 74
0
 40
0
 40
0
 40
0
 40
0
 40
1
 40
1
 40
1
 40
1
 10
83.882098
 20
548.994665
 30
0.0
 10
83.882098
 20
551.920391
 30
0.0
 10
86.556476
 20
555.503814
 30
0.0
 10
89.679410
 20
556.762540
 30
0.0
  0
SPLINE
  5
2f3
100
AcDbEntity
  8
Layer_1
 62
7
100
AcDbSpline
 70
8
 71
3
 72
8
 73
4
 74
0
 40
0
 40
0
 40
0
 40
0
 40
1
 40
1
 40
1
 40
1
 10
89.679410
 20
556.762540
 30
0.0
 10
90.822142
 20
557.223114
 30
0.0
 10
100.194627
 20
558.950634
 30
0.0
 10
110.507139
 20
560.601449
 30
0.0
  0
SPLINE
  5
2f4
100
AcDbEntity
  8
Layer_1
 62
7
100
AcDbSpline
 70
8
 71
3
 72
8
 73
4
 74
0
 40
0
 40
0
 40
0
 40
0
 40
1
 40
1
 40
1
 40
1
 10
110.507139
 20
560.601449
 30
0.0
 10
120.819651
 20
562.252264
 30
0.0
 10
138.032181
 20
565.095701
 30
0.0
 10
148.757191
 20
566.920223
 30
0.0
  0
SPLINE
  5
2f5
100
AcDbEntity
  8
Layer_1
 62
7
100
AcDbSpline
 70
8
 71
3
 72
8
 73
4
 74
0
 40
0
 40
0
 40
0
 40
0
 40
1
 40
1
 40
1
 40
1
 10
148.757191
 20
566.920223
 30
0.0
 10
186.515119
 20
573.343510
 30
0.0
 10
217.338701
 20
576.548847
 30
0.0
 10
242.507327
 20
576.669319
 30
0.0
  0
SPLINE
  5
2f6
100
AcDbEntity
  8
Layer_1
 62
7
100
AcDbSpline
 70
8
 71
3
 72
8
 73
4
 74
0
 40
0
 40
0
 40
0
 40
0
 40
1
 40
1
 40
1
 40
1
 10
242.507327
 20
576.669319
 30
0.0
 10
256.352436
 20
576.735650
 30
0.0
 10
258.590477
 20
576.578894
 30
0.0
 10
261.011891
 20
575.374253
 30
0.0
  0
SPLINE
  5
2f7
100
AcDbEntity
  8
Layer_1
 62
7
100
AcDbSpline
 70
8
 71
3
 72
8
 73
4
 74
0
 40
0
 40
0
 40
0
 40
0
 40
1
 40
1
 40
1
 40
1
 10
261.011891
 20
575.374253
 30
0.0
 10
264.861572
 20
573.458937
 30
0.0
 10
266.607971
 20
569.664702
 30
0.0
 10
265.437714
 20
565.758753
 30
0.0
  0
SPLINE
  5
2f8
100
AcDbEntity
  8
Layer_1
 62
7
100
AcDbSpline
 70
8
 71
3
 72
8
 73
4
 74
0
 40
0
 40
0
 40
0
 40
0
 40
1
 40
1
 40
1
 40
1
 10
265.437714
 20
565.758753
 30
0.0
 10
263.912248
 20
560.667184
 30
0.0
 10
263.297979
 20
560.523723
 30
0.0
 10
241.982917
 20
560.280992
 30
0.0
  0
SPLINE
  5
2f9
100
AcDbEntity
  8
Layer_1
 62
7
100
AcDbSpline
 70
8
 71
3
 72
8
 73
4
 74
0
 40
0
 40
0
 40
0
 40
0
 40
1
 40
1
 40
1
 40
1
 10
241.982917
 20
560.280992
 30
0.0
 10
211.204916
 20
559.930459
 30
0.0
 10
185.642614
 20
556.968562
 30
0.0
 10
131.507158
 20
547.480111
 30
0.0
  0
SPLINE
  5
2fa
100
AcDbEntity
  8
Layer_1
 62
7
100
AcDbSpline
 70
8
 71
3
 72
8
 73
4
 74
0
 40
0
 40
0
 40
0
 40
0
 40
1
 40
1
 40
1
 40
1
 10
131.507158
 20
547.480111
 30
0.0
 10
118.452718
 20
545.192011
 30
0.0
 10
92.204629
 20
541.084235
 30
0.0
 10
91.517425
 20
541.221772
 30
0.0
  0
SPLINE
  5
2fb
100
AcDbEntity
  8
Layer_1
 62
7
100
AcDbSpline
 70
8
 71
3
 72
8
 73
4
 74
0
 40
0
 40
0
 40
0
 40
0
 40
1
 40
1
 40
1
 40
1
 10
91.517425
 20
541.221772
 30
0.0
 10
91.236795
 20
541.277898
 30
0.0
 10
90.259266
 20
541.468670
 30
0.0
 10
89.345205
 20
541.645581
 30
0.0
  0
LWPOLYLINE
  5
2fc
100
AcDbEntity
  8
Layer_1
 62
7
100
AcDbPolyline
 90
1
 70
1
 10
653.787646
 20
439.333895
 30
0.0
  0
SPLINE
  5
2fd
100
AcDbEntity
  8
Layer_1
 62
7
100
AcDbSpline
 70
8
 71
3
 72
8
 73
4
 74
0
 40
0
 40
0
 40
0
 40
0
 40
1
 40
1
 40
1
 40
1
 10
412.214676
 20
627.009704
 30
0.0
 10
408.067130
 20
628.348934
 30
0.0
 10
403.823291
 20
632.386694
 30
0.0
 10
402.569157
 20
636.186825
 30
0.0
  0
SPLINE
  5
2fe
100
AcDbEntity
  8
Layer_1
 62
7
100
AcDbSpline
 70
8
 71
3
 72
8
 73
4
 74
0
 40
0
 40
0
 40
0
 40
0
 40
1
 40
1
 40
1
 40
1
 10
402.569157
 20
636.186825
 30
0.0
 10
399.724076
 20
644.807448
 30
0.0
 10
405.318767
 20
658.527492
 30
0.0
 10
416.126549
 20
669.434174
 30
0.0
  0
SPLINE
  5
2ff
100
AcDbEntity
  8
Layer_1
 62
7
100
AcDbSpline
 70
8
 71
3
 72
8
 73
4
 74
0
 40
0
 40
0
 40
0
 40
0
 40
1
 40
1
 40
1
 40
1
 10
416.126549
 20
669.434174
 30
0.0
 10
421.320250
 20
674.675441
 30
0.0
 10
423.752833
 20
676.489589
 30
0.0
 10
429.200151
 20
679.184207
 30
0.0
  0
SPLINE
  5
300
100
AcDbEntity
  8
Layer_1
 62
7
100
AcDbSpline
 70
8
 71
3
 72
8
 73
4
 74
0
 40
0
 40
0
 40
0
 40
0
 40
1
 40
1
 40
1
 40
1
 10
429.200151
 20
679.184207
 30
0.0
 10
435.838191
 20
682.467836
 30
0.0
 10
435.957417
 20
682.494822
 30
0.0
 10
443.825185
 20
682.494822
 30
0.0
  0
SPLINE
  5
301
100
AcDbEntity
  8
Layer_1
 62
7
100
AcDbSpline
 70
8
 71
3
 72
8
 73
4
 74
0
 40
0
 40
0
 40
0
 40
0
 40
1
 40
1
 40
1
 40
1
 10
443.825185
 20
682.494822
 30
0.0
 10
453.212240
 20
682.494822
 30
0.0
 10
457.827645
 20
680.886584
 30
0.0
 10
460.359809
 20
676.733340
 30
0.0
  0
SPLINE
  5
302
100
AcDbEntity
  8
Layer_1
 62
7
100
AcDbSpline
 70
8
 71
3
 72
8
 73
4
 74
0
 40
0
 40
0
 40
0
 40
0
 40
1
 40
1
 40
1
 40
1
 10
460.359809
 20
676.733340
 30
0.0
 10
462.533758
 20
673.167606
 30
0.0
 10
462.273622
 20
671.110813
 30
0.0
 10
459.268667
 20
668.105886
 30
0.0
  0
LWPOLYLINE
  5
303
100
AcDbEntity
  8
Layer_1
 62
7
100
AcDbPolyline
 90
1
 70
1
 10
89.345205
 20
541.645581
 30
0.0
  0
SPLINE
  5
304
100
AcDbEntity
  8
Layer_1
 62
7
100
AcDbSpline
 70
8
 71
3
 72
8
 73
4
 74
0
 40
0
 40
0
 40
0
 40
0
 40
1
 40
1
 40
1
 40
1
 10
448.408955
 20
666.026359
 30
0.0
 10
440.491297
 20
666.539544
 30
0.0
 10
440.003369
 20
666.482624
 30
0.0
 10
436.147196
 20
664.595966
 30
0.0
  0
SPLINE
  5
305
100
AcDbEntity
  8
Layer_1
 62
7
100
AcDbSpline
 70
8
 71
3
 72
8
 73
4
 74
0
 40
0
 40
0
 40
0
 40
0
 40
1
 40
1
 40
1
 40
1
 10
436.147196
 20
664.595966
 30
0.0
 10
427.476004
 20
660.353545
 30
0.0
 10
415.196274
 20
643.752958
 30
0.0
 10
419.505961
 20
642.099167
 30
0.0
  0
SPLINE
  5
306
100
AcDbEntity
  8
Layer_1
 62
7
100
AcDbSpline
 70
8
 71
3
 72
8
 73
4
 74
0
 40
0
 40
0
 40
0
 40
0
 40
1
 40
1
 40
1
 40
1
 10
419.505961
 20
642.099167
 30
0.0
 10
421.756560
 20
641.235535
 30
0.0
 10
435.099595
 20
643.199125
 30
0.0
 10
446.132590
 20
646.017617
 30
0.0
  0
LWPOLYLINE
  5
307
100
AcDbEntity
  8
Layer_1
 62
7
100
AcDbPolyline
 90
3
 70
0
 10
459.268667
 20
668.105886
 30
0.0
 10
456.654752
 20
665.491942
 30
0.0
 10
448.408955
 20
666.026359
 30
0.0
  0
SPLINE
  5
308
100
AcDbEntity
  8
Layer_1
 62
7
100
AcDbSpline
 70
8
 71
3
 72
8
 73
4
 74
0
 40
0
 40
0
 40
0
 40
0
 40
1
 40
1
 40
1
 40
1
 10
458.605728
 20
654.395253
 30
0.0
 10
462.095238
 20
666.621749
 30
0.0
 10
468.432721
 20
697.465485
 30
0.0
 10
469.734448
 20
708.557355
 30
0.0
  0
SPLINE
  5
309
100
AcDbEntity
  8
Layer_1
 62
7
100
AcDbSpline
 70
8
 71
3
 72
8
 73
4
 74
0
 40
0
 40
0
 40
0
 40
0
 40
1
 40
1
 40
1
 40
1
 10
469.734448
 20
708.557355
 30
0.0
 10
470.075995
 20
711.467661
 30
0.0
 10
469.975960
 20
712.869877
 30
0.0
 10
469.427116
 20
712.869877
 30
0.0
  0
SPLINE
  5
30a
100
AcDbEntity
  8
Layer_1
 62
7
100
AcDbSpline
 70
8
 71
3
 72
8
 73
4
 74
0
 40
0
 40
0
 40
0
 40
0
 40
1
 40
1
 40
1
 40
1
 10
469.427116
 20
712.869877
 30
0.0
 10
468.979751
 20
712.869877
 30
0.0
 10
464.314825
 20
711.061796
 30
0.0
 10
459.060632
 20
708.851932
 30
0.0
  0
SPLINE
  5
30b
100
AcDbEntity
  8
Layer_1
 62
7
100
AcDbSpline
 70
8
 71
3
 72
8
 73
4
 74
0
 40
0
 40
0
 40
0
 40
0
 40
1
 40
1
 40
1
 40
1
 10
459.060632
 20
708.851932
 30
0.0
 10
439.841368
 20
700.768504
 30
0.0
 10
421.531999
 20
694.119833
 30
0.0
 10
418.490732
 20
694.119833
 30
0.0
  0
SPLINE
  5
30c
100
AcDbEntity
  8
Layer_1
 62
7
100
AcDbSpline
 70
8
 71
3
 72
8
 73
4
 74
0
 40
0
 40
0
 40
0
 40
0
 40
1
 40
1
 40
1
 40
1
 10
418.490732
 20
694.119833
 30
0.0
 10
412.258131
 20
694.119833
 30
0.0
 10
409.067478
 20
699.684420
 30
0.0
 10
412.022997
 20
705.399754
 30
0.0
  0
SPLINE
  5
30d
100
AcDbEntity
  8
Layer_1
 62
7
100
AcDbSpline
 70
8
 71
3
 72
8
 73
4
 74
0
 40
0
 40
0
 40
0
 40
0
 40
1
 40
1
 40
1
 40
1
 10
412.022997
 20
705.399754
 30
0.0
 10
413.423597
 20
708.108176
 30
0.0
 10
416.103673
 20
709.501435
 30
0.0
 10
430.619120
 20
715.067014
 30
0.0
  0
SPLINE
  5
30e
100
AcDbEntity
  8
Layer_1
 62
7
100
AcDbSpline
 70
8
 71
3
 72
8
 73
4
 74
0
 40
0
 40
0
 40
0
 40
0
 40
1
 40
1
 40
1
 40
1
 10
430.619120
 20
715.067014
 30
0.0
 10
436.882788
 20
717.468643
 30
0.0
 10
447.765319
 20
721.827823
 30
0.0
 10
454.802564
 20
724.754089
 30
0.0
  0
SPLINE
  5
30f
100
AcDbEntity
  8
Layer_1
 62
7
100
AcDbSpline
 70
8
 71
3
 72
8
 73
4
 74
0
 40
0
 40
0
 40
0
 40
0
 40
1
 40
1
 40
1
 40
1
 10
454.802564
 20
724.754089
 30
0.0
 10
461.839808
 20
727.680354
 30
0.0
 10
469.264804
 20
730.428774
 30
0.0
 10
471.302576
 20
730.861681
 30
0.0
  0
SPLINE
  5
310
100
AcDbEntity
  8
Layer_1
 62
7
100
AcDbSpline
 70
8
 71
3
 72
8
 73
4
 74
0
 40
0
 40
0
 40
0
 40
0
 40
1
 40
1
 40
1
 40
1
 10
471.302576
 20
730.861681
 30
0.0
 10
476.513569
 20
731.968697
 30
0.0
 10
480.904016
 20
730.595224
 30
0.0
 10
483.870477
 20
726.930051
 30
0.0
  0
SPLINE
  5
311
100
AcDbEntity
  8
Layer_1
 62
7
100
AcDbSpline
 70
8
 71
3
 72
8
 73
4
 74
0
 40
0
 40
0
 40
0
 40
0
 40
1
 40
1
 40
1
 40
1
 10
483.870477
 20
726.930051
 30
0.0
 10
485.846199
 20
724.489021
 30
0.0
 10
486.171929
 20
723.407857
 30
0.0
 10
486.466903
 20
718.312178
 30
0.0
  0
SPLINE
  5
312
100
AcDbEntity
  8
Layer_1
 62
7
100
AcDbSpline
 70
8
 71
3
 72
8
 73
4
 74
0
 40
0
 40
0
 40
0
 40
0
 40
1
 40
1
 40
1
 40
1
 10
486.466903
 20
718.312178
 30
0.0
 10
487.030941
 20
708.568750
 30
0.0
 10
482.273520
 20
681.003768
 30
0.0
 10
475.346317
 20
653.878525
 30
0.0
  0
SPLINE
  5
313
100
AcDbEntity
  8
Layer_1
 62
7
100
AcDbSpline
 70
8
 71
3
 72
8
 73
4
 74
0
 40
0
 40
0
 40
0
 40
0
 40
1
 40
1
 40
1
 40
1
 10
475.346317
 20
653.878525
 30
0.0
 10
470.869272
 20
636.347465
 30
0.0
 10
469.836978
 20
633.643238
 30
0.0
 10
467.076908
 20
632.215935
 30
0.0
  0
SPLINE
  5
314
100
AcDbEntity
  8
Layer_1
 62
7
100
AcDbSpline
 70
8
 71
3
 72
8
 73
4
 74
0
 40
0
 40
0
 40
0
 40
0
 40
1
 40
1
 40
1
 40
1
 10
467.076908
 20
632.215935
 30
0.0
 10
464.715248
 20
630.994683
 30
0.0
 10
460.568581
 20
630.787583
 30
0.0
 10
458.953284
 20
631.810212
 30
0.0
  0
SPLINE
  5
315
100
AcDbEntity
  8
Layer_1
 62
7
100
AcDbSpline
 70
8
 71
3
 72
8
 73
4
 74
0
 40
0
 40
0
 40
0
 40
0
 40
1
 40
1
 40
1
 40
1
 10
458.953284
 20
631.810212
 30
0.0
 10
458.300067
 20
632.223730
 30
0.0
 10
456.588024
 20
632.063913
 30
0.0
 10
454.453278
 20
631.390485
 30
0.0
  0
SPLINE
  5
316
100
AcDbEntity
  8
Layer_1
 62
7
100
AcDbSpline
 70
8
 71
3
 72
8
 73
4
 74
0
 40
0
 40
0
 40
0
 40
0
 40
1
 40
1
 40
1
 40
1
 10
454.453278
 20
631.390485
 30
0.0
 10
439.413988
 20
626.645140
 30
0.0
 10
419.681625
 20
624.598580
 30
0.0
 10
412.214676
 20
627.009704
 30
0.0
  0
LWPOLYLINE
  5
317
100
AcDbEntity
  8
Layer_1
 62
7
100
AcDbPolyline
 90
3
 70
0
 10
446.132590
 20
646.017617
 30
0.0
 10
457.007609
 20
648.795743
 30
0.0
 10
458.605728
 20
654.395253
 30
0.0
  0
LWPOLYLINE
  5
318
100
AcDbEntity
  8
Layer_1
 62
7
100
AcDbPolyline
 90
1
 70
1
 10
412.214676
 20
627.009704
 30
0.0
  0
ENDSEC
  0
SECTION
  2
OBJECTS
  0
DICTIONARY
  5
C
330
0
100
AcDbDictionary
  3
ACAD_GROUP
350
D
  3
ACAD_MLINESTYLE
350
17
  0
DICTIONARY
  5
D
330
C
100
AcDbDictionary
  0
DICTIONARY
  5
1A
330
C
100
AcDbDictionary
  0
DICTIONARY
  5
17
330
C
100
AcDbDictionary
  3
STANDARD
350
18
  0
DICTIONARY
  5
19
330
C
100
AcDbDictionary
  0
ENDSEC
  0
EOF
